  0
SECTION
  2
HEADER
  9
$ACADVER
  1
AC1009
  9
$INSBASE
 10
4605.8932225397084039
 20
516.646403974506029
 30
0.0
  9
$EXTMIN
 10
4597.8699591607046386
 20
488.5512349703603263
 30
0.0
  9
$EXTMAX
 10
4613.0306362732017078
 20
516.6507388482639271
 30
0.0
  9
$LIMMIN
 10
0.0
 20
0.0
  9
$LIMMAX
 10
11.6929133858000007
 20
8.2677165353999982
  9
$ORTHOMODE
 70
     0
  9
$REGENMODE
 70
     1
  9
$FILLMODE
 70
     1
  9
$QTEXTMODE
 70
     0
  9
$MIRRTEXT
 70
     0
  9
$DRAGMODE
 70
     2
  9
$LTSCALE
 40
0.6431102362
  9
$OSMODE
 70
     7
  9
$ATTMODE
 70
     1
  9
$TEXTSIZE
 40
0.2
  9
$TRACEWID
 40
0.05
  9
$TEXTSTYLE
  7
STANDARD
  9
$CLAYER
  8
0
  9
$CELTYPE
  6
BYLAYER
  9
$CECOLOR
 62
   256
  9
$DIMSCALE
 40
1.0
  9
$DIMASZ
 40
0.1875
  9
$DIMEXO
 40
0.0625
  9
$DIMDLI
 40
0.4443307087
  9
$DIMRND
 40
0.0
  9
$DIMDLE
 40
0.0
  9
$DIMEXE
 40
0.125
  9
$DIMTP
 40
0.01
  9
$DIMTM
 40
0.01
  9
$DIMTXT
 40
2.0
  9
$DIMCEN
 40
0.1052362205
  9
$DIMTSZ
 40
0.0
  9
$DIMTOL
 70
     1
  9
$DIMLIM
 70
     0
  9
$DIMTIH
 70
     1
  9
$DIMTOH
 70
     1
  9
$DIMSE1
 70
     0
  9
$DIMSE2
 70
     0
  9
$DIMTAD
 70
     0
  9
$DIMZIN
 70
     0
  9
$DIMBLK
  1

  9
$DIMASO
 70
     1
  9
$DIMSHO
 70
     1
  9
$DIMPOST
  1
\X
  9
$DIMAPOST
  1

  9
$DIMALT
 70
     1
  9
$DIMALTD
 70
     2
  9
$DIMALTF
 40
25.3999999999999986
  9
$DIMLFAC
 40
1.0
  9
$DIMTOFL
 70
     0
  9
$DIMTVP
 40
0.0
  9
$DIMTIX
 70
     0
  9
$DIMSOXD
 70
     0
  9
$DIMSAH
 70
     0
  9
$DIMBLK1
  1

  9
$DIMBLK2
  1

  9
$DIMSTYLE
  2
STANDARD
  9
$DIMCLRD
 70
     0
  9
$DIMCLRE
 70
     0
  9
$DIMCLRT
 70
     0
  9
$DIMTFAC
 40
1.0
  9
$DIMGAP
 40
0.09
  9
$LUNITS
 70
     2
  9
$LUPREC
 70
     4
  9
$SKETCHINC
 40
0.1
  9
$FILLETRAD
 40
0.0
  9
$AUNITS
 70
     0
  9
$AUPREC
 70
     0
  9
$MENU
  1
.
  9
$ELEVATION
 40
0.0
  9
$PELEVATION
 40
0.0
  9
$THICKNESS
 40
0.0
  9
$LIMCHECK
 70
     0
  9
$BLIPMODE
 70
     0
  9
$CHAMFERA
 40
0.0
  9
$CHAMFERB
 40
0.0
  9
$SKPOLY
 70
     0
  9
$TDCREATE
 40
2458060.468368056230247
  9
$TDUPDATE
 40
2459344.9950694451108575
  9
$TDINDWG
 40
1.4844529397999999
  9
$TDUSRTIMER
 40
1.4844529397999999
  9
$USRTIMER
 70
     1
  9
$ANGBASE
 50
0.0
  9
$ANGDIR
 70
     0
  9
$PDMODE
 70
     0
  9
$PDSIZE
 40
0.3125
  9
$PLINEWID
 40
0.0
  9
$COORDS
 70
     1
  9
$SPLFRAME
 70
     0
  9
$SPLINETYPE
 70
     6
  9
$SPLINESEGS
 70
     8
  9
$ATTDIA
 70
     1
  9
$ATTREQ
 70
     1
  9
$HANDLING
 70
     1
  9
$HANDSEED
  5
1BC14
  9
$SURFTAB1
 70
     6
  9
$SURFTAB2
 70
     6
  9
$SURFTYPE
 70
     6
  9
$SURFU
 70
     6
  9
$SURFV
 70
     6
  9
$UCSNAME
  2

  9
$UCSORG
 10
0.0
 20
0.0
 30
0.0
  9
$UCSXDIR
 10
1.0
 20
0.0
 30
0.0
  9
$UCSYDIR
 10
0.0
 20
1.0
 30
0.0
  9
$PUCSNAME
  2

  9
$PUCSORG
 10
0.0
 20
0.0
 30
0.0
  9
$PUCSXDIR
 10
1.0
 20
0.0
 30
0.0
  9
$PUCSYDIR
 10
0.0
 20
1.0
 30
0.0
  9
$USERI1
 70
     0
  9
$USERI2
 70
     0
  9
$USERI3
 70
     0
  9
$USERI4
 70
     0
  9
$USERI5
 70
     0
  9
$USERR1
 40
0.0
  9
$USERR2
 40
0.0
  9
$USERR3
 40
0.0
  9
$USERR4
 40
0.0
  9
$USERR5
 40
0.0
  9
$WORLDVIEW
 70
     1
  9
$SHADEDGE
 70
     3
  9
$SHADEDIF
 70
    70
  9
$TILEMODE
 70
     1
  9
$MAXACTVP
 70
    64
  9
$PLIMCHECK
 70
     0
  9
$PEXTMIN
 10
1.0000000000000000E+20
 20
1.0000000000000000E+20
 30
1.0000000000000000E+20
  9
$PEXTMAX
 10
-1.0000000000000000E+20
 20
-1.0000000000000000E+20
 30
-1.0000000000000000E+20
  9
$PLIMMIN
 10
0.0
 20
0.0
  9
$PLIMMAX
 10
12.0
 20
9.0
  9
$UNITMODE
 70
     0
  9
$VISRETAIN
 70
     1
  9
$PLINEGEN
 70
     0
  9
$PSLTSCALE
 70
     1
  0
ENDSEC
  0
SECTION
  2
TABLES
  0
TABLE
  2
VPORT
 70
     1
  0
VPORT
  2
*ACTIVE
 70
     0
 10
0.0
 20
0.0
 11
1.0
 21
1.0
 12
694.1959508646059476
 22
370.0262637896590263
 13
0.0
 23
0.0
 14
1.0
 24
1.0
 15
0.0
 25
0.0
 16
0.0
 26
0.0
 36
60.4960186965801583
 17
3911.3653564453120453
 27
132.5796051025390057
 37
0.0
 40
28.3768704240148892
 41
2.3461538461538458
 42
50.0
 43
0.0
 44
0.0
 50
0.0
 51
0.0
 71
     0
 72
   100
 73
     1
 74
     1
 75
     0
 76
     0
 77
     0
 78
     0
  0
ENDTAB
  0
TABLE
  2
LTYPE
 70
     2
  0
LTYPE
  2
CONTINUOUS
 70
     0
  3
Solid line
 72
    65
 73
     0
 40
0.0
  0
LTYPE
  2
PHANTOM2
 70
     0
  3
___ _ _ ___ _ _ ___ _ _ ___ _ _
 72
    65
 73
     6
 40
1.25
 49
0.625
 49
-0.125
 49
0.125
 49
-0.125
 49
0.125
 49
-0.125
  0
ENDTAB
  0
TABLE
  2
LAYER
 70
     2
  0
LAYER
  2
0
 70
     0
 62
   255
  6
CONTINUOUS
  0
LAYER
  2
DEFPOINTS
 70
     0
 62
     7
  6
CONTINUOUS
  0
ENDTAB
  0
TABLE
  2
STYLE
 70
     1
  0
STYLE
  2
STANDARD
 70
     0
 40
0.0
 41
0.8
 50
0.0
 71
     0
 42
0.2
  3
txt
  4

  0
ENDTAB
  0
TABLE
  2
VIEW
 70
     0
  0
ENDTAB
  0
TABLE
  2
UCS
 70
     0
  0
ENDTAB
  0
TABLE
  2
APPID
 70
    11
  0
APPID
  2
ACAD
 70
     0
  0
APPID
  2
ACAD_MLEADERVER
 70
     0
  0
APPID
  2
ACAD_EXEMPT_FROM_CAD_STANDARDS
 70
     0
  0
APPID
  2
ACAD_NAV_VCDISPLAY
 70
     0
  0
APPID
  2
ACAECLAYERSTANDARD
 70
     0
  0
APPID
  2
ACCMTRANSPARENCY
 70
     0
  0
APPID
  2
ACAD_DSTYLE_DIMJAG
 70
     0
  0
APPID
  2
ACAD_DSTYLE_DIMTALN
 70
     0
  0
APPID
  2
ACDBATTR
 70
     0
  0
APPID
  2
ACADANNOTATIVE
 70
     0
  0
APPID
  2
DCO15
 70
     0
  0
ENDTAB
  0
TABLE
  2
DIMSTYLE
 70
     1
  0
DIMSTYLE
  2
STANDARD
 70
     0
  3

  4

  5

  6

  7

 40
1.0
 41
0.1875
 42
0.0625
 43
0.38
 44
0.125
 45
0.0
 46
0.0
 47
0.01
 48
0.01
140
0.15625
141
0.09
142
0.0
143
25.3999999999999986
144
1.0
145
0.0
146
1.0
147
0.09
 71
     1
 72
     0
 73
     1
 74
     1
 75
     0
 76
     0
 77
     0
 78
     4
170
     0
171
     2
172
     0
173
     0
174
     0
175
     0
176
     0
177
     0
178
     0
  0
ENDTAB
  0
ENDSEC
  0
SECTION
  2
BLOCKS
  0
BLOCK
  8
0
  2
$MODEL_SPACE
 70
     0
 10
0.0
 20
0.0
 30
0.0
  3
$MODEL_SPACE
  1

  0
ENDBLK
  5
21
  8
0
  0
BLOCK
 67
     1
  8
0
  2
$PAPER_SPACE
 70
     0
 10
0.0
 20
0.0
 30
0.0
  3
$PAPER_SPACE
  1

  0
ENDBLK
  5
1D
 67
     1
  8
0
  0
ENDSEC
  0
SECTION
  2
ENTITIES
  0
ATTDEF
  5
159BF
  8
DEFPOINTS
 10
4605.8932224455629694
 20
516.649738848263496
 30
0.0
 40
0.001
  1
K-20184T-S
  3

  2
MODELNUMBER
 70
     0
1001
ACDBATTR
1070
     0
1070
     1
  0
ATTDEF
  5
159C0
  8
DEFPOINTS
 10
4605.8932224455629694
 20
516.6480720078842523
 30
0.0
 40
0.001
  1
PATIO
  3

  2
TRADENAME
 70
     0
1001
ACDBATTR
1070
     0
1070
     1
  0
ATTDEF
  5
159C1
  8
DEFPOINTS
 10
4605.8932224455629694
 20
516.6464055149302794
 30
0.0
 40
0.001
  1
TOILET
  3

  2
PRODUCT
 70
     0
1001
ACDBATTR
1070
     0
1070
     1
  0
ARC
  5
1BB01
  8
0
 10
4615.4574914172817444
 20
512.9958148323428304
 30
0.0
 40
16.6968743373355011
 50
175.7366776021061128
 51
184.2633223978938872
  0
ARC
  5
1BB02
  8
0
 10
4598.6943672298493766
 20
682.2808799675475484
 30
0.0
 40
168.6965335953076135
 50
269.7308425871435134
 51
270.0260280175427852
  0
ARC
  5
1BB03
  8
0
 10
4597.9019098597264019
 20
513.5625092095469881
 30
0.0
 40
0.0236985866371377
 50
90.0545511470766513
 51
176.0812741396931926
  0
ARC
  5
1BB04
  8
0
 10
4619.0297812249882554
 20
512.9712525384210267
 30
0.0
 40
21.15982206428232
 50
178.3944215655482139
 51
181.5898588168489027
  0
ARC
  5
1BB05
  8
0
 10
4598.6943672298493766
 20
343.6645572203381107
 30
0.0
 40
168.6965335953076135
 50
89.973397008784616
 51
90.2691574128565293
  0
ARC
  5
1BB06
  8
0
 10
4597.9019098597264019
 20
512.3829279783387847
 30
0.0
 40
0.0236985866371377
 50
183.9187258603066937
 51
269.9454488529232776
  0
ARC
  5
1BB07
  8
0
 10
4597.9250761092926041
 20
512.3853875206634712
 30
0.0
 40
0.0469868276886159
 50
181.4733383378654992
 51
184.9803713531221945
  0
ARC
  5
1BB08
  8
0
 10
4600.1201940501050558
 20
514.6613309911724627
 30
0.0
 40
1.2061472187399671
 50
115.7452518901690013
 51
157.6102835094881982
  0
ARC
  5
1BB09
  8
0
 10
4600.8144360121495993
 20
513.1092489248190986
 30
0.0
 40
2.9061296038319688
 50
98.390657418565084
 51
114.7820783185079989
  0
ARC
  5
1BB0A
  8
0
 10
4601.8126299299901802
 20
514.0271210287829717
 30
0.0
 40
3.0131344393610342
 50
158.7181227007093867
 51
176.0045755493941897
  0
ARC
  5
1BB0B
  8
0
 10
4611.6662510293108426
 20
514.6613309911724627
 30
0.0
 40
1.2061472187399671
 50
22.3897164905117698
 51
64.2547481098309561
  0
ARC
  5
1BB0C
  8
0
 10
4610.9720090672672086
 20
513.1092489248190986
 30
0.0
 40
2.9061296038319688
 50
65.2179216814920153
 51
81.6093425814349303
  0
ARC
  5
1BB0D
  8
0
 10
4609.9738151494257181
 20
514.0271210287829717
 30
0.0
 40
3.0131344393610342
 50
3.9954244506058121
 51
21.2818772992906311
  0
ARC
  5
1BB0E
  8
0
 10
4605.8932225397084039
 20
387.6004311147850103
 30
0.0
 40
128.5894470108644043
 50
88.289799799540134
 51
91.7102002004598802
  0
ARC
  5
1BB0F
  8
0
 10
4601.8127762580243143
 20
507.5252736230146979
 30
0.0
 40
8.5777556765268823
 50
94.1832199486617441
 51
99.5451727653455691
  0
ARC
  5
1BB10
  8
0
 10
4603.6810002549882483
 20
481.982489434779211
 30
0.0
 40
34.1887705917855982
 50
92.7250223426400737
 51
94.1832199486617441
  0
ARC
  5
1BB11
  8
0
 10
4609.9736688213915841
 20
507.5252736230146979
 30
0.0
 40
8.5777556765268823
 50
80.4548272346544451
 51
85.8167800513382417
  0
ARC
  5
1BB12
  8
0
 10
4608.10544482442765
 20
481.982489434779211
 30
0.0
 40
34.1887705917855982
 50
85.8167800513382417
 51
87.2749776573599263
  0
ARC
  5
1BB13
  8
0
 10
4600.1201940501050558
 20
511.3302986735133118
 30
0.0
 40
1.2061472187399671
 50
202.3897164905118018
 51
244.2547481098310129
  0
ARC
  5
1BB14
  8
0
 10
4600.8144360121495993
 20
512.8823807398664485
 30
0.0
 40
2.9061296038319688
 50
245.2179216814919869
 51
261.6093425814348734
  0
ARC
  5
1BB15
  8
0
 10
4601.8126299299901802
 20
511.9645086359025186
 30
0.0
 40
3.0131344393610342
 50
183.9954244506058103
 51
201.2818772992906133
  0
ARC
  5
1BB16
  8
0
 10
4611.6662510293108426
 20
511.3302986735133118
 30
0.0
 40
1.2061472187399671
 50
295.7452518901690155
 51
337.6102835094882266
  0
ARC
  5
1BB17
  8
0
 10
4610.9720090672672086
 20
512.8823807398664485
 30
0.0
 40
2.9061296038319688
 50
278.3906574185651266
 51
294.7820783185078994
  0
ARC
  5
1BB18
  8
0
 10
4609.9738151494257181
 20
511.9645086359025186
 30
0.0
 40
3.0131344393610342
 50
338.7181227007093867
 51
356.0045755493941897
  0
ARC
  5
1BB19
  8
0
 10
4605.8932225397084039
 20
661.8532899278501418
 30
0.0
 40
152.0426998544292871
 50
268.5536668405101182
 51
271.4463331594898818
  0
ARC
  5
1BB1A
  8
0
 10
4601.8127762580243143
 20
518.4663560416709061
 30
0.0
 40
8.5777556765268823
 50
260.454827234654374
 51
265.8167800513381849
  0
ARC
  5
1BB1B
  8
0
 10
4603.6810002549882483
 20
544.009140229906393
 30
0.0
 40
34.1887705917855982
 50
265.8167800513381849
 51
267.2749776573598979
  0
ARC
  5
1BB1C
  8
0
 10
4609.9736688213915841
 20
518.4663560416709061
 30
0.0
 40
8.5777556765268823
 50
274.1832199486617014
 51
279.545172765345626
  0
ARC
  5
1BB1D
  8
0
 10
4608.10544482442765
 20
544.009140229906393
 30
0.0
 40
34.1887705917855982
 50
272.7250223426401021
 51
274.1832199486617014
  0
ARC
  5
1BB1E
  8
0
 10
4597.9030585606305976
 20
512.9958148323428304
 30
0.0
 40
15.1275777125697601
 50
355.2934610702437794
 51
4.7065389297561664
  0
ARC
  5
1BB1F
  8
0
 10
4570.3684211694389887
 20
506.9139981773743102
 30
0.0
 40
29.519661768424541
 50
1.0941716612239789
 51
6.3840193963101353
  0
ARC
  5
1BB20
  8
0
 10
4600.8430885360794491
 20
505.9718475650835785
 30
0.0
 40
1.938653333671936
 50
89.1106940978479969
 51
108.194038173453805
  0
ARC
  5
1BB21
  8
0
 10
4600.387149627135841
 20
507.3076411080052139
 30
0.0
 40
0.5275273780750765
 50
106.449339854221094
 51
140.617485861186907
  0
ARC
  5
1BB22
  8
0
 10
4600.8343415080744307
 20
507.029491601780876
 30
0.0
 40
1.051907709892085
 50
144.3649460344740021
 51
178.9775424418552916
  0
ARC
  5
1BB23
  8
0
 10
4564.1514274885748819
 20
509.0893756160505745
 30
0.0
 40
35.6895879811389634
 50
355.699030068189586
 51
356.7214238539302187
  0
ARC
  5
1BB24
  8
0
 10
4582.6136519574183694
 20
507.7008796798644994
 30
0.0
 40
17.175224548855109
 50
348.6185277663819875
 51
355.699030068189586
  0
ARC
  5
1BB25
  8
0
 10
4619.2399096758053929
 20
498.5235393885038206
 30
0.0
 40
20.4838120360887217
 50
173.1957357366106862
 51
186.8042642633893138
  0
ARC
  5
1BB26
  8
0
 10
4644.7741442666765579
 20
495.1591374728876076
 30
0.0
 40
46.2378845058317793
 50
168.5834142690295891
 51
172.8048251722983935
  0
ARC
  5
1BB27
  8
0
 10
4605.8932225397084039
 20
494.4095191285912847
 30
0.0
 40
5.858284158231001
 50
247.8914855301183877
 51
292.1085144698815839
  0
ARC
  5
1BB28
  8
0
 10
4610.3312997263174111
 20
497.7470166147859914
 30
0.0
 40
11.5494500222652103
 50
188.215387113877
 51
206.6402659280425098
  0
ARC
  5
1BB29
  8
0
 10
4607.2457917510473635
 20
496.1450165655838873
 30
0.0
 40
8.0733302690363011
 50
206.2965750613140017
 51
228.9428204480308864
  0
ARC
  5
1BB2A
  8
0
 10
4606.2047813129893257
 20
495.0201132655932952
 30
0.0
 40
6.5415065214670154
 50
229.3468563313988113
 51
247.3760552833383031
  0
LINE
  5
1BB2B
  8
0
 10
4600.8731777790080741
 20
507.9102673817429263
 30
0.0
 11
4601.612754551708349
 21
507.9102673817429263
 31
0.0
  0
LINE
  5
1BB2C
  8
0
 10
4601.612754551708349
 20
507.9102673817429263
 30
0.0
 11
4601.617332969308336
 21
507.7315851250427841
 31
0.0
  0
LINE
  5
1BB2D
  8
0
 10
4601.616106576508173
 20
507.7828386031428067
 30
0.0
 11
4601.6235399205079375
 21
507.7828386031428067
 31
0.0
  0
LINE
  5
1BB2E
  8
0
 10
4601.6235399205079375
 20
507.7828386031428067
 30
0.0
 11
4601.6235399205079375
 21
507.7177042897841943
 31
0.0
  0
LINE
  5
1BB2F
  8
0
 10
4601.6345089630831353
 20
507.7093940404378145
 30
0.0
 11
4601.6366350020198297
 21
507.9097952169018981
 31
0.0
  0
ARC
  5
1BB30
  8
0
 10
4601.7088127821016315
 20
507.931085428451695
 30
0.0
 40
0.0711398119114796
 50
90.0765060323313662
 51
174.0148747657468959
  0
ARC
  5
1BB31
  8
0
 10
4602.0286528141214148
 20
507.9047154610582879
 30
0.0
 40
0.3920507223862463
 50
175.0559992453183895
 51
179.2576044415538945
  0
LINE
  5
1BB32
  8
0
 10
4601.708717790407718
 20
508.0022251769427726
 30
0.0
 11
4602.0669804563076468
 21
508.0022251769427726
 31
0.0
  0
ARC
  5
1BB33
  8
0
 10
4272.6013277969577757
 20
497.1821478513929264
 30
0.0
 40
329.7009183605861153
 50
1.8575140121235381
 51
1.8680460246725901
  0
ARC
  5
1BB34
  8
0
 10
4591.8266391607594414
 20
507.6554506861277787
 30
0.0
 40
10.3045727873481301
 50
0.1628385374385054
 51
1.1879801693692451
  0
LINE
  5
1BB35
  8
0
 10
4602.1289214843072841
 20
507.8714212803427017
 30
0.0
 11
4602.1412564543079498
 21
507.8714212803427017
 31
0.0
  0
LINE
  5
1BB36
  8
0
 10
4602.1412564543079498
 20
507.8714212803427017
 30
0.0
 11
4602.1412564543079498
 21
507.6847369497427849
 31
0.0
  0
LINE
  5
1BB37
  8
0
 10
4602.0538563357076782
 20
507.6847369497427849
 30
0.0
 11
4609.7325927142082946
 21
507.6847369494428222
 31
0.0
  0
ARC
  5
1BB38
  8
0
 10
4602.066846996564891
 20
507.9428605825626732
 30
0.0
 40
0.0593647443977415
 50
6.4545913021053813
 51
89.8711914531484268
  0
ARC
  5
1BB39
  8
0
 10
4601.8674747633167499
 20
507.9240697274735794
 30
0.0
 40
0.2596125497197828
 50
1.2349852251359561
 51
5.6289711912095477
  0
ARC
  5
1BB3A
  8
0
 10
4601.6422110605308262
 20
507.7343814396813855
 30
0.0
 40
0.0250347518147867
 50
186.4131677829003877
 51
234.7934435129417068
  0
ARC
  5
1BB3B
  8
0
 10
4601.7346441137287911
 20
507.8653818174827279
 30
0.0
 40
0.1853624422112085
 50
234.7934435129417068
 51
255.5445655105330047
  0
ARC
  5
1BB3C
  8
0
 10
4601.7429945408448475
 20
507.8977744421057992
 30
0.0
 40
0.2188140753998562
 50
255.5445655105330047
 51
273.1676768427842035
  0
ARC
  5
1BB3D
  8
0
 10
4602.0456103915748827
 20
499.9337100831667158
 30
0.0
 40
7.7510312528062491
 50
89.9390458029730269
 51
92.1480666748256141
  0
LINE
  5
1BB3E
  8
0
 10
4602.1412564543079498
 20
507.8251614378427803
 30
0.0
 11
4602.1559136891091839
 21
507.8251614378427803
 31
0.0
  0
LINE
  5
1BB3F
  8
0
 10
4602.1461007191082899
 20
507.8251614378427803
 30
0.0
 11
4602.1461007191082899
 21
508.0190590754427831
 31
0.0
  0
LINE
  5
1BB40
  8
0
 10
4602.1854663008080024
 20
508.0584291543427753
 30
0.0
 11
4602.2967682656144461
 21
508.0580855506713078
 31
0.0
  0
LINE
  5
1BB41
  8
0
 10
4602.3636973994071013
 20
508.1141551383428805
 30
0.0
 11
4602.2259021250092701
 21
508.1141551383428805
 31
0.0
  0
LINE
  5
1BB42
  8
0
 10
4602.2062170845083529
 20
508.0944700989427929
 30
0.0
 11
4602.2062170845083529
 21
508.0865960846427924
 31
0.0
  0
LINE
  5
1BB43
  8
0
 10
4602.2259021238078276
 20
508.066911043842822
 30
0.0
 11
4602.299917871908292
 21
508.066911043842822
 31
0.0
  0
LINE
  5
1BB44
  8
0
 10
4602.3833824388084395
 20
508.0944700978428159
 30
0.0
 11
4602.3833824388084395
 21
508.0498360647428058
 31
0.0
  0
ARC
  5
1BB45
  8
0
 10
4602.3636973994071013
 20
508.0944700989427929
 30
0.0
 40
0.0196850393999952
 50
359.9999967982967064
 51
90.0000000000521254
  0
ARC
  5
1BB46
  8
0
 10
4602.2999178720983764
 20
508.0472260046449264
 30
0.0
 40
0.0196850391979169
 50
7.6265485282767136
 51
90.0000005536709438
  0
ARC
  5
1BB47
  8
0
 10
4602.2259021237377965
 20
508.0944700991134937
 30
0.0
 40
0.0196850392292874
 50
89.9999963014258668
 51
180.0000004968676137
  0
ARC
  5
1BB48
  8
0
 10
4602.2259021237377965
 20
508.0865960830719814
 30
0.0
 40
0.0196850392292799
 50
179.9999954282477006
 51
270.0000002058353061
  0
ARC
  5
1BB49
  8
0
 10
4602.2963630965414268
 20
508.0380126276219244
 30
0.0
 40
0.0200770117728394
 50
36.0686988779447475
 51
88.8436499309204066
  0
LINE
  5
1BB4A
  8
0
 10
4602.3125915789705687
 20
508.0498330658427903
 30
0.0
 11
4609.4738535004453297
 21
508.0498330658427903
 31
0.0
  0
ARC
  5
1BB4B
  8
0
 10
4602.1854679954331004
 20
508.0190618779540159
 30
0.0
 40
0.0393672764252262
 50
90.0024663856768967
 51
180.0040788208179947
  0
ARC
  5
1BB4C
  8
0
 10
4598.0612054342827832
 20
507.6912211676149127
 30
0.0
 40
4.0968640256194249
 50
359.9093163769791772
 51
1.760792383816544
  0
ARC
  5
1BB4D
  8
0
 10
4601.8247345208019397
 20
507.8120326511149756
 30
0.0
 40
0.3314392954383591
 50
0.8768265368670203
 51
4.6926166119844286
  0
ARC
  5
1BB4E
  8
0
 10
4602.2765037171939184
 20
507.8242371054179216
 30
0.0
 40
0.1223528515480579
 50
173.0002084208888107
 51
179.5671465771548014
  0
LINE
  5
1BB4F
  8
0
 10
4601.6427439403196331
 20
507.7044048218907051
 30
0.0
 11
4601.6408228352083825
 21
507.8557690593427765
 31
0.0
  0
LINE
  5
1BB50
  8
0
 10
4601.7116862745078834
 20
507.9242208845427058
 30
0.0
 11
4602.0699749324076038
 21
507.9242208819428015
 31
0.0
  0
ARC
  5
1BB51
  8
0
 10
4601.710702295664305
 20
507.8543336088952174
 30
0.0
 40
0.0698942022760154
 50
89.1933565956772441
 51
178.8232066117001011
  0
ARC
  5
1BB52
  8
0
 10
4602.0710612873981518
 20
507.8662213985380731
 30
0.0
 40
0.058009656457978
 50
2.9887436299436181
 51
91.0730488429043987
  0
ARC
  5
1BB53
  8
0
 10
4641.4180239099769096
 20
506.9139981773743102
 30
0.0
 40
29.519661768424541
 50
173.6159806036897919
 51
178.9058283387728068
  0
ARC
  5
1BB54
  8
0
 10
4610.9433565433382682
 20
505.9718475650835785
 30
0.0
 40
1.938653333671936
 50
71.8059618265461808
 51
90.8893059021520031
  0
ARC
  5
1BB55
  8
0
 10
4611.3992954522800574
 20
507.3076411080052139
 30
0.0
 40
0.5275273780750765
 50
39.3825141388131215
 51
73.5506601457788918
  0
ARC
  5
1BB56
  8
0
 10
4610.9521035713423771
 20
507.029491601780876
 30
0.0
 40
1.051907709892085
 50
1.0224575581446591
 51
35.6350539655259908
  0
ARC
  5
1BB57
  8
0
 10
4647.635017590840107
 20
509.0893756160505745
 30
0.0
 40
35.6895879811389634
 50
183.2785761460696961
 51
184.3009699318103003
  0
ARC
  5
1BB58
  8
0
 10
4629.1727931219993479
 20
507.7008796798644994
 30
0.0
 40
17.175224548855109
 50
184.3009699318103003
 51
191.3814722336180125
  0
ARC
  5
1BB59
  8
0
 10
4592.5465354036114149
 20
498.5235393885038206
 30
0.0
 40
20.4838120360886506
 50
353.1957357366106862
 51
6.8042642633893262
  0
ARC
  5
1BB5A
  8
0
 10
4567.012300812738431
 20
495.1591374728876076
 30
0.0
 40
46.2378845058317793
 50
7.1951748277016261
 51
11.4165857309703203
  0
ARC
  5
1BB5B
  8
0
 10
4601.4551453530975778
 20
497.7470166147859914
 30
0.0
 40
11.5494500222652103
 50
333.3597340719574049
 51
351.784612886123
  0
ARC
  5
1BB5C
  8
0
 10
4604.5406533283703538
 20
496.1450165655838873
 30
0.0
 40
8.0733302690363011
 50
311.0571795519691136
 51
333.7034249386859983
  0
ARC
  5
1BB5D
  8
0
 10
4605.5816637664256632
 20
495.0201132655932952
 30
0.0
 40
6.5415065214670154
 50
292.6239447166618106
 51
310.6531436686012171
  0
LINE
  5
1BB5E
  8
0
 10
4610.9132673004069147
 20
507.9102673817429263
 30
0.0
 11
4610.1736905277075493
 21
507.9102673817429263
 31
0.0
  0
LINE
  5
1BB5F
  8
0
 10
4610.1736905277075493
 20
507.9102673817429263
 30
0.0
 11
4610.1691121101075623
 21
507.7315851250427841
 31
0.0
  0
LINE
  5
1BB60
  8
0
 10
4610.1703385029086348
 20
507.7828386031428067
 30
0.0
 11
4610.1629051589070514
 21
507.7828386031428067
 31
0.0
  0
LINE
  5
1BB61
  8
0
 10
4610.1629051589070514
 20
507.7828386031428067
 30
0.0
 11
4610.1629051589070514
 21
507.7177042897841943
 31
0.0
  0
LINE
  5
1BB62
  8
0
 10
4610.151936116332763
 20
507.7093940404378145
 30
0.0
 11
4610.1498100773960687
 21
507.9097952169018981
 31
0.0
  0
ARC
  5
1BB63
  8
0
 10
4610.0776322973142669
 20
507.931085428451695
 30
0.0
 40
0.0711398119114796
 50
5.9851252342530659
 51
89.923493967668648
  0
ARC
  5
1BB64
  8
0
 10
4609.757792265295393
 20
507.9047154610582879
 30
0.0
 40
0.3920507223862463
 50
0.7423955584460967
 51
4.9440007546815909
  0
LINE
  5
1BB65
  8
0
 10
4610.0777272890081804
 20
508.0022251769427726
 30
0.0
 11
4609.7194646231082515
 21
508.0022251769427726
 31
0.0
  0
ARC
  5
1BB66
  8
0
 10
4939.1851172824581226
 20
497.1821478513929264
 30
0.0
 40
329.7009183605861153
 50
178.1319539753274057
 51
178.1424859878763982
  0
ARC
  5
1BB67
  8
0
 10
4619.9598059186582759
 20
507.6554506861277787
 30
0.0
 40
10.3045727873481301
 50
178.8120198306274915
 51
179.8371614625615109
  0
LINE
  5
1BB68
  8
0
 10
4609.6575235951077048
 20
507.8714212803427017
 30
0.0
 11
4609.6451886251070391
 21
507.8714212803427017
 31
0.0
  0
LINE
  5
1BB69
  8
0
 10
4609.6451886251070391
 20
507.8714212803427017
 30
0.0
 11
4609.6451886251070391
 21
507.6847369497427849
 31
0.0
  0
ARC
  5
1BB6A
  8
0
 10
4609.7195980828500979
 20
507.9428605825626732
 30
0.0
 40
0.0593647443977415
 50
90.1288085468515874
 51
173.5454086978946009
  0
ARC
  5
1BB6B
  8
0
 10
4609.9189703160991485
 20
507.9240697274735794
 30
0.0
 40
0.2596125497197828
 50
174.3710288087904132
 51
178.7650147748639995
  0
ARC
  5
1BB6C
  8
0
 10
4610.1442340188859816
 20
507.7343814396813855
 30
0.0
 40
0.0250347518147867
 50
305.2065564870583216
 51
353.586832217099527
  0
ARC
  5
1BB6D
  8
0
 10
4610.0518009656861977
 20
507.8653818174827279
 30
0.0
 40
0.1853624422112085
 50
284.4554344894668816
 51
305.2065564870583216
  0
ARC
  5
1BB6E
  8
0
 10
4610.0434505385701414
 20
507.8977744421057992
 30
0.0
 40
0.2188140753998562
 50
266.8323231572157965
 51
284.4554344894668816
  0
ARC
  5
1BB6F
  8
0
 10
4609.7408350268306094
 20
499.933722251074073
 30
0.0
 40
7.7510190807432089
 50
87.8519324578679743
 51
90.0609274484773721
  0
LINE
  5
1BB70
  8
0
 10
4609.6451886251070391
 20
507.8251614378427803
 30
0.0
 11
4609.630531390307624
 21
507.8251614378427803
 31
0.0
  0
LINE
  5
1BB71
  8
0
 10
4609.6403443603076084
 20
507.8251614378427803
 30
0.0
 11
4609.6403443603076084
 21
508.0190590754427831
 31
0.0
  0
LINE
  5
1BB72
  8
0
 10
4609.6009787786069865
 20
508.0584291543427753
 30
0.0
 11
4609.4896768138023617
 21
508.0580855506713078
 31
0.0
  0
LINE
  5
1BB73
  8
0
 10
4609.4227476800078875
 20
508.1141551383428805
 30
0.0
 11
4609.5605429544084473
 21
508.1141551383428805
 31
0.0
  0
LINE
  5
1BB74
  8
0
 10
4609.5802279949075455
 20
508.0944700989427929
 30
0.0
 11
4609.5802279949075455
 21
508.0865960846427924
 31
0.0
  0
LINE
  5
1BB75
  8
0
 10
4609.5605429556080708
 20
508.066911043842822
 30
0.0
 11
4609.4865272075076064
 21
508.066911043842822
 31
0.0
  0
LINE
  5
1BB76
  8
0
 10
4609.4030626406083684
 20
508.0944700978428159
 30
0.0
 11
4609.4030626406083684
 21
508.0498360647428058
 31
0.0
  0
ARC
  5
1BB77
  8
0
 10
4609.4227476800078875
 20
508.0944700989427929
 30
0.0
 40
0.0196850393999952
 50
89.9999999999478888
 51
180.0000032017032936
  0
ARC
  5
1BB78
  8
0
 10
4609.486527207319341
 20
508.0472260046449264
 30
0.0
 40
0.0196850391979169
 50
89.999999446329042
 51
172.3734514717233139
  0
ARC
  5
1BB79
  8
0
 10
4609.5605429556790114
 20
508.0944700991134937
 30
0.0
 40
0.0196850392292874
 50
359.9999995031324147
 51
90.0000036985741048
  0
ARC
  5
1BB7A
  8
0
 10
4609.5605429556790114
 20
508.0865960830719814
 30
0.0
 40
0.0196850392292799
 50
269.9999997941646939
 51
0.0000045717523009
  0
ARC
  5
1BB7B
  8
0
 10
4609.4900819828762906
 20
508.0380126276219244
 30
0.0
 40
0.0200770117728394
 50
91.1563500690795934
 51
143.9313011220552028
  0
ARC
  5
1BB7C
  8
0
 10
4609.6009770839818884
 20
508.0190618779540159
 30
0.0
 40
0.0393672764252262
 50
359.9959211791818916
 51
89.9975336143230891
  0
ARC
  5
1BB7D
  8
0
 10
4613.7252396451331151
 20
507.6912211676149127
 30
0.0
 40
4.0968640256194249
 50
178.2392076161833927
 51
180.0906836230174974
  0
ARC
  5
1BB7E
  8
0
 10
4609.9617105586130492
 20
507.8120326511149756
 30
0.0
 40
0.3314392954383591
 50
175.3073833880156087
 51
179.1231734631329005
  0
ARC
  5
1BB7F
  8
0
 10
4609.5099413622219799
 20
507.8242371054179216
 30
0.0
 40
0.1223528515480579
 50
0.4328534228451289
 51
6.9997915791112142
  0
LINE
  5
1BB80
  8
0
 10
4610.1437011390953558
 20
507.7044048218907051
 30
0.0
 11
4610.1456222442093349
 21
507.8557690593427765
 31
0.0
  0
LINE
  5
1BB81
  8
0
 10
4610.074758804908015
 20
507.9242208845427058
 30
0.0
 11
4609.7164701470092041
 21
507.9242208819428015
 31
0.0
  0
ARC
  5
1BB82
  8
0
 10
4610.0757427837506839
 20
507.8543336088952174
 30
0.0
 40
0.0698942022760154
 50
1.17679338829986
 51
90.8066434043227559
  0
ARC
  5
1BB83
  8
0
 10
4609.7153837920186561
 20
507.8662213985380731
 30
0.0
 40
0.058009656457978
 50
88.9269511570956013
 51
177.0112563700562873
  0
ENDSEC
  0
EOF
