  0
SECTION
  2
HEADER
  9
$ACADVER
  1
AC1009
  9
$INSBASE
 10
4648.6357645301395678
 20
490.8721719071979237
 30
0.0
  9
$EXTMIN
 10
4620.2715349752443217
 20
490.8635742114217919
 30
-0.0000000000000058
  9
$EXTMAX
 10
4648.9914927128766067
 20
520.9222646426715073
 30
0.0000000000000104
  9
$LIMMIN
 10
0.0
 20
0.0
  9
$LIMMAX
 10
11.6929133858000007
 20
8.2677165353999982
  9
$ORTHOMODE
 70
     0
  9
$REGENMODE
 70
     1
  9
$FILLMODE
 70
     1
  9
$QTEXTMODE
 70
     0
  9
$MIRRTEXT
 70
     0
  9
$DRAGMODE
 70
     2
  9
$LTSCALE
 40
0.6431102362
  9
$OSMODE
 70
     7
  9
$ATTMODE
 70
     1
  9
$TEXTSIZE
 40
0.2
  9
$TRACEWID
 40
0.05
  9
$TEXTSTYLE
  7
STANDARD
  9
$CLAYER
  8
0
  9
$CELTYPE
  6
BYLAYER
  9
$CECOLOR
 62
   256
  9
$DIMSCALE
 40
1.0
  9
$DIMASZ
 40
0.1875
  9
$DIMEXO
 40
0.0625
  9
$DIMDLI
 40
0.4443307087
  9
$DIMRND
 40
0.0
  9
$DIMDLE
 40
0.0
  9
$DIMEXE
 40
0.125
  9
$DIMTP
 40
0.01
  9
$DIMTM
 40
0.01
  9
$DIMTXT
 40
2.0
  9
$DIMCEN
 40
0.1052362205
  9
$DIMTSZ
 40
0.0
  9
$DIMTOL
 70
     1
  9
$DIMLIM
 70
     0
  9
$DIMTIH
 70
     1
  9
$DIMTOH
 70
     1
  9
$DIMSE1
 70
     0
  9
$DIMSE2
 70
     0
  9
$DIMTAD
 70
     0
  9
$DIMZIN
 70
     0
  9
$DIMBLK
  1

  9
$DIMASO
 70
     1
  9
$DIMSHO
 70
     1
  9
$DIMPOST
  1
\X
  9
$DIMAPOST
  1

  9
$DIMALT
 70
     1
  9
$DIMALTD
 70
     2
  9
$DIMALTF
 40
25.3999999999999986
  9
$DIMLFAC
 40
1.0
  9
$DIMTOFL
 70
     0
  9
$DIMTVP
 40
0.0
  9
$DIMTIX
 70
     0
  9
$DIMSOXD
 70
     0
  9
$DIMSAH
 70
     0
  9
$DIMBLK1
  1

  9
$DIMBLK2
  1

  9
$DIMSTYLE
  2
STANDARD
  9
$DIMCLRD
 70
     0
  9
$DIMCLRE
 70
     0
  9
$DIMCLRT
 70
     0
  9
$DIMTFAC
 40
1.0
  9
$DIMGAP
 40
0.09
  9
$LUNITS
 70
     2
  9
$LUPREC
 70
     4
  9
$SKETCHINC
 40
0.1
  9
$FILLETRAD
 40
0.0
  9
$AUNITS
 70
     0
  9
$AUPREC
 70
     0
  9
$MENU
  1
.
  9
$ELEVATION
 40
0.0
  9
$PELEVATION
 40
0.0
  9
$THICKNESS
 40
0.0
  9
$LIMCHECK
 70
     0
  9
$BLIPMODE
 70
     0
  9
$CHAMFERA
 40
0.0
  9
$CHAMFERB
 40
0.0
  9
$SKPOLY
 70
     0
  9
$TDCREATE
 40
2458060.468368056230247
  9
$TDUPDATE
 40
2459344.9951620372012258
  9
$TDINDWG
 40
1.4854367361
  9
$TDUSRTIMER
 40
1.4854367361
  9
$USRTIMER
 70
     1
  9
$ANGBASE
 50
0.0
  9
$ANGDIR
 70
     0
  9
$PDMODE
 70
     0
  9
$PDSIZE
 40
0.3125
  9
$PLINEWID
 40
0.0
  9
$COORDS
 70
     1
  9
$SPLFRAME
 70
     0
  9
$SPLINETYPE
 70
     6
  9
$SPLINESEGS
 70
     8
  9
$ATTDIA
 70
     1
  9
$ATTREQ
 70
     1
  9
$HANDLING
 70
     1
  9
$HANDSEED
  5
1BDCA
  9
$SURFTAB1
 70
     6
  9
$SURFTAB2
 70
     6
  9
$SURFTYPE
 70
     6
  9
$SURFU
 70
     6
  9
$SURFV
 70
     6
  9
$UCSNAME
  2

  9
$UCSORG
 10
0.0
 20
0.0
 30
0.0
  9
$UCSXDIR
 10
1.0
 20
0.0
 30
0.0
  9
$UCSYDIR
 10
0.0
 20
1.0
 30
0.0
  9
$PUCSNAME
  2

  9
$PUCSORG
 10
0.0
 20
0.0
 30
0.0
  9
$PUCSXDIR
 10
1.0
 20
0.0
 30
0.0
  9
$PUCSYDIR
 10
0.0
 20
1.0
 30
0.0
  9
$USERI1
 70
     0
  9
$USERI2
 70
     0
  9
$USERI3
 70
     0
  9
$USERI4
 70
     0
  9
$USERI5
 70
     0
  9
$USERR1
 40
0.0
  9
$USERR2
 40
0.0
  9
$USERR3
 40
0.0
  9
$USERR4
 40
0.0
  9
$USERR5
 40
0.0
  9
$WORLDVIEW
 70
     1
  9
$SHADEDGE
 70
     3
  9
$SHADEDIF
 70
    70
  9
$TILEMODE
 70
     1
  9
$MAXACTVP
 70
    64
  9
$PLIMCHECK
 70
     0
  9
$PEXTMIN
 10
1.0000000000000000E+20
 20
1.0000000000000000E+20
 30
1.0000000000000000E+20
  9
$PEXTMAX
 10
-1.0000000000000000E+20
 20
-1.0000000000000000E+20
 30
-1.0000000000000000E+20
  9
$PLIMMIN
 10
0.0
 20
0.0
  9
$PLIMMAX
 10
12.0
 20
9.0
  9
$UNITMODE
 70
     0
  9
$VISRETAIN
 70
     1
  9
$PLINEGEN
 70
     0
  9
$PSLTSCALE
 70
     1
  0
ENDSEC
  0
SECTION
  2
TABLES
  0
TABLE
  2
VPORT
 70
     1
  0
VPORT
  2
*ACTIVE
 70
     0
 10
0.0
 20
0.0
 11
1.0
 21
1.0
 12
723.2661573987478505
 22
373.3133143245075871
 13
0.0
 23
0.0
 14
1.0
 24
1.0
 15
0.0
 25
0.0
 16
0.0
 26
0.0
 36
60.4960186965801583
 17
3911.3653564453120453
 27
132.5796051025390057
 37
0.0
 40
30.3094249318986186
 41
2.3461538461538458
 42
50.0
 43
0.0
 44
0.0
 50
0.0
 51
0.0
 71
     0
 72
   100
 73
     1
 74
     1
 75
     0
 76
     0
 77
     0
 78
     0
  0
ENDTAB
  0
TABLE
  2
LTYPE
 70
     2
  0
LTYPE
  2
CONTINUOUS
 70
     0
  3
Solid line
 72
    65
 73
     0
 40
0.0
  0
LTYPE
  2
PHANTOM2
 70
     0
  3
___ _ _ ___ _ _ ___ _ _ ___ _ _
 72
    65
 73
     6
 40
1.25
 49
0.625
 49
-0.125
 49
0.125
 49
-0.125
 49
0.125
 49
-0.125
  0
ENDTAB
  0
TABLE
  2
LAYER
 70
     2
  0
LAYER
  2
0
 70
     0
 62
   255
  6
CONTINUOUS
  0
LAYER
  2
DEFPOINTS
 70
     0
 62
     7
  6
CONTINUOUS
  0
ENDTAB
  0
TABLE
  2
STYLE
 70
     1
  0
STYLE
  2
STANDARD
 70
     0
 40
0.0
 41
0.8
 50
0.0
 71
     0
 42
0.2
  3
txt
  4

  0
ENDTAB
  0
TABLE
  2
VIEW
 70
     0
  0
ENDTAB
  0
TABLE
  2
UCS
 70
     0
  0
ENDTAB
  0
TABLE
  2
APPID
 70
    11
  0
APPID
  2
ACAD
 70
     0
  0
APPID
  2
ACAD_MLEADERVER
 70
     0
  0
APPID
  2
ACAD_EXEMPT_FROM_CAD_STANDARDS
 70
     0
  0
APPID
  2
ACAD_NAV_VCDISPLAY
 70
     0
  0
APPID
  2
ACAECLAYERSTANDARD
 70
     0
  0
APPID
  2
ACCMTRANSPARENCY
 70
     0
  0
APPID
  2
ACAD_DSTYLE_DIMJAG
 70
     0
  0
APPID
  2
ACAD_DSTYLE_DIMTALN
 70
     0
  0
APPID
  2
ACDBATTR
 70
     0
  0
APPID
  2
ACADANNOTATIVE
 70
     0
  0
APPID
  2
DCO15
 70
     0
  0
ENDTAB
  0
TABLE
  2
DIMSTYLE
 70
     1
  0
DIMSTYLE
  2
STANDARD
 70
     0
  3

  4

  5

  6

  7

 40
1.0
 41
0.1875
 42
0.0625
 43
0.38
 44
0.125
 45
0.0
 46
0.0
 47
0.01
 48
0.01
140
0.15625
141
0.09
142
0.0
143
25.3999999999999986
144
1.0
145
0.0
146
1.0
147
0.09
 71
     1
 72
     0
 73
     1
 74
     1
 75
     0
 76
     0
 77
     0
 78
     4
170
     0
171
     2
172
     0
173
     0
174
     0
175
     0
176
     0
177
     0
178
     0
  0
ENDTAB
  0
ENDSEC
  0
SECTION
  2
BLOCKS
  0
BLOCK
  8
0
  2
$MODEL_SPACE
 70
     0
 10
0.0
 20
0.0
 30
0.0
  3
$MODEL_SPACE
  1

  0
ENDBLK
  5
21
  8
0
  0
BLOCK
 67
     1
  8
0
  2
$PAPER_SPACE
 70
     0
 10
0.0
 20
0.0
 30
0.0
  3
$PAPER_SPACE
  1

  0
ENDBLK
  5
1D
 67
     1
  8
0
  0
ENDSEC
  0
SECTION
  2
ENTITIES
  0
ATTDEF
  5
159BF
  8
DEFPOINTS
 10
4648.6357642770499297
 20
490.8755085623907917
 30
0.0
 40
0.001
  1
K-20184T-S
  3

  2
MODELNUMBER
 70
     0
1001
ACDBATTR
1070
     0
1070
     1
  0
ATTDEF
  5
159C0
  8
DEFPOINTS
 10
4648.6357642770499297
 20
490.8738417220114911
 30
0.0
 40
0.001
  1
PATIO
  3

  2
TRADENAME
 70
     0
1001
ACDBATTR
1070
     0
1070
     1
  0
ATTDEF
  5
159C1
  8
DEFPOINTS
 10
4648.6357642770499297
 20
490.8721752290574045
 30
0.0
 40
0.001
  1
TOILET
  3

  2
PRODUCT
 70
     0
1001
ACDBATTR
1070
     0
1070
     1
  0
LINE
  5
1BCAD
  8
0
 10
4647.4857645287638661
 20
490.8721719071979237
 30
0.0
 11
4625.0591173330931269
 21
490.8721719071979237
 31
0.0
  0
LINE
  5
1BCAE
  8
0
 10
4641.9887660114736718
 20
519.6528933835978705
 30
0.0
 11
4648.0039302383202084
 21
519.6528933835978705
 31
0.0
  0
LINE
  5
1BCAF
  8
0
 10
4643.3457866513790577
 20
506.0312931698978787
 30
0.0
 11
4620.8154537753662225
 21
506.0312931698978787
 31
0.0
  0
LINE
  5
1BCB0
  8
0
 10
4637.4887370364103845
 20
506.2123955320979007
 30
0.0
 11
4620.619333362143152
 21
506.2123955320979007
 31
0.0
  0
LINE
  5
1BCB1
  8
0
 10
4639.416621663339356
 20
508.0419037861979064
 30
0.0
 11
4624.6739949112388786
 21
507.6062572002979891
 31
0.0
  0
LINE
  5
1BCB2
  8
0
 10
4624.6739949112388786
 20
507.6062572002979891
 30
0.0
 11
4621.1438365122394316
 21
507.5028398616979075
 31
0.0
  0
LINE
  5
1BCB3
  8
0
 10
4621.1438365122394316
 20
507.5028398616979075
 30
0.0
 11
4620.9245698180393447
 21
507.4954334611479112
 31
0.0
  0
ARC
  5
1BCB4
  8
0
 10
4620.9353738771624194
 20
507.2128243719997727
 30
0.0
 40
0.2828155316857792
 50
92.189333981182358
 51
131.3242979861051083
  0
ARC
  5
1BCB5
  8
0
 10
4620.8958755297599055
 20
507.2416880770624061
 30
0.0
 40
0.2352968236189846
 50
128.7414633314635921
 51
169.8652755332068125
  0
ARC
  5
1BCB6
  8
0
 10
4625.2123611019387681
 20
506.2123952932979023
 30
0.0
 40
4.6724409457003224
 50
166.7528834852973034
 51
179.0178386895013887
  0
ARC
  5
1BCB7
  8
0
 10
4620.6193635904701296
 20
506.2911635907746017
 30
0.0
 40
0.0787680644769559
 50
179.03795358999011
 51
269.9780119537248879
  0
ARC
  5
1BCB8
  8
0
 10
4639.4224016670141282
 20
507.8450878554190808
 30
0.0
 40
0.1969007847897484
 50
20.0106787651381488
 51
91.6821537660100745
  0
ARC
  5
1BCB9
  8
0
 10
2573.4329173967348652
 20
-244.5496869751881945
 30
0.0
 40
2198.9261806889280706
 50
19.9893212367922999
 51
20.0106787651381488
  0
ARC
  5
1BCBA
  8
0
 10
4639.7026985613138095
 20
507.0749111663138819
 30
0.0
 40
0.1969238031946452
 50
326.8805765439170727
 51
19.9893212367953588
  0
LINE
  5
1BCBB
  8
0
 10
4639.8676288672386363
 20
506.9673147979979717
 30
0.0
 11
4639.7869385984386099
 21
506.8436782125979789
 31
0.0
  0
ARC
  5
1BCBC
  8
0
 10
4639.4572410570463035
 20
507.058852249891288
 30
0.0
 40
0.3937008193102385
 50
295.9055302560225869
 51
326.8698976598147965
  0
ARC
  5
1BCBD
  8
0
 10
4637.4887374527579595
 20
511.1118297756257789
 30
0.0
 40
4.8994341962648029
 50
282.9527649373844156
 51
295.9055302560225869
  0
ARC
  5
1BCBE
  8
0
 10
4637.4887370364103845
 20
511.1118315858334995
 30
0.0
 40
4.8994360537355801
 50
270.0000045504197033
 51
282.9527649373844156
  0
LINE
  5
1BCBF
  8
0
 10
4639.4797778276388271
 20
506.3108207289980101
 30
0.0
 11
4638.4658595452037844
 21
506.3108207289980101
 31
0.0
  0
ARC
  5
1BCC0
  8
0
 10
4639.4797772588799489
 20
506.8226317527152105
 30
0.0
 40
0.5118110237175511
 50
270.0000636708575144
 51
15.0000002724951393
  0
LINE
  5
1BCC1
  8
0
 10
4639.9741487442388461
 20
506.9550981954978965
 30
0.0
 11
4639.9135839897389815
 21
507.1811289364979984
 31
0.0
  0
ARC
  5
1BCC2
  8
0
 10
4639.4572410793525705
 20
507.0588522254034274
 30
0.0
 40
0.4724409443893002
 50
14.9999996233742401
 51
43.5464711108831679
  0
ARC
  5
1BCC3
  8
0
 10
4639.4572410783212035
 20
507.0588522245022887
 30
0.0
 40
0.5216535441460112
 50
13.9984739289507196
 51
53.8629823147639399
  0
LINE
  5
1BCC4
  8
0
 10
4639.9634026439389345
 20
507.1850381571978801
 30
0.0
 11
4640.02605311663865
 21
506.9337608360979743
 31
0.0
  0
ARC
  5
1BCC5
  8
0
 10
4639.7968493951048004
 20
506.8766139544018756
 30
0.0
 40
0.2362204733977529
 50
1.000022824121233
 51
13.9999942485756197
  0
LINE
  5
1BCC6
  8
0
 10
4640.0330338893390945
 20
506.8807366641980252
 30
0.0
 11
4640.0478609807669272
 21
506.0312931698978787
 31
0.0
  0
LINE
  5
1BCC7
  8
0
 10
4638.4777995613394523
 20
506.3108207289980101
 30
0.0
 11
4638.4729203897122716
 21
506.0312931698978787
 31
0.0
  0
LINE
  5
1BCC8
  8
0
 10
4640.0399580970379247
 20
506.484049075397877
 30
0.0
 11
4640.0917071428393683
 21
506.484049075397877
 31
0.0
  0
LINE
  5
1BCC9
  8
0
 10
4640.1035182439391065
 20
506.4722380517980014
 30
0.0
 11
4640.1035182439391065
 21
506.1218443509980034
 31
0.0
  0
LINE
  5
1BCCA
  8
0
 10
4640.0464865661388103
 20
506.1100333273980141
 30
0.0
 11
4640.0917072203392308
 21
506.1100333273980141
 31
0.0
  0
LINE
  5
1BCCB
  8
0
 10
4640.0562741495386945
 20
506.4722380517980014
 30
0.0
 11
4640.0562741495386945
 21
506.1218443509980034
 31
0.0
  0
ARC
  5
1BCCC
  8
0
 10
4640.0680851731385701
 20
506.1218443509980034
 30
0.0
 40
0.0118110236000035
 50
180.0000000000032117
 51
270.0004935917975217
  0
ARC
  5
1BCCD
  8
0
 10
4640.0917072203392308
 20
506.1218443509980034
 30
0.0
 40
0.0118110235999964
 50
270.0
 51
0.0000000000553671
  0
ARC
  5
1BCCE
  8
0
 10
4640.0680851731385701
 20
506.4722380517978877
 30
0.0
 40
0.0118110236000186
 50
89.9999999999478888
 51
179.9999999999087947
  0
ARC
  5
1BCCF
  8
0
 10
4640.0917072203383213
 20
506.472238051797774
 30
0.0
 40
0.0118110236004283
 50
0.0000000008467909
 51
90.0003759537848254
  0
LINE
  5
1BCD0
  8
0
 10
4642.8094481496164008
 20
506.3462537997979211
 30
0.0
 11
4648.0991613612395668
 21
506.3462537997979211
 31
0.0
  0
ARC
  5
1BCD1
  8
0
 10
4642.854487715572759
 20
506.2675115190672273
 30
0.0
 40
0.0787422807617727
 50
90.0016089018353966
 51
179.9984573149087055
  0
LINE
  5
1BCD2
  8
0
 10
4642.7757454348393367
 20
506.2675136391978867
 30
0.0
 11
4642.7757444763392414
 21
506.1882626380979104
 31
0.0
  0
ARC
  5
1BCD3
  8
0
 10
4642.6182633097050712
 20
506.1887751712752106
 30
0.0
 40
0.1574820006686429
 50
270.0110534642686844
 51
359.8135276435854166
  0
ARC
  5
1BCD4
  8
0
 10
4642.809559447097854
 20
506.5432267394152177
 30
0.0
 40
0.1969729710609792
 50
185.6509710824346939
 51
269.9676256342809779
  0
ARC
  5
1BCD5
  8
0
 10
4800.3139700628917126
 20
522.0547853514602821
 30
0.0
 40
158.4633554007436942
 50
180.9118760081807977
 51
185.6245746418329929
  0
ARC
  5
1BCD6
  8
0
 10
4641.9887723737529086
 20
519.5347892650894437
 30
0.0
 40
0.1181041186797809
 50
89.9967862048536063
 51
180.9118760081807977
  0
ARC
  5
1BCD7
  8
0
 10
4641.8589836372666468
 20
519.7121845156578956
 30
0.0
 40
0.0590330082140971
 50
177.5642892758247058
 51
269.7451527654387746
  0
ARC
  5
1BCD8
  8
0
 10
4644.1646796753866511
 20
519.5934042266077313
 30
0.0
 40
2.367784252910007
 50
159.908569221326502
 51
177.0637544295751127
  0
ARC
  5
1BCD9
  8
0
 10
4642.2606454543129075
 20
520.2898589174551489
 30
0.0
 40
0.3403732310843056
 50
114.7611611214393008
 51
159.908569221326502
  0
LINE
  5
1BCDA
  8
0
 10
4648.1220408068393226
 20
519.5347832604978748
 30
0.0
 11
4648.1220408068393226
 21
506.5427990851649156
 31
0.0
  0
ARC
  5
1BCDB
  8
0
 10
4647.9251902958885694
 20
506.5431045477491807
 30
0.0
 40
0.1968507479512167
 50
270.0000880697426737
 51
359.911091402572481
  0
LINE
  5
1BCDC
  8
0
 10
4648.177994779139226
 20
506.2675136422980131
 30
0.0
 11
4648.1780476813391942
 21
506.01013091699798
 31
0.0
  0
ARC
  5
1BCDD
  8
0
 10
4641.1102024002302642
 20
505.9845002776235106
 30
0.0
 40
7.0678917540792652
 50
350.5444276170063063
 51
0.2077749252705349
  0
ARC
  5
1BCDE
  8
0
 10
4647.8877550272291046
 20
504.8556249128794775
 30
0.0
 40
0.1969690486321641
 50
270.0702258683410264
 51
350.5742298259613108
  0
ARC
  5
1BCDF
  8
0
 10
4648.0992545414446795
 20
506.2675136172376824
 30
0.0
 40
0.0787402376943972
 50
0.0000182352214276
 51
90.0678031197148954
  0
LINE
  5
1BCE0
  8
0
 10
4647.8879964467387254
 20
504.6586560121979232
 30
0.0
 11
4633.2497830475385854
 21
504.6586558209979785
 31
0.0
  0
ARC
  5
1BCE1
  8
0
 10
4633.2497832615372317
 20
488.2750320489574278
 30
0.0
 40
16.3836237720406217
 50
90.0000007483546938
 51
97.6520758581664552
  0
LINE
  5
1BCE2
  8
0
 10
4620.8106289545394247
 20
504.3436951909978916
 30
0.0
 11
4646.779592284337923
 21
504.3436951909978916
 31
0.0
  0
LINE
  5
1BCE3
  8
0
 10
4646.779592284337923
 20
504.3436951909978916
 30
0.0
 11
4646.863985730838067
 21
504.6586558208978772
 31
0.0
  0
LINE
  5
1BCE4
  8
0
 10
4631.0681850317387216
 20
504.5127584004980008
 30
0.0
 11
4630.9312220926485679
 21
504.3436951909978916
 31
0.0
  0
ARC
  5
1BCE5
  8
0
 10
4620.8154647536975972
 20
505.8344536825802038
 30
0.0
 40
0.1968394876238982
 50
89.9968044390491144
 51
181.5384099002357914
  0
ARC
  5
1BCE6
  8
0
 10
4627.9967047938707765
 20
506.0273186115393855
 30
0.0
 40
7.3806689257020999
 50
181.5384099002357914
 51
193.1859767860061936
  0
ARC
  5
1BCE7
  8
0
 10
4628.1387667941180553
 20
506.4063751010860983
 30
0.0
 40
7.6129004070292137
 50
195.7205279883237949
 51
240.1434055754388055
  0
ARC
  5
1BCE8
  8
0
 10
4626.6552870166806315
 20
503.9760197948922951
 30
0.0
 40
4.7672107823658409
 50
241.0650141092706917
 51
247.0051429990670897
  0
ARC
  5
1BCE9
  8
0
 10
4624.2827602119141375
 20
498.3929484352503891
 30
0.0
 40
1.299056767986287
 50
355.995725491292319
 51
66.8733909496794041
  0
LINE
  5
1BCEA
  8
0
 10
4625.578645778839018
 20
498.3022341370980257
 30
0.0
 11
4625.0591173346392679
 21
490.8721719292980197
 31
0.0
  0
LINE
  5
1BCEB
  8
0
 10
4647.4857645287638661
 20
490.8721719071979237
 30
0.0
 11
4647.1159350442394498
 21
497.8111641133979788
 31
0.0
  0
LINE
  5
1BCEC
  8
0
 10
4646.7893259040583871
 20
502.8401641626811056
 30
0.0
 11
4647.0446564029853107
 21
498.049533299571408
 31
0.0
  0
LINE
  5
1BCED
  8
0
 10
4646.5093820864385634
 20
502.4246978263979031
 30
0.0
 11
4646.7244120274390298
 21
498.3902049774980014
 31
0.0
  0
ARC
  5
1BCEE
  8
0
 10
4646.5163702216923411
 20
498.3869008154198923
 30
0.0
 40
0.2080680427775996
 50
279.224663067453605
 51
0.9099066689333074
  0
LINE
  5
1BCEF
  8
0
 10
4646.5497247955390776
 20
498.1815236432979077
 30
0.0
 11
4645.7405185976404027
 21
498.2464778231980063
 31
0.0
  0
ARC
  5
1BCF0
  8
0
 10
4645.7740253786196263
 20
498.638350210758972
 30
0.0
 40
0.3933022660810339
 50
187.8956989804717921
 51
265.1128503199624902
  0
ARC
  5
1BCF1
  8
0
 10
4640.4061803685572158
 20
497.8939108655388281
 30
0.0
 40
5.0259181567082454
 50
7.8956989804750419
 51
41.9982170399543691
  0
ARC
  5
1BCF2
  8
0
 10
4639.2618599581792296
 20
496.8636246174659163
 30
0.0
 40
6.5657100110104043
 50
41.9982170399543691
 51
43.6916212727789031
  0
ARC
  5
1BCF3
  8
0
 10
4644.2941287340081544
 20
501.6711573764471837
 30
0.0
 40
0.3938948815717878
 50
101.4226365766042051
 51
223.6916212727788889
  0
ARC
  5
1BCF4
  8
0
 10
4641.2379490416960834
 20
517.4351501402129543
 30
0.0
 40
15.6636299429521593
 50
280.9605385033690936
 51
288.8137696764919156
  0
ARC
  5
1BCF5
  8
0
 10
4646.3180903513630255
 20
502.4191976746707837
 30
0.0
 40
0.1913707908161229
 50
1.646953962451007
 51
98.633496478376145
  0
ARC
  5
1BCF6
  8
0
 10
4641.4465515353758747
 20
515.5071045396136924
 30
0.0
 40
13.7320459554404
 50
275.5508113830690036
 51
281.635598962359893
  0
ARC
  5
1BCF7
  8
0
 10
4645.355446937744091
 20
509.979735596855619
 30
0.0
 40
11.7395748716191992
 50
265.0941406348758278
 51
271.8797051340660005
  0
ARC
  5
1BCF8
  8
0
 10
4644.3838366077743558
 20
498.6761785969745802
 30
0.0
 40
0.3943392878634094
 50
197.4092845448830928
 51
265.295244654047508
  0
ARC
  5
1BCF9
  8
0
 10
4634.2032570852416029
 20
495.4839665361917014
 30
0.0
 40
10.2749820239914094
 50
17.4092845448830893
 51
28.4844251940619309
  0
ARC
  5
1BCFA
  8
0
 10
4640.0797372602919495
 20
498.67256691410131
 30
0.0
 40
3.5891618336354258
 50
28.4844251940619309
 51
31.9447717732993794
  0
ARC
  5
1BCFB
  8
0
 10
4640.681928645581138
 20
499.048051231630609
 30
0.0
 40
2.8794978728585781
 50
31.9447717732993794
 51
47.3846169641964678
  0
ARC
  5
1BCFC
  8
0
 10
4642.8980146431676985
 20
501.456728390966191
 30
0.0
 40
0.3935378444234476
 50
96.1680290566025349
 51
227.3846169641965105
  0
ARC
  5
1BCFD
  8
0
 10
4651.5384330248198239
 20
486.6582985266355195
 30
0.0
 40
16.7916191249249707
 50
107.5017253421595029
 51
108.2160240051474034
  0
ARC
  5
1BCFE
  8
0
 10
4646.3451140315155499
 20
503.1112264428448952
 30
0.0
 40
0.4615049187881716
 50
288.1157787329294138
 51
299.2024990438324039
  0
ARC
  5
1BCFF
  8
0
 10
4646.2222644822368238
 20
503.3310173178855962
 30
0.0
 40
0.7132985654694702
 50
299.2024990438324039
 51
324.7318433789786241
  0
ARC
  5
1BD00
  8
0
 10
4646.9894602496242442
 20
502.8423369519953212
 30
0.0
 40
0.2001461398294241
 50
157.4298476005081113
 51
180.6220160078522099
  0
ARC
  5
1BD01
  8
0
 10
4646.4410380368890401
 20
503.0709242170257767
 30
0.0
 40
0.3940080796305322
 50
337.3444109501105004
 51
3.040859248461079
  0
LINE
  5
1BD02
  8
0
 10
4646.8344900979391241
 20
503.091825528897914
 30
0.0
 11
4646.7955710155392808
 21
503.8220518100978893
 31
0.0
  0
LINE
  5
1BD03
  8
0
 10
4646.779592284337923
 20
503.9339712322980063
 30
0.0
 11
4646.779592284337923
 21
504.3436951909978916
 31
0.0
  0
ARC
  5
1BD04
  8
0
 10
4646.9770792596082174
 20
503.9339696829837862
 30
0.0
 40
0.1974869752748155
 50
179.9995505062281893
 51
194.4948648073512913
  0
ARC
  5
1BD05
  8
0
 10
4646.4764675032965897
 20
503.8045505474941024
 30
0.0
 40
0.3195830810891543
 50
3.1392474175260459
 51
14.4948648073512807
  0
ARC
  5
1BD06
  8
0
 10
4624.049111728591015
 20
523.2650617513374982
 30
0.0
 40
25.0096428784799514
 50
273.5062703060206104
 51
275.6577472291671143
  0
ARC
  5
1BD07
  8
0
 10
4629.1326638680948236
 20
473.9582589426003096
 30
0.0
 40
24.558927422980581
 50
87.2189295339451007
 51
96.1192911861587334
  0
ARC
  5
1BD08
  8
0
 10
4630.227420702022755
 20
505.201892931841428
 30
0.0
 40
6.7143298795058453
 50
270.8263725187871955
 51
312.140721037484127
  0
ARC
  5
1BD09
  8
0
 10
4623.964291120206326
 20
518.4050557332390099
 30
0.0
 40
21.1312983167641484
 50
300.6360078791352066
 51
308.140273485417822
  0
ARC
  5
1BD0A
  8
0
 10
4643.5491049898646452
 20
491.5539709433364806
 30
0.0
 40
12.2310360485461196
 50
97.9714410715770612
 51
116.3701137070307965
  0
ARC
  5
1BD0B
  8
0
 10
4645.3309312376577509
 20
483.3136438160588
 30
0.0
 40
20.6482081608968286
 50
89.2697755552758281
 51
99.697230720508216
  0
ARC
  5
1BD0C
  8
0
 10
4645.8169066300688428
 20
498.0437635174706088
 30
0.0
 40
5.9206060773591398
 50
80.5805484222339743
 51
92.1568630701824247
  0
CIRCLE
  5
1BD0D
  8
0
 10
4641.4942547749824371
 20
492.4408318353015943
 30
0.0
 40
0.5356241165290927
  0
CIRCLE
  5
1BD0E
  8
0
 10
4641.4942547749824371
 20
492.4408318353015943
 30
0.0
 40
0.5421634484902138
  0
ARC
  5
1BD0F
  8
0
 10
4637.8801920226142101
 20
503.1264956933401891
 30
0.0
 40
0.6580864575040994
 50
166.5169103535916122
 51
291.0412485689379878
  0
ARC
  5
1BD10
  8
0
 10
4632.7794758765530787
 20
509.9052294460720987
 30
0.0
 40
9.1180638957347107
 50
301.7464735694431965
 51
305.8256797723727232
  0
ARC
  5
1BD11
  8
0
 10
4645.236280839488245
 20
489.7724878425814268
 30
0.0
 40
14.5568019826084498
 50
121.7464735694431965
 51
124.3877051460808048
  0
ARC
  5
1BD12
  8
0
 10
4632.8032660599292285
 20
504.4457814542623169
 30
0.0
 40
4.5875883187812017
 50
345.2779141116114943
 51
355.1732991777973893
  0
ARC
  5
1BD13
  8
0
 10
4639.6747146066500136
 20
503.8655448782070039
 30
0.0
 40
2.308314784832274
 50
168.0450466905585074
 51
175.173299177800601
  0
LINE
  5
1BD14
  8
0
 10
4638.607135400738116
 20
504.6586558208978772
 30
0.0
 11
4638.5418928573390076
 21
504.4794034060979016
 31
0.0
  0
LINE
  5
1BD15
  8
0
 10
4638.6418928573375524
 20
504.3794034060978788
 30
0.0
 11
4639.4456925914391832
 21
504.3794034060978788
 31
0.0
  0
LINE
  5
1BD16
  8
0
 10
4639.4804736153819249
 20
504.6586559023813834
 30
0.0
 11
4639.545716188537881
 21
504.4794034060979016
 31
0.0
  0
LINE
  5
1BD17
  8
0
 10
4639.126024565640364
 20
504.6586558208978772
 30
0.0
 11
4639.1128795158392677
 21
504.4078333273978956
 31
0.0
  0
LINE
  5
1BD18
  8
0
 10
4638.9615844801392086
 20
504.6586558208978772
 30
0.0
 11
4638.9747295299393954
 21
504.4078333274978831
 31
0.0
  0
ARC
  5
1BD19
  8
0
 10
4639.0046884160774425
 20
504.4094034061939738
 30
0.0
 40
0.0300000000959898
 50
183.000000007027694
 51
269.9999999268372903
  0
ARC
  5
1BD1A
  8
0
 10
4639.0829206296966731
 20
504.4094034062035234
 30
0.0
 40
0.0300000001055036
 50
270.0000000803539137
 51
356.9999997844715836
  0
ARC
  5
1BD1B
  8
0
 10
4638.6418928573375524
 20
504.4794034060979016
 30
0.0
 40
0.0999999999999943
 50
180.0
 51
270.0
  0
ARC
  5
1BD1C
  8
0
 10
4639.4457161837881358
 20
504.4794034080658207
 30
0.0
 40
0.1000000047508749
 50
269.9864825801578263
 51
359.9999988724914033
  0
ARC
  5
1BD1D
  8
0
 10
4643.1201882729483259
 20
511.3532791410489722
 30
0.0
 40
5.3267653698543862
 50
272.4273084025621756
 51
278.5114416252234832
  0
LINE
  5
1BD1E
  8
0
 10
4643.9085863489599433
 20
506.0851810232060188
 30
0.0
 11
4644.1491363552386247
 21
506.1187792161978791
 31
0.0
  0
ARC
  5
1BD1F
  8
0
 10
4643.8432374070016522
 20
508.534552782421315
 30
0.0
 40
2.4350672232718109
 50
277.216711144134706
 51
283.7870453639770858
  0
ARC
  5
1BD20
  8
0
 10
4643.7978681569147739
 20
508.7194437351711827
 30
0.0
 40
2.6254432544898192
 50
283.7870453639770858
 51
295.3218215491020828
  0
LINE
  5
1BD21
  8
0
 10
4623.085027166670443
 20
506.2123955320979007
 30
0.0
 11
4623.1023964389205503
 21
506.1624680597755059
 31
0.0
  0
ARC
  5
1BD22
  8
0
 10
4623.3654795711390761
 20
506.244337476897897
 30
0.0
 40
0.2755273777999784
 50
197.2857340054978863
 51
230.6442662840570108
  0
ARC
  5
1BD23
  8
0
 10
4624.873964171724765
 20
506.5042219249672257
 30
0.0
 40
0.4797549102045999
 50
217.4654013201318037
 51
250.5506214675864101
  0
ARC
  5
1BD24
  8
0
 10
4624.8114090836706964
 20
506.3278235793471822
 30
0.0
 40
0.2925934467869314
 50
250.5994597170939926
 51
288.2108506490981767
  0
ARC
  5
1BD25
  8
0
 10
4624.7559265656736898
 20
506.4951880006158831
 30
0.0
 40
0.4689143463540146
 50
288.2596888985826808
 51
322.9092542361041183
  0
ARC
  5
1BD26
  8
0
 10
4637.3602238032453897
 20
503.493638305021193
 30
0.0
 40
2.907419832464079
 50
110.7540838821163049
 51
119.2119583052687943
  0
ARC
  5
1BD27
  8
0
 10
4647.9504591655022523
 20
519.7106759201170689
 30
0.0
 40
0.0574720085340379
 50
223.7885259587247901
 51
245.4301071222388941
  0
ARC
  5
1BD28
  8
0
 10
4647.951908905444725
 20
519.7138468279024437
 30
0.0
 40
0.0609586117644616
 50
245.4301071222388941
 51
269.2539607533897765
  0
LINE
  5
1BD29
  8
0
 10
4648.120324669139336
 20
519.6715333236978722
 30
0.0
 11
4641.8587210638388569
 21
519.6531520913979421
 31
0.0
  0
ARC
  5
1BD2A
  8
0
 10
4642.0281505352440945
 20
519.7119500337740874
 30
0.0
 40
0.0590566502160223
 50
270.0021047807501873
 51
275.2670020385489238
  0
ARC
  5
1BD2B
  8
0
 10
4642.0281383923093017
 20
519.7120813976986256
 30
0.0
 40
0.0591885741730924
 50
275.267033824341695
 51
279.3407019039527199
  0
ARC
  5
1BD2C
  8
0
 10
4648.1202415734805982
 20
519.7305303729804109
 30
0.0
 40
0.0589971078012545
 50
270.0806994145879116
 51
2.8109526736489641
  0
ARC
  5
1BD2D
  8
0
 10
4646.2142583545555681
 20
519.6369470187471507
 30
0.0
 40
1.967276404710999
 50
2.8109526736489641
 51
12.5716459226058905
  0
ARC
  5
1BD2E
  8
0
 10
4644.663238775237005
 20
519.2910588846225437
 30
0.0
 40
3.5563957635885921
 50
12.5716459226058905
 51
18.5875704467456586
  0
ARC
  5
1BD2F
  8
0
 10
4647.7344969692030645
 20
520.3239097864792484
 30
0.0
 40
0.3161167818542414
 50
18.5875704467487601
 51
67.4155807932567654
  0
ARC
  5
1BD30
  8
0
 10
4645.0560701573549522
 20
473.8301930259394794
 30
0.0
 40
47.0851572653763597
 50
88.1847257382258363
 51
91.8152742617741637
  0
ARC
  5
1BD31
  8
0
 10
4643.3717381811356972
 20
517.732939466741982
 30
0.0
 40
3.1281942346696039
 50
100.9327489445611974
 51
113.6256660387101931
  0
ARC
  5
1BD32
  8
0
 10
4643.8722285943804309
 20
514.5428533318172413
 30
0.0
 40
6.3563186200562232
 50
92.7745528957078562
 51
99.9085756756127239
  0
ARC
  5
1BD33
  8
0
 10
4646.2147223008660148
 20
515.1558463025870651
 30
0.0
 40
5.7455252162670929
 50
80.0356976114887857
 51
86.6786354709721536
  0
ARC
  5
1BD34
  8
0
 10
4646.6127910082495873
 20
517.7241424683237483
 30
0.0
 40
3.1475254277193718
 50
66.7372705495986906
 51
79.0828880330768413
  0
ARC
  5
1BD35
  8
0
 10
4393.6244289240630678
 20
13243.4131927898106369
 30
0.0
 40
12737.9441609374007385
 50
271.0229592483265151
 51
271.0739347929355176
  0
ARC
  5
1BD36
  8
0
 10
4634.147728271125743
 20
412.6937599054625139
 30
0.0
 40
95.0294859974703883
 50
87.1614385371836136
 51
91.073934792935475
  0
ARC
  5
1BD37
  8
0
 10
4639.109799430950261
 20
512.7701885971632692
 30
0.0
 40
5.1698839101302729
 50
267.1614385371835851
 51
270.4195866713158125
  0
ARC
  5
1BD38
  8
0
 10
4639.1434567881578914
 20
508.174260803878326
 30
0.0
 40
0.5738328770387322
 50
270.4195866713158125
 51
285.2114366301722725
  0
ARC
  5
1BD39
  8
0
 10
4639.2681099065430317
 20
507.7285384570481028
 30
0.0
 40
0.1110702070482054
 50
283.4901106275320899
 51
347.9903704004070732
  0
ARC
  5
1BD3A
  8
0
 10
4637.4585018809821122
 20
508.4186954631476283
 30
0.0
 40
2.0465638624486271
 50
339.6031928827596857
 51
344.8005249173168068
  0
ARC
  5
1BD3B
  8
0
 10
4639.226206341748366
 20
507.9410417267353068
 30
0.0
 40
0.2154788846617391
 50
344.1324444769151114
 51
27.9099487636412498
  0
ARC
  5
1BD3C
  8
0
 10
4648.0039302383211179
 20
519.5347828150787564
 30
0.0
 40
0.1181105685192719
 50
0.0002160741856387
 51
90.0000000003647642
  0
ARC
  5
1BD3D
  8
0
 10
4646.9928458330241483
 20
501.0996552252946117
 30
0.0
 40
2.9515840126462538
 50
261.3655449864642151
 51
264.4853638720148865
  0
ARC
  5
1BD3E
  8
0
 10
4646.647457498030235
 20
497.5952485733527055
 30
0.0
 40
0.5698381539624631
 50
42.4550598942869897
 51
83.7798837690729243
  0
ARC
  5
1BD3F
  8
0
 10
4647.2565525830596016
 20
498.0815301221680897
 30
0.0
 40
0.2142983616056902
 50
188.5869243917323104
 51
208.3114768418473943
  0
ARC
  5
1BD40
  8
0
 10
4646.7218840589466708
 20
497.7901635075103854
 30
0.0
 40
0.3946101930485826
 50
3.0506429059560189
 51
28.738312479445689
  0
ENDSEC
  0
EOF
