  0
SECTION
  2
HEADER
  9
$ACADVER
  1
AC1009
  9
$INSBASE
 10
3479.5148520273969552
 20
221.2495110050003859
 30
0.0
  9
$EXTMIN
 10
3460.6218991776318035
 20
216.9820539919574003
 30
0.0
  9
$EXTMAX
 10
3479.5259316941460384
 20
225.5169680359987012
 30
0.0
  9
$LIMMIN
 10
0.0
 20
0.0
  9
$LIMMAX
 10
11.6929133858000007
 20
8.2677165353999982
  9
$ORTHOMODE
 70
     0
  9
$REGENMODE
 70
     1
  9
$FILLMODE
 70
     1
  9
$QTEXTMODE
 70
     0
  9
$MIRRTEXT
 70
     0
  9
$DRAGMODE
 70
     2
  9
$LTSCALE
 40
0.6431102362
  9
$OSMODE
 70
  3839
  9
$ATTMODE
 70
     1
  9
$TEXTSIZE
 40
0.2
  9
$TRACEWID
 40
0.05
  9
$TEXTSTYLE
  7
STANDARD
  9
$CLAYER
  8
0
  9
$CELTYPE
  6
BYLAYER
  9
$CECOLOR
 62
   256
  9
$DIMSCALE
 40
1.0
  9
$DIMASZ
 40
0.1875
  9
$DIMEXO
 40
0.0625
  9
$DIMDLI
 40
0.4443307087
  9
$DIMRND
 40
0.0
  9
$DIMDLE
 40
0.0
  9
$DIMEXE
 40
0.125
  9
$DIMTP
 40
0.01
  9
$DIMTM
 40
0.01
  9
$DIMTXT
 40
2.0
  9
$DIMCEN
 40
0.1052362205
  9
$DIMTSZ
 40
0.0
  9
$DIMTOL
 70
     1
  9
$DIMLIM
 70
     0
  9
$DIMTIH
 70
     1
  9
$DIMTOH
 70
     1
  9
$DIMSE1
 70
     0
  9
$DIMSE2
 70
     0
  9
$DIMTAD
 70
     0
  9
$DIMZIN
 70
     0
  9
$DIMBLK
  1

  9
$DIMASO
 70
     1
  9
$DIMSHO
 70
     1
  9
$DIMPOST
  1
\X
  9
$DIMAPOST
  1

  9
$DIMALT
 70
     1
  9
$DIMALTD
 70
     2
  9
$DIMALTF
 40
25.3999999999999986
  9
$DIMLFAC
 40
1.0
  9
$DIMTOFL
 70
     0
  9
$DIMTVP
 40
0.0
  9
$DIMTIX
 70
     0
  9
$DIMSOXD
 70
     0
  9
$DIMSAH
 70
     0
  9
$DIMBLK1
  1

  9
$DIMBLK2
  1

  9
$DIMSTYLE
  2
STANDARD
  9
$DIMCLRD
 70
     0
  9
$DIMCLRE
 70
     0
  9
$DIMCLRT
 70
     0
  9
$DIMTFAC
 40
1.0
  9
$DIMGAP
 40
0.09
  9
$LUNITS
 70
     2
  9
$LUPREC
 70
     4
  9
$SKETCHINC
 40
0.1
  9
$FILLETRAD
 40
0.0
  9
$AUNITS
 70
     0
  9
$AUPREC
 70
     0
  9
$MENU
  1
.
  9
$ELEVATION
 40
0.0
  9
$PELEVATION
 40
0.0
  9
$THICKNESS
 40
0.0
  9
$LIMCHECK
 70
     0
  9
$BLIPMODE
 70
     0
  9
$CHAMFERA
 40
0.0
  9
$CHAMFERB
 40
0.0
  9
$SKPOLY
 70
     0
  9
$TDCREATE
 40
2458060.468368056230247
  9
$TDUPDATE
 40
2459016.7103703701868653
  9
$TDINDWG
 40
0.5207940972
  9
$TDUSRTIMER
 40
0.5207940972
  9
$USRTIMER
 70
     1
  9
$ANGBASE
 50
0.0
  9
$ANGDIR
 70
     0
  9
$PDMODE
 70
     0
  9
$PDSIZE
 40
0.3125
  9
$PLINEWID
 40
0.0
  9
$COORDS
 70
     1
  9
$SPLFRAME
 70
     0
  9
$SPLINETYPE
 70
     6
  9
$SPLINESEGS
 70
     8
  9
$ATTDIA
 70
     1
  9
$ATTREQ
 70
     1
  9
$HANDLING
 70
     1
  9
$HANDSEED
  5
91FB
  9
$SURFTAB1
 70
     6
  9
$SURFTAB2
 70
     6
  9
$SURFTYPE
 70
     6
  9
$SURFU
 70
     6
  9
$SURFV
 70
     6
  9
$UCSNAME
  2

  9
$UCSORG
 10
0.0
 20
0.0
 30
0.0
  9
$UCSXDIR
 10
1.0
 20
0.0
 30
0.0
  9
$UCSYDIR
 10
0.0
 20
1.0
 30
0.0
  9
$PUCSNAME
  2

  9
$PUCSORG
 10
0.0
 20
0.0
 30
0.0
  9
$PUCSXDIR
 10
1.0
 20
0.0
 30
0.0
  9
$PUCSYDIR
 10
0.0
 20
1.0
 30
0.0
  9
$USERI1
 70
     0
  9
$USERI2
 70
     0
  9
$USERI3
 70
     0
  9
$USERI4
 70
     0
  9
$USERI5
 70
     0
  9
$USERR1
 40
0.0
  9
$USERR2
 40
0.0
  9
$USERR3
 40
0.0
  9
$USERR4
 40
0.0
  9
$USERR5
 40
0.0
  9
$WORLDVIEW
 70
     1
  9
$SHADEDGE
 70
     3
  9
$SHADEDIF
 70
    70
  9
$TILEMODE
 70
     1
  9
$MAXACTVP
 70
    64
  9
$PLIMCHECK
 70
     0
  9
$PEXTMIN
 10
1.0000000000000000E+20
 20
1.0000000000000000E+20
 30
1.0000000000000000E+20
  9
$PEXTMAX
 10
-1.0000000000000000E+20
 20
-1.0000000000000000E+20
 30
-1.0000000000000000E+20
  9
$PLIMMIN
 10
0.0
 20
0.0
  9
$PLIMMAX
 10
12.0
 20
9.0
  9
$UNITMODE
 70
     0
  9
$VISRETAIN
 70
     1
  9
$PLINEGEN
 70
     0
  9
$PSLTSCALE
 70
     1
  0
ENDSEC
  0
SECTION
  2
TABLES
  0
TABLE
  2
VPORT
 70
     1
  0
VPORT
  2
*ACTIVE
 70
     0
 10
0.0
 20
0.0
 11
1.0
 21
1.0
 12
0.0
 22
0.0
 13
0.0
 23
0.0
 14
1.0
 24
1.0
 15
0.0
 25
0.0
 16
0.0
 26
0.0
 36
63.9732037213165867
 17
3470.0738789331680891
 27
221.24951171875
 37
0.0
 40
20.7415026052552918
 41
2.3528591352859132
 42
50.0
 43
0.0
 44
0.0
 50
0.0
 51
0.0
 71
     0
 72
   100
 73
     1
 74
     1
 75
     0
 76
     0
 77
     0
 78
     0
  0
ENDTAB
  0
TABLE
  2
LTYPE
 70
     2
  0
LTYPE
  2
CONTINUOUS
 70
     0
  3
Solid line
 72
    65
 73
     0
 40
0.0
  0
LTYPE
  2
PHANTOM2
 70
     0
  3
___ _ _ ___ _ _ ___ _ _ ___ _ _
 72
    65
 73
     6
 40
1.25
 49
0.625
 49
-0.125
 49
0.125
 49
-0.125
 49
0.125
 49
-0.125
  0
ENDTAB
  0
TABLE
  2
LAYER
 70
     3
  0
LAYER
  2
0
 70
     0
 62
   255
  6
CONTINUOUS
  0
LAYER
  2
DEFPOINTS
 70
     0
 62
     7
  6
CONTINUOUS
  0
LAYER
  2
F2018-8_1_1
 70
     0
 62
     7
  6
CONTINUOUS
  0
ENDTAB
  0
TABLE
  2
STYLE
 70
     1
  0
STYLE
  2
STANDARD
 70
     0
 40
0.0
 41
0.8
 50
0.0
 71
     0
 42
0.2
  3
txt
  4

  0
ENDTAB
  0
TABLE
  2
VIEW
 70
     0
  0
ENDTAB
  0
TABLE
  2
UCS
 70
     0
  0
ENDTAB
  0
TABLE
  2
APPID
 70
     9
  0
APPID
  2
ACAD
 70
     0
  0
APPID
  2
ACAD_MLEADERVER
 70
     0
  0
APPID
  2
ACAD_EXEMPT_FROM_CAD_STANDARDS
 70
     0
  0
APPID
  2
ACAD_NAV_VCDISPLAY
 70
     0
  0
APPID
  2
ACAECLAYERSTANDARD
 70
     0
  0
APPID
  2
ACCMTRANSPARENCY
 70
     0
  0
APPID
  2
ACAD_DSTYLE_DIMJAG
 70
     0
  0
APPID
  2
ACAD_DSTYLE_DIMTALN
 70
     0
  0
APPID
  2
ACDBATTR
 70
     0
  0
ENDTAB
  0
TABLE
  2
DIMSTYLE
 70
     1
  0
DIMSTYLE
  2
STANDARD
 70
     0
  3

  4

  5

  6

  7

 40
1.0
 41
0.1875
 42
0.0625
 43
0.38
 44
0.125
 45
0.0
 46
0.0
 47
0.01
 48
0.01
140
0.15625
141
0.09
142
0.0
143
25.3999999999999986
144
1.0
145
0.0
146
1.0
147
0.09
 71
     1
 72
     0
 73
     1
 74
     1
 75
     0
 76
     0
 77
     0
 78
     4
170
     0
171
     2
172
     0
173
     0
174
     0
175
     0
176
     0
177
     0
178
     0
  0
ENDTAB
  0
ENDSEC
  0
SECTION
  2
BLOCKS
  0
BLOCK
  8
0
  2
$MODEL_SPACE
 70
     0
 10
0.0
 20
0.0
 30
0.0
  3
$MODEL_SPACE
  1

  0
ENDBLK
  5
21
  8
0
  0
BLOCK
 67
     1
  8
0
  2
$PAPER_SPACE
 70
     0
 10
0.0
 20
0.0
 30
0.0
  3
$PAPER_SPACE
  1

  0
ENDBLK
  5
1D
 67
     1
  8
0
  0
BLOCK
  8
0
  2
_FILLED
 70
     0
 10
0.0
 20
0.0
 30
0.0
  3
_FILLED
  1

  0
SOLID
  5
8CE1
  8
0
  6
BYBLOCK
 62
     0
 10
0.0
 20
0.0
 30
0.0
 11
-1.0
 21
0.1666666667
 31
0.0
 12
-1.0
 22
-0.1666666667
 32
0.0
 13
-1.0
 23
-0.1666666667
 33
0.0
  0
ENDBLK
  5
8CE2
  8
0
  6
BYBLOCK
 62
     0
  0
ENDSEC
  0
SECTION
  2
ENTITIES
  0
ATTDEF
  5
3930
  8
DEFPOINTS
 10
3479.5152650274758344
 20
221.2480292064877005
 30
0.0
 40
0.001
  1
K-2018IN-1
  3

  2
MODELNUMBER
 70
     0
1001
ACDBATTR
1070
     0
1070
     1
  0
ATTDEF
  5
3931
  8
DEFPOINTS
 10
3479.5152650274758344
 20
221.246362539821007
 30
0.0
 40
0.001
  1
FOLIO
  3

  2
TRADENAME
 70
     0
1001
ACDBATTR
1070
     0
1070
     1
  0
ATTDEF
  5
3932
  8
DEFPOINTS
 10
3479.5152650274758344
 20
221.2446958731543134
 30
0.0
 40
0.001
  1
BATHROOM SINK
  3

  2
PRODUCT
 70
     0
1001
ACDBATTR
1070
     0
1070
     1
  0
LINE
  5
8F99
  8
0
 10
3470.4939705530809988
 20
216.9820539919574003
 30
0.0
 11
3473.0239264461652056
 21
216.9820539919574003
 31
0.0
  0
ARC
  5
8FCD
  8
0
 10
3470.4939705530809988
 20
217.0607941491834083
 30
0.0
 40
0.0787401572260675
 50
183.8597883163500057
 51
270.0000001564869763
  0
LINE
  5
8FCE
  8
0
 10
3470.4154089967960317
 20
217.0554937497572894
 30
0.0
 11
3470.324106519941779
 21
218.4087624560897893
 31
0.0
  0
ARC
  5
8FCF
  8
0
 10
3470.0884204971730469
 20
218.3928611664655079
 30
0.0
 40
0.2362218286710547
 50
3.8597883163499929
 51
47.8992581338266135
  0
ARC
  5
8FD0
  8
0
 10
3469.692339875099151
 20
802.2234094328814535
 30
0.0
 40
583.6555427821886042
 50
269.7885683562420809
 51
270.0544289890212895
  0
ARC
  5
8FD1
  8
0
 10
3467.3500822188989332
 20
225.4382903671944121
 30
0.0
 40
6.8690358383718353
 50
219.8136584042732977
 51
271.5722530934434076
  0
ARC
  5
8FD2
  8
0
 10
3467.1258048853560467
 20
225.1436194281575069
 30
0.0
 40
6.5086117641934544
 50
190.191427460720405
 51
219.0852489204415861
  0
ARC
  5
8FD3
  8
0
 10
3467.1101987590718636
 20
225.1420247791191116
 30
0.0
 40
6.4929698261251314
 50
182.207279465785291
 51
190.2019444125513985
  0
ARC
  5
8FD4
  8
0
 10
3460.8600049173810476
 20
224.9003246316434002
 30
0.0
 40
0.2381057397492286
 50
92.3527599970823729
 51
182.0157214778218986
  0
LINE
  5
8FD5
  8
0
 10
3460.8502302316919668
 20
225.1382296522320132
 30
0.0
 11
3479.3266955253147898
 21
225.1382296522320132
 31
0.0
  0
ARC
  5
8FD6
  8
0
 10
3479.3000416957947891
 20
224.9273943777695024
 30
0.0
 40
0.2125133868389094
 50
12.2966221621999896
 51
82.7948802597806832
  0
ARC
  5
8FD7
  8
0
 10
3479.0926741099628998
 20
224.8951004690848094
 30
0.0
 40
0.4221896755631426
 50
359.5723839939767004
 51
10.5849669986970891
  0
ARC
  5
8FD8
  8
0
 10
3473.0239264461652056
 20
217.0607883809412044
 30
0.0
 40
0.0787343889838868
 50
270.0000000022668019
 51
339.0518678926931102
  0
ARC
  5
8FD9
  8
0
 10
3473.3180399499788109
 20
216.9481941618653025
 30
0.0
 40
0.2361945098087753
 50
94.9978443072255772
 51
159.0518678926931102
  0
LINE
  5
8FDA
  8
0
 10
3473.2974630948087906
 20
217.1834906546039861
 30
0.0
 11
3474.2654073755247737
 21
217.2681381095860047
 31
0.0
  0
ARC
  5
8FDB
  8
0
 10
3474.2004433639690433
 20
218.0110020675267037
 30
0.0
 40
0.7456991235108301
 50
274.9978443072255914
 51
357.9327307174200996
  0
LINE
  5
8FDC
  8
0
 10
3474.945657159466009
 20
217.9841025915775106
 30
0.0
 11
3474.9655111485849375
 21
218.5951987781220964
 31
0.0
  0
ARC
  5
8FDD
  8
0
 10
3488.8769154825909027
 20
48.0845071780035767
 30
0.0
 40
171.0772544155421997
 50
93.2052511380649378
 51
94.6642423525019012
  0
ARC
  5
8FDE
  8
0
 10
3479.2929079359601019
 20
219.1153414709424965
 30
0.0
 40
0.221983129688918
 50
274.796887369565809
 51
341.4660937371959903
  0
LINE
  5
8FDF
  8
0
 10
3479.5148520273969552
 20
219.1591943694573104
 30
0.0
 11
3479.5148520273969552
 21
224.8919495670743913
 31
0.0
  0
ARC
  5
8FE0
  8
0
 10
3479.2323909229990022
 20
219.1297378603210007
 30
0.0
 40
0.2839925441468678
 50
342.5932600066612963
 51
5.9529121614405902
  0
LINE
  5
8FE1
  8
0
 10
3470.2467921691800257
 20
218.5681300052426934
 30
0.0
 11
3474.7858994231969518
 21
218.577448472657295
 31
0.0
  0
ARC
  5
8FE2
  8
0
 10
3474.7985484964551688
 20
219.367057461412287
 30
0.0
 40
0.7897102976262445
 50
269.0822336906471151
 51
282.2057368169993197
  0
LINE
  5
8FE3
  8
0
 10
3479.5148520273969552
 20
224.8919495670739082
 30
0.0
 11
3479.5148520272969108
 21
225.2807476195573884
 31
0.0
  0
ARC
  5
8FE4
  8
0
 10
3479.278631554920139
 20
225.2807476195779088
 30
0.0
 40
0.2362204723770276
 50
359.9999999950168785
 51
83.6396649158190115
  0
ARC
  5
8FE5
  8
0
 10
3479.270252646955214
 20
225.1057846331009102
 30
0.0
 40
0.4111834028977698
 50
85.1803260813805139
 51
90.0169322565766663
  0
ARC
  5
8FE6
  8
0
 10
3448.0700177279582022
 20
621.5065198856041206
 30
0.0
 40
397.2167824560419263
 50
274.0108697000471807
 51
274.5050415429910231
  0
ARC
  5
8FE7
  8
0
 10
3475.8572319584991419
 20
225.1806638496456117
 30
0.0
 40
0.0820164754442637
 50
92.5153267198012657
 51
168.0014280108023002
  0
ARC
  5
8FE8
  8
0
 10
3475.6332278507002229
 20
225.2269618978959045
 30
0.0
 40
0.1467241351583867
 50
322.7887413088798212
 51
348.5016833058031125
  0
ARC
  5
8FE9
  8
0
 10
3473.0361332107067938
 20
218.3764353425480067
 30
0.0
 40
0.2557817997570824
 50
129.598940732055496
 51
179.7736061529026017
  0
LINE
  5
8FEA
  8
0
 10
3472.7697551136488983
 20
217.3589448981016972
 30
0.0
 11
3472.7803534076970209
 21
218.3774460151572896
 31
0.0
  0
ARC
  5
8FEB
  8
0
 10
3473.3154978916040818
 20
217.3475211085554974
 30
0.0
 40
0.5458623294002173
 50
178.8008281947543878
 51
212.3428240386652988
  0
ARC
  5
8FEC
  8
0
 10
3472.9900696389318
 20
217.4015744818649125
 30
0.0
 40
0.3717528119822123
 50
248.582413814245399
 51
269.9004239804509098
  0
ARC
  5
8FED
  8
0
 10
3578.8530730961469999
 20
-3841.0760433613531859
 30
0.0
 40
4059.4864611981170128
 50
91.4928085439358654
 51
91.4943338489115945
  0
ENDSEC
  0
EOF
