  0
SECTION
  2
HEADER
  9
$ACADVER
  1
AC1009
  9
$INSBASE
 10
7160.7495924384811588
 20
383.3942091942539037
 30
0.0
  9
$EXTMIN
 10
7153.4965715149010066
 20
361.9810341970517129
 30
-0.0000000000112498
  9
$EXTMAX
 10
7168.262277814810659
 20
383.4227043834578126
 30
0.0000000000002956
  9
$LIMMIN
 10
0.0
 20
0.0
  9
$LIMMAX
 10
11.6929133858000007
 20
8.2677165353999982
  9
$ORTHOMODE
 70
     0
  9
$REGENMODE
 70
     1
  9
$FILLMODE
 70
     1
  9
$QTEXTMODE
 70
     0
  9
$MIRRTEXT
 70
     0
  9
$DRAGMODE
 70
     2
  9
$LTSCALE
 40
0.6431102362
  9
$OSMODE
 70
  4095
  9
$ATTMODE
 70
     1
  9
$TEXTSIZE
 40
0.2
  9
$TRACEWID
 40
0.05
  9
$TEXTSTYLE
  7
STANDARD
  9
$CLAYER
  8
0
  9
$CELTYPE
  6
BYLAYER
  9
$CECOLOR
 62
   256
  9
$DIMSCALE
 40
1.0
  9
$DIMASZ
 40
0.1875
  9
$DIMEXO
 40
0.0625
  9
$DIMDLI
 40
0.4443307087
  9
$DIMRND
 40
0.0
  9
$DIMDLE
 40
0.0
  9
$DIMEXE
 40
0.125
  9
$DIMTP
 40
0.01
  9
$DIMTM
 40
0.01
  9
$DIMTXT
 40
2.0
  9
$DIMCEN
 40
0.1052362205
  9
$DIMTSZ
 40
0.0
  9
$DIMTOL
 70
     1
  9
$DIMLIM
 70
     0
  9
$DIMTIH
 70
     1
  9
$DIMTOH
 70
     1
  9
$DIMSE1
 70
     0
  9
$DIMSE2
 70
     0
  9
$DIMTAD
 70
     0
  9
$DIMZIN
 70
     0
  9
$DIMBLK
  1

  9
$DIMASO
 70
     1
  9
$DIMSHO
 70
     1
  9
$DIMPOST
  1
\X
  9
$DIMAPOST
  1

  9
$DIMALT
 70
     1
  9
$DIMALTD
 70
     2
  9
$DIMALTF
 40
25.3999999999999986
  9
$DIMLFAC
 40
1.0
  9
$DIMTOFL
 70
     0
  9
$DIMTVP
 40
0.0
  9
$DIMTIX
 70
     0
  9
$DIMSOXD
 70
     0
  9
$DIMSAH
 70
     0
  9
$DIMBLK1
  1

  9
$DIMBLK2
  1

  9
$DIMSTYLE
  2
STANDARD
  9
$DIMCLRD
 70
     0
  9
$DIMCLRE
 70
     0
  9
$DIMCLRT
 70
     0
  9
$DIMTFAC
 40
1.0
  9
$DIMGAP
 40
0.09
  9
$LUNITS
 70
     2
  9
$LUPREC
 70
     4
  9
$SKETCHINC
 40
0.1
  9
$FILLETRAD
 40
0.2002
  9
$AUNITS
 70
     0
  9
$AUPREC
 70
     0
  9
$MENU
  1
.
  9
$ELEVATION
 40
0.0
  9
$PELEVATION
 40
0.0
  9
$THICKNESS
 40
0.0
  9
$LIMCHECK
 70
     0
  9
$BLIPMODE
 70
     0
  9
$CHAMFERA
 40
0.0
  9
$CHAMFERB
 40
0.0
  9
$SKPOLY
 70
     0
  9
$TDCREATE
 40
2458060.468368056230247
  9
$TDUPDATE
 40
2460504.9112384258769453
  9
$TDINDWG
 40
1.2412917824
  9
$TDUSRTIMER
 40
1.2412917824
  9
$USRTIMER
 70
     1
  9
$ANGBASE
 50
0.0
  9
$ANGDIR
 70
     0
  9
$PDMODE
 70
     0
  9
$PDSIZE
 40
0.3125
  9
$PLINEWID
 40
0.0
  9
$COORDS
 70
     1
  9
$SPLFRAME
 70
     0
  9
$SPLINETYPE
 70
     6
  9
$SPLINESEGS
 70
     8
  9
$ATTDIA
 70
     1
  9
$ATTREQ
 70
     1
  9
$HANDLING
 70
     1
  9
$HANDSEED
  5
320F2
  9
$SURFTAB1
 70
     6
  9
$SURFTAB2
 70
     6
  9
$SURFTYPE
 70
     6
  9
$SURFU
 70
     6
  9
$SURFV
 70
     6
  9
$UCSNAME
  2

  9
$UCSORG
 10
0.0
 20
0.0
 30
0.0
  9
$UCSXDIR
 10
1.0
 20
0.0
 30
0.0
  9
$UCSYDIR
 10
0.0
 20
1.0
 30
0.0
  9
$PUCSNAME
  2

  9
$PUCSORG
 10
0.0
 20
0.0
 30
0.0
  9
$PUCSXDIR
 10
1.0
 20
0.0
 30
0.0
  9
$PUCSYDIR
 10
0.0
 20
1.0
 30
0.0
  9
$USERI1
 70
     0
  9
$USERI2
 70
     0
  9
$USERI3
 70
     0
  9
$USERI4
 70
     0
  9
$USERI5
 70
     0
  9
$USERR1
 40
0.0
  9
$USERR2
 40
0.0
  9
$USERR3
 40
0.0
  9
$USERR4
 40
0.0
  9
$USERR5
 40
0.0
  9
$WORLDVIEW
 70
     1
  9
$SHADEDGE
 70
     3
  9
$SHADEDIF
 70
    70
  9
$TILEMODE
 70
     1
  9
$MAXACTVP
 70
    64
  9
$PLIMCHECK
 70
     0
  9
$PEXTMIN
 10
1.0000000000000000E+20
 20
1.0000000000000000E+20
 30
1.0000000000000000E+20
  9
$PEXTMAX
 10
-1.0000000000000000E+20
 20
-1.0000000000000000E+20
 30
-1.0000000000000000E+20
  9
$PLIMMIN
 10
0.0
 20
0.0
  9
$PLIMMAX
 10
12.0
 20
9.0
  9
$UNITMODE
 70
     0
  9
$VISRETAIN
 70
     1
  9
$PLINEGEN
 70
     0
  9
$PSLTSCALE
 70
     1
  0
ENDSEC
  0
SECTION
  2
TABLES
  0
TABLE
  2
VPORT
 70
     1
  0
VPORT
  2
*ACTIVE
 70
     0
 10
0.0
 20
0.0
 11
1.0
 21
1.0
 12
3249.5140682195428781
 22
240.1222641877157002
 13
0.0
 23
0.0
 14
1.0
 24
1.0
 15
0.0
 25
0.0
 16
0.0
 26
0.0
 36
60.4960186965801583
 17
3911.3653564453120453
 27
132.5796051025390057
 37
0.0
 40
21.5865834084011183
 41
2.1211111111111101
 42
50.0
 43
0.0
 44
0.0
 50
0.0
 51
0.0
 71
     0
 72
   100
 73
     1
 74
     1
 75
     0
 76
     0
 77
     0
 78
     0
  0
ENDTAB
  0
TABLE
  2
LTYPE
 70
     2
  0
LTYPE
  2
CONTINUOUS
 70
     0
  3
Solid line
 72
    65
 73
     0
 40
0.0
  0
LTYPE
  2
PHANTOM2
 70
     0
  3
___ _ _ ___ _ _ ___ _ _ ___ _ _
 72
    65
 73
     6
 40
1.25
 49
0.625
 49
-0.125
 49
0.125
 49
-0.125
 49
0.125
 49
-0.125
  0
ENDTAB
  0
TABLE
  2
LAYER
 70
     2
  0
LAYER
  2
0
 70
     0
 62
   255
  6
CONTINUOUS
  0
LAYER
  2
DEFPOINTS
 70
     0
 62
     7
  6
CONTINUOUS
  0
ENDTAB
  0
TABLE
  2
STYLE
 70
     1
  0
STYLE
  2
STANDARD
 70
     0
 40
0.0
 41
0.8
 50
0.0
 71
     0
 42
0.2
  3
txt
  4

  0
ENDTAB
  0
TABLE
  2
VIEW
 70
     0
  0
ENDTAB
  0
TABLE
  2
UCS
 70
     0
  0
ENDTAB
  0
TABLE
  2
APPID
 70
    11
  0
APPID
  2
ACAD
 70
     0
  0
APPID
  2
ACAD_MLEADERVER
 70
     0
  0
APPID
  2
ACAD_EXEMPT_FROM_CAD_STANDARDS
 70
     0
  0
APPID
  2
ACAD_NAV_VCDISPLAY
 70
     0
  0
APPID
  2
ACAECLAYERSTANDARD
 70
     0
  0
APPID
  2
ACCMTRANSPARENCY
 70
     0
  0
APPID
  2
ACAD_DSTYLE_DIMJAG
 70
     0
  0
APPID
  2
ACAD_DSTYLE_DIMTALN
 70
     0
  0
APPID
  2
ACDBATTR
 70
     0
  0
APPID
  2
ACADANNOTATIVE
 70
     0
  0
APPID
  2
DCO15
 70
     0
  0
ENDTAB
  0
TABLE
  2
DIMSTYLE
 70
     1
  0
DIMSTYLE
  2
STANDARD
 70
     0
  3

  4

  5

  6

  7

 40
1.0
 41
0.1875
 42
0.0625
 43
0.38
 44
0.125
 45
0.0
 46
0.0
 47
0.01
 48
0.01
140
0.15625
141
0.09
142
0.0
143
25.3999999999999986
144
1.0
145
0.0
146
1.0
147
0.09
 71
     1
 72
     0
 73
     1
 74
     1
 75
     0
 76
     0
 77
     0
 78
     4
170
     0
171
     2
172
     0
173
     0
174
     0
175
     0
176
     0
177
     0
178
     0
  0
ENDTAB
  0
ENDSEC
  0
SECTION
  2
BLOCKS
  0
BLOCK
  8
0
  2
$MODEL_SPACE
 70
     0
 10
0.0
 20
0.0
 30
0.0
  3
$MODEL_SPACE
  1

  0
ENDBLK
  5
21
  8
0
  0
BLOCK
 67
     1
  8
0
  2
$PAPER_SPACE
 70
     0
 10
0.0
 20
0.0
 30
0.0
  3
$PAPER_SPACE
  1

  0
ENDBLK
  5
1D
 67
     1
  8
0
  0
ENDSEC
  0
SECTION
  2
ENTITIES
  0
ATTDEF
  5
26A5B
  8
DEFPOINTS
 10
7160.7454809448290689
 20
383.3981069826969019
 30
0.0
 40
0.001
  1
K-20218IN
  3

  2
MODELNUMBER
 70
     0
1001
ACDBATTR
1070
     0
1070
     1
  0
ATTDEF
  5
26A5C
  8
DEFPOINTS
 10
7160.7453551351709393
 20
383.3964401423177151
 30
0.0
 40
0.001
  1
TRACE
  3

  2
TRADENAME
 70
     0
1001
ACDBATTR
1070
     0
1070
     1
  0
ATTDEF
  5
26A5D
  8
DEFPOINTS
 10
7160.7454809448290689
 20
383.3947736493635148
 30
0.0
 40
0.001
  1
TOILET BOWL
  3

  2
PRODUCT
 70
     0
1001
ACDBATTR
1070
     0
1070
     1
  0
LINE
  5
31EE5
  8
0
 10
7167.6132435248955517
 20
383.3942091942539037
 30
0.0
 11
7153.8859355662898452
 21
383.3942091942539037
 31
0.0
  0
LINE
  5
31EE6
  8
0
 10
7167.8570272338329232
 20
383.158009194253907
 30
0.0
 11
7167.849443524896742
 21
378.5432364679523971
 31
0.0
  0
ARC
  5
31EE7
  8
0
 10
7167.6076683719902576
 20
383.1445495844952234
 30
0.0
 40
0.2497218514163996
 50
3.089648349339543
 51
88.720739609291897
  0
ARC
  5
31EE8
  8
0
 10
7153.891511578573045
 20
383.1445475097813755
 30
0.0
 40
0.2497239448002873
 50
91.2794468861667383
 51
176.9099008676575124
  0
LINE
  5
31EE9
  8
0
 10
7153.6421507322920661
 20
383.158009194253907
 30
0.0
 11
7153.6497355662922928
 21
378.5432445405480166
 31
0.0
  0
LINE
  5
31EEA
  8
0
 10
7155.8119600963536868
 20
380.329878533753913
 30
0.0
 11
7165.6872178697713025
 21
380.329878533753913
 31
0.0
  0
ARC
  5
31EEB
  8
0
 10
7156.88557755326201
 20
379.206842439754098
 30
0.0
 40
1.19486047539986
 50
90.0
 51
109.9670933279186045
  0
ARC
  5
31EEC
  8
0
 10
7156.88557755326201
 20
379.206842439754098
 30
0.0
 40
1.173700219197283
 50
90.0
 51
106.8960061580581993
  0
LINE
  5
31EED
  8
0
 10
7156.88557755326201
 20
380.4017029151539191
 30
0.0
 11
7164.6136004128620698
 21
380.4017029151538054
 31
0.0
  0
LINE
  5
31EEE
  8
0
 10
7156.88557755326201
 20
380.3805426589514127
 30
0.0
 11
7164.6136004128620698
 21
380.380542658951299
 31
0.0
  0
LINE
  5
31EEF
  8
0
 10
7155.8119600963746052
 20
380.3298785334538934
 30
0.0
 11
7155.8081722079623432
 21
380.3816492407539158
 31
0.0
  0
LINE
  5
31EF0
  8
0
 10
7155.8081722079623432
 20
380.3816492407539158
 30
0.0
 11
7155.8049854791615871
 21
380.3873457610538935
 31
0.0
  0
LINE
  5
31EF1
  8
0
 10
7155.8049854791615871
 20
380.3873457610538935
 30
0.0
 11
7155.572728468609057
 21
380.3873457610538935
 31
0.0
  0
ARC
  5
31EF2
  8
0
 10
7155.572728468609057
 20
378.1346915476618165
 30
0.0
 40
2.252654213392141
 50
90.0
 51
96.1495285646540196
  0
ARC
  5
31EF3
  8
0
 10
7161.0833420601938997
 20
379.8781852453067813
 30
0.0
 40
5.7732889078801506
 50
175.0695044038226911
 51
175.8386556982389095
  0
ARC
  5
31EF4
  8
0
 10
7155.2263039152267083
 20
380.9542770387020028
 30
0.0
 40
0.6645620358196414
 50
277.4695788192559007
 51
278.5646044967048169
  0
ARC
  5
31EF5
  8
0
 10
7155.2924258591910984
 20
380.2949427431905747
 30
0.0
 40
0.0202751461617353
 50
1.163555613814045
 51
90.2261945827343368
  0
ARC
  5
31EF6
  8
0
 10
7155.317145860661185
 20
378.9626776262516046
 30
0.0
 40
1.352767451599735
 50
91.050452148933843
 51
105.898886308138799
  0
ARC
  5
31EF7
  8
0
 10
7155.4155486837125864
 20
378.6495991739715805
 30
0.0
 40
1.6808495440318429
 50
106.2013693016806002
 51
123.0878979866975982
  0
ARC
  5
31EF8
  8
0
 10
7155.4448917854178944
 20
378.5899883408184792
 30
0.0
 40
1.746830791442602
 50
122.8268629653803998
 51
135.2280562423624986
  0
ARC
  5
31EF9
  8
0
 10
7155.4629374786309199
 20
378.5794004724219235
 30
0.0
 40
1.767106236691127
 50
135.3964267968858053
 51
168.8850700039513981
  0
ARC
  5
31EFA
  8
0
 10
7156.8416519348356815
 20
378.0740234949429919
 30
0.0
 40
3.2256032735067479
 50
164.794159185050006
 51
179.1573573491515106
  0
ARC
  5
31EFB
  8
0
 10
7413.5109692133737553
 20
377.2620542068754048
 30
0.0
 40
259.9411782030081213
 50
181.0849999984999954
 51
181.6180050711471949
  0
ARC
  5
31EFC
  8
0
 10
7168.2719313200313991
 20
369.9748623790829924
 30
0.0
 40
14.5985937247843598
 50
180.205836002004304
 51
194.2209025099166979
  0
ARC
  5
31EFD
  8
0
 10
7160.3364120907654069
 20
367.9699080526801822
 30
0.0
 40
6.413715769358145
 50
194.273911218688113
 51
219.112536584294304
  0
ARC
  5
31EFE
  8
0
 10
7159.1123673629072073
 20
367.1530714526559791
 30
0.0
 40
4.9506061652117763
 50
220.7144332183675886
 51
250.0108124514758003
  0
ARC
  5
31EFF
  8
0
 10
7160.0024670964266988
 20
369.6000370582933101
 30
0.0
 40
7.554433772943316
 50
250.0108124514758003
 51
265.5686940741064745
  0
ARC
  5
31F00
  8
0
 10
7160.8633326172812303
 20
379.4917251129621718
 30
0.0
 40
17.4833190155172815
 50
265.2605642524650875
 51
269.6272516579618923
  0
ARC
  5
31F01
  8
0
 10
7159.3951480221312522
 20
380.3385733696534885
 30
0.0
 40
0.0030033177250478
 50
125.8000878215027996
 51
147.4228833943581094
  0
ARC
  5
31F02
  8
0
 10
7159.3975982833298985
 20
380.3322703257633179
 30
0.0
 40
0.0096988811590744
 50
105.1822384160968937
 51
115.7070201257040054
  0
ARC
  5
31F03
  8
0
 10
7159.4267303437927694
 20
380.1785282363616147
 30
0.0
 40
0.1661491306489488
 50
91.9607739899595771
 51
100.9892335132581991
  0
ARC
  5
31F04
  8
0
 10
7159.4572217582626763
 20
379.6562148699794079
 30
0.0
 40
0.6893151599119461
 50
89.4985629634980171
 51
93.0083472197658239
  0
ARC
  5
31F05
  8
0
 10
7159.4621715494713499
 20
379.757586706088091
 30
0.0
 40
0.5879179228882895
 50
85.9905548869881073
 51
89.8944722969789893
  0
ARC
  5
31F06
  8
0
 10
7159.4922999623013311
 20
380.1819883081149101
 30
0.0
 40
0.1624488662904755
 50
80.8535556951521954
 51
86.1246250336352546
  0
ARC
  5
31F07
  8
0
 10
7159.5137839267918025
 20
380.3158267981323206
 30
0.0
 40
0.026897114407946
 50
71.2656180428066506
 51
80.7173242172996908
  0
ARC
  5
31F08
  8
0
 10
7159.5215328806762045
 20
380.3382505267397278
 30
0.0
 40
0.0031755538973171
 50
48.182116562410549
 51
73.7258475464896605
  0
ARC
  5
31F09
  8
0
 10
7159.5231394495649511
 20
380.3400944027808919
 30
0.0
 40
0.0007308737409616
 50
7.5520237910877777
 51
45.6642487940965793
  0
ARC
  5
31F0A
  8
0
 10
7159.5224300437830607
 20
380.3407567643999982
 30
0.0
 40
0.0015417151319747
 50
289.0891840274500169
 51
338.4494609739227826
  0
ARC
  5
31F0B
  8
0
 10
7159.5109657603907181
 20
380.3742964260137001
 30
0.0
 40
0.0369865728131028
 50
276.8503867094880206
 51
288.8801725299417171
  0
ARC
  5
31F0C
  8
0
 10
7159.4758248673160779
 20
380.6661075929582125
 30
0.0
 40
0.3309060154126659
 50
271.6620928851685903
 51
276.8648649795958931
  0
ARC
  5
31F0D
  8
0
 10
7159.4590526444708303
 20
381.0761496876011165
 30
0.0
 40
0.7412780796911285
 50
267.9936410363790174
 51
272.0386625161673919
  0
ARC
  5
31F0E
  8
0
 10
7159.4382742862653686
 20
380.6308973201626031
 30
0.0
 40
0.2956165537393211
 50
262.386618313300005
 51
268.9971167493952748
  0
ARC
  5
31F0F
  8
0
 10
7159.4027651552132738
 20
380.3638202640422037
 30
0.0
 40
0.0261900298540779
 50
249.1222909869493947
 51
261.974517072519518
  0
ARC
  5
31F10
  8
0
 10
7159.3945503123377421
 20
380.3415649761213899
 30
0.0
 40
0.0024816046088432
 50
224.0755848564456016
 51
243.2073294685735902
  0
ARC
  5
31F11
  8
0
 10
7159.3931747279948468
 20
380.3402206792454763
 30
0.0
 40
0.0005583226044385
 50
183.1027715339324118
 51
223.1614182472131915
  0
ARC
  5
31F12
  8
0
 10
7159.5528751460351486
 20
380.3385733696534885
 30
0.0
 40
0.0030033177250478
 50
125.8000878215027996
 51
147.4228833943581094
  0
ARC
  5
31F13
  8
0
 10
7159.555325407233795
 20
380.3322703257633179
 30
0.0
 40
0.0096988811590744
 50
105.1822384160968937
 51
115.7070201257040054
  0
ARC
  5
31F14
  8
0
 10
7159.5844574676975753
 20
380.1785282363616147
 30
0.0
 40
0.1661491306489488
 50
91.9607739899595771
 51
100.9892335132581991
  0
ARC
  5
31F15
  8
0
 10
7159.6149488821647537
 20
379.6562148699794079
 30
0.0
 40
0.6893151599119461
 50
89.4985629634980171
 51
93.0083472197658239
  0
ARC
  5
31F16
  8
0
 10
7159.6198986733752463
 20
379.757586706088091
 30
0.0
 40
0.5879179228882895
 50
85.9905548869881073
 51
89.8944722969789893
  0
ARC
  5
31F17
  8
0
 10
7159.6500270862052275
 20
380.1819883081149101
 30
0.0
 40
0.1624488662904755
 50
80.8535556951521954
 51
86.1246250336352546
  0
ARC
  5
31F18
  8
0
 10
7159.6715110506956989
 20
380.3158267981323206
 30
0.0
 40
0.026897114407946
 50
71.2656180428066506
 51
80.7173242172996908
  0
ARC
  5
31F19
  8
0
 10
7159.6792600045801009
 20
380.3382505267397278
 30
0.0
 40
0.0031755538973171
 50
48.182116562410549
 51
73.7258475464896605
  0
ARC
  5
31F1A
  8
0
 10
7159.6808665734706665
 20
380.3400944027808919
 30
0.0
 40
0.0007308737409616
 50
7.5520237910877777
 51
45.6642487940965793
  0
ARC
  5
31F1B
  8
0
 10
7159.6801571676878666
 20
380.3407567643999982
 30
0.0
 40
0.0015417151319747
 50
289.0891840274500169
 51
338.4494609739227826
  0
ARC
  5
31F1C
  8
0
 10
7159.668692884293705
 20
380.3742964260137001
 30
0.0
 40
0.0369865728131028
 50
276.8503867094880206
 51
288.8801725299417171
  0
ARC
  5
31F1D
  8
0
 10
7159.6335519912199743
 20
380.6661075929582125
 30
0.0
 40
0.3309060154126659
 50
271.6620928851685903
 51
276.8648649795958931
  0
ARC
  5
31F1E
  8
0
 10
7159.6167797683756362
 20
381.0761496876011165
 30
0.0
 40
0.7412780796911285
 50
267.9936410363790174
 51
272.0386625161673919
  0
ARC
  5
31F1F
  8
0
 10
7159.596001410169265
 20
380.6308973201626031
 30
0.0
 40
0.2956165537393211
 50
262.386618313300005
 51
268.9971167493952748
  0
ARC
  5
31F20
  8
0
 10
7159.5604922791162608
 20
380.3638202640422037
 30
0.0
 40
0.0261900298540779
 50
249.1222909869493947
 51
261.974517072519518
  0
ARC
  5
31F21
  8
0
 10
7159.5522774362416385
 20
380.3415649761213899
 30
0.0
 40
0.0024816046088432
 50
224.0755848564456016
 51
243.2073294685735902
  0
ARC
  5
31F22
  8
0
 10
7159.5509018518996527
 20
380.3402206792454763
 30
0.0
 40
0.0005583226044385
 50
183.1027715339324118
 51
223.1614182472131915
  0
ARC
  5
31F23
  8
0
 10
7159.7105849097397368
 20
380.3385733696534885
 30
0.0
 40
0.0030033177250478
 50
125.8000878215027996
 51
147.4228833943581094
  0
ARC
  5
31F24
  8
0
 10
7159.7130351709411116
 20
380.3322703257633179
 30
0.0
 40
0.0096988811590744
 50
105.1822384160968937
 51
115.7070201257040054
  0
ARC
  5
31F25
  8
0
 10
7159.7421672314039824
 20
380.1785282363616147
 30
0.0
 40
0.1661491306489488
 50
91.9607739899595771
 51
100.9892335132581991
  0
ARC
  5
31F26
  8
0
 10
7159.7726586458720703
 20
379.6562148699794079
 30
0.0
 40
0.6893151599119461
 50
89.4985629634980171
 51
93.0083472197658239
  0
ARC
  5
31F27
  8
0
 10
7159.7776084370816534
 20
379.757586706088091
 30
0.0
 40
0.5879179228882895
 50
85.9905548869881073
 51
89.8944722969789893
  0
ARC
  5
31F28
  8
0
 10
7159.8077368499098156
 20
380.1819883081149101
 30
0.0
 40
0.1624488662904755
 50
80.8535556951521954
 51
86.1246250336352546
  0
ARC
  5
31F29
  8
0
 10
7159.8292208144011965
 20
380.3158267981323206
 30
0.0
 40
0.026897114407946
 50
71.2656180428066506
 51
80.7173242172996908
  0
ARC
  5
31F2A
  8
0
 10
7159.8369697682874175
 20
380.3382505267397278
 30
0.0
 40
0.0031755538973171
 50
48.182116562410549
 51
73.7258475464896605
  0
ARC
  5
31F2B
  8
0
 10
7159.8385763371761641
 20
380.3400944027808919
 30
0.0
 40
0.0007308737409616
 50
7.5520237910877777
 51
45.6642487940965793
  0
ARC
  5
31F2C
  8
0
 10
7159.8378669313933642
 20
380.3407567643999982
 30
0.0
 40
0.0015417151319747
 50
289.0891840274500169
 51
338.4494609739227826
  0
ARC
  5
31F2D
  8
0
 10
7159.8264026480001121
 20
380.3742964260137001
 30
0.0
 40
0.0369865728131028
 50
276.8503867094880206
 51
288.8801725299417171
  0
ARC
  5
31F2E
  8
0
 10
7159.7912617549272909
 20
380.6661075929582125
 30
0.0
 40
0.3309060154126659
 50
271.6620928851685903
 51
276.8648649795958931
  0
ARC
  5
31F2F
  8
0
 10
7159.7744895320820433
 20
381.0761496876011165
 30
0.0
 40
0.7412780796911285
 50
267.9936410363790174
 51
272.0386625161673919
  0
ARC
  5
31F30
  8
0
 10
7159.7537111738756721
 20
380.6308973201626031
 30
0.0
 40
0.2956165537393211
 50
262.386618313300005
 51
268.9971167493952748
  0
ARC
  5
31F31
  8
0
 10
7159.7182020428235774
 20
380.3638202640422037
 30
0.0
 40
0.0261900298540779
 50
249.1222909869493947
 51
261.974517072519518
  0
ARC
  5
31F32
  8
0
 10
7159.7099871999489551
 20
380.3415649761213899
 30
0.0
 40
0.0024816046088432
 50
224.0755848564456016
 51
243.2073294685735902
  0
ARC
  5
31F33
  8
0
 10
7159.7086116156051503
 20
380.3402206792454763
 30
0.0
 40
0.0005583226044385
 50
183.1027715339324118
 51
223.1614182472131915
  0
ARC
  5
31F34
  8
0
 10
7159.8674808571013273
 20
380.3385733696534885
 30
0.0
 40
0.0030033177250478
 50
125.8000878215027996
 51
147.4228833943581094
  0
ARC
  5
31F35
  8
0
 10
7159.8699311183017926
 20
380.3322703257633179
 30
0.0
 40
0.0096988811590744
 50
105.1822384160968937
 51
115.7070201257040054
  0
ARC
  5
31F36
  8
0
 10
7159.899063178763754
 20
380.1785282363616147
 30
0.0
 40
0.1661491306489488
 50
91.9607739899595771
 51
100.9892335132581991
  0
ARC
  5
31F37
  8
0
 10
7159.9295545932327514
 20
379.6562148699794079
 30
0.0
 40
0.6893151599119461
 50
89.4985629634980171
 51
93.0083472197658239
  0
ARC
  5
31F38
  8
0
 10
7159.9345043844441534
 20
379.757586706088091
 30
0.0
 40
0.5879179228882895
 50
85.9905548869881073
 51
89.8944722969789893
  0
ARC
  5
31F39
  8
0
 10
7159.9646327972723157
 20
380.1819883081149101
 30
0.0
 40
0.1624488662904755
 50
80.8535556951521954
 51
86.1246250336352546
  0
ARC
  5
31F3A
  8
0
 10
7159.9861167617627871
 20
380.3158267981323206
 30
0.0
 40
0.026897114407946
 50
71.2656180428066506
 51
80.7173242172996908
  0
ARC
  5
31F3B
  8
0
 10
7159.9938657156480986
 20
380.3382505267397278
 30
0.0
 40
0.0031755538973171
 50
48.182116562410549
 51
73.7258475464896605
  0
ARC
  5
31F3C
  8
0
 10
7159.9954722845377546
 20
380.3400944027808919
 30
0.0
 40
0.0007308737409616
 50
7.5520237910877777
 51
45.6642487940965793
  0
ARC
  5
31F3D
  8
0
 10
7159.9947628787549547
 20
380.3407567643999982
 30
0.0
 40
0.0015417151319747
 50
289.0891840274500169
 51
338.4494609739227826
  0
ARC
  5
31F3E
  8
0
 10
7159.9832985953626121
 20
380.3742964260137001
 30
0.0
 40
0.0369865728131028
 50
276.8503867094880206
 51
288.8801725299417171
  0
ARC
  5
31F3F
  8
0
 10
7159.9481577022879719
 20
380.6661075929582125
 30
0.0
 40
0.3309060154126659
 50
271.6620928851685903
 51
276.8648649795958931
  0
ARC
  5
31F40
  8
0
 10
7159.9313854794427243
 20
381.0761496876011165
 30
0.0
 40
0.7412780796911285
 50
267.9936410363790174
 51
272.0386625161673919
  0
ARC
  5
31F41
  8
0
 10
7159.9106071212372626
 20
380.6308973201626031
 30
0.0
 40
0.2956165537393211
 50
262.386618313300005
 51
268.9971167493952748
  0
ARC
  5
31F42
  8
0
 10
7159.8750979901851679
 20
380.3638202640422037
 30
0.0
 40
0.0261900298540779
 50
249.1222909869493947
 51
261.974517072519518
  0
ARC
  5
31F43
  8
0
 10
7159.8668831473087266
 20
380.3415649761213899
 30
0.0
 40
0.0024816046088432
 50
224.0755848564456016
 51
243.2073294685735902
  0
ARC
  5
31F44
  8
0
 10
7159.8655075629658313
 20
380.3402206792454763
 30
0.0
 40
0.0005583226044385
 50
183.1027715339324118
 51
223.1614182472131915
  0
ARC
  5
31F45
  8
0
 10
7155.6565465431722259
 20
378.0302344983091984
 30
0.0
 40
2.2910698527137008
 50
98.6317133334169966
 51
108.0017770636504935
  0
ARC
  5
31F46
  8
0
 10
7155.518029325421594
 20
378.4281489951695789
 30
0.0
 40
1.869846761902962
 50
107.733282123748495
 51
130.3597707428581884
  0
ARC
  5
31F47
  8
0
 10
7155.5375978302708972
 20
378.4492852411577246
 30
0.0
 40
1.866632449085381
 50
131.2376309122778935
 51
161.8789424978861007
  0
ARC
  5
31F48
  8
0
 10
7154.3308462402246732
 20
378.7904954960739019
 30
0.0
 40
0.6157282035519462
 50
157.1236453821991006
 51
167.9741773436961125
  0
LINE
  5
31F49
  8
0
 10
7153.6163974920600594
 20
378.1214603731132797
 30
0.0
 11
7153.6163974920600594
 21
372.3398884881312938
 31
0.0
  0
ARC
  5
31F4A
  8
0
 10
7164.6136004128620698
 20
379.206842439754098
 30
0.0
 40
1.19486047539986
 50
70.0329066720324391
 51
90.0
  0
ARC
  5
31F4B
  8
0
 10
7164.6136004128620698
 20
379.206842439754098
 30
0.0
 40
1.173700219197283
 50
73.1039938419417723
 51
90.0
  0
LINE
  5
31F4C
  8
0
 10
7165.6872178697485651
 20
380.3298785334538934
 30
0.0
 11
7165.6910057581617366
 21
380.3816492407539158
 31
0.0
  0
LINE
  5
31F4D
  8
0
 10
7165.6910057581617366
 20
380.3816492407539158
 30
0.0
 11
7165.6941924869634022
 21
380.3873457610538935
 31
0.0
  0
LINE
  5
31F4E
  8
0
 10
7165.6941924869634022
 20
380.3873457610538935
 30
0.0
 11
7165.9264494975159323
 21
380.3873457610538935
 31
0.0
  0
ARC
  5
31F4F
  8
0
 10
7165.9264494975159323
 20
378.1346915476618165
 30
0.0
 40
2.252654213392141
 50
83.8504714353459661
 51
90.0
  0
ARC
  5
31F50
  8
0
 10
7160.4158359059292707
 20
379.8781852453067813
 30
0.0
 40
5.7732889078801506
 50
4.1613443017610541
 51
4.9304955961772583
  0
ARC
  5
31F51
  8
0
 10
7166.2728740508955525
 20
380.9542770387020028
 30
0.0
 40
0.6645620358196414
 50
261.4353955032951831
 51
262.5304211806924854
  0
ARC
  5
31F52
  8
0
 10
7166.2067521069329814
 20
380.2949427431905747
 30
0.0
 40
0.0202751461617353
 50
89.7738054172656916
 51
178.8364443861827056
  0
ARC
  5
31F53
  8
0
 10
7166.1820321054638043
 20
378.9626776262516046
 30
0.0
 40
1.352767451599735
 50
74.1011136918612152
 51
88.9495478510661428
  0
ARC
  5
31F54
  8
0
 10
7166.083629282410584
 20
378.6495991739715805
 30
0.0
 40
1.6808495440318429
 50
56.9121020133023308
 51
73.7986306983194282
  0
ARC
  5
31F55
  8
0
 10
7166.0542861807070949
 20
378.5899883408184792
 30
0.0
 40
1.746830791442602
 50
44.771943757637473
 51
57.1731370346196215
  0
ARC
  5
31F56
  8
0
 10
7166.0362404874931599
 20
378.5794004724219235
 30
0.0
 40
1.767106236691127
 50
11.1149299960485095
 51
44.6035732031141521
  0
ARC
  5
31F57
  8
0
 10
7164.6575260312865794
 20
378.0740234949429919
 30
0.0
 40
3.2256032735067479
 50
0.8426426508452649
 51
15.2058408149499602
  0
ARC
  5
31F58
  8
0
 10
6907.988208752751234
 20
377.2620542068754048
 30
0.0
 40
259.9411782030081213
 50
358.3819949288526914
 51
358.9150000015000046
  0
ARC
  5
31F59
  8
0
 10
7153.2272466460926807
 20
369.9748623790829924
 30
0.0
 40
14.5985937247843598
 50
345.7790974900801189
 51
359.7941639979924275
  0
ARC
  5
31F5A
  8
0
 10
7161.1627658753586729
 20
367.9699080526801822
 30
0.0
 40
6.413715769358145
 50
320.8874634157057244
 51
345.7260887813117733
  0
ARC
  5
31F5B
  8
0
 10
7162.386810603217782
 20
367.1530714526559791
 30
0.0
 40
4.9506061652117763
 50
289.9891875485242281
 51
319.2855667816324967
  0
ARC
  5
31F5C
  8
0
 10
7161.496710869697381
 20
369.6000370582933101
 30
0.0
 40
7.554433772943316
 50
274.4313059258935255
 51
289.9891875485242281
  0
ARC
  5
31F5D
  8
0
 10
7160.6358434809098981
 20
379.4917537242047842
 30
0.0
 40
17.4833476832680113
 50
270.3727765009058999
 51
274.7394341009542131
  0
ARC
  5
31F5E
  8
0
 10
7165.8426314229527634
 20
378.0302344983091984
 30
0.0
 40
2.2910698527137008
 50
71.9982229363494923
 51
81.368286666531489
  0
ARC
  5
31F5F
  8
0
 10
7165.9811486407015764
 20
378.4281489951695789
 30
0.0
 40
1.869846761902962
 50
49.6402292571417476
 51
72.2667178762515192
  0
ARC
  5
31F60
  8
0
 10
7165.9615801358540921
 20
378.4492852411577246
 30
0.0
 40
1.866632449085381
 50
18.1210575021138389
 51
48.7623690877220923
  0
ARC
  5
31F61
  8
0
 10
7167.1683317259003161
 20
378.7904954960739019
 30
0.0
 40
0.6157282035519462
 50
12.0258226563038608
 51
22.8763546178008994
  0
LINE
  5
31F62
  8
0
 10
7167.8827804740631109
 20
378.1214603731132797
 30
0.0
 11
7167.8827804740631109
 21
372.3398884881312938
 31
0.0
  0
ENDSEC
  0
EOF
