  0
SECTION
  2
HEADER
  9
$ACADVER
  1
AC1009
  9
$INSBASE
 10
794.2044985211603034
 20
97.4213260941798751
 30
0.0
  9
$EXTMIN
 10
768.6014320682179459
 20
97.415509173045109
 30
-0.0000000000000053
  9
$EXTMAX
 10
819.8353792374500699
 20
121.2494494495149979
 30
0.0000000000000099
  9
$LIMMIN
 10
0.0
 20
0.0
  9
$LIMMAX
 10
11.6929133858000007
 20
8.2677165353999982
  9
$ORTHOMODE
 70
     0
  9
$REGENMODE
 70
     1
  9
$FILLMODE
 70
     1
  9
$QTEXTMODE
 70
     0
  9
$MIRRTEXT
 70
     0
  9
$DRAGMODE
 70
     2
  9
$LTSCALE
 40
0.6431102362
  9
$OSMODE
 70
  4095
  9
$ATTMODE
 70
     1
  9
$TEXTSIZE
 40
0.2
  9
$TRACEWID
 40
0.05
  9
$TEXTSTYLE
  7
STANDARD
  9
$CLAYER
  8
0
  9
$CELTYPE
  6
BYLAYER
  9
$CECOLOR
 62
   256
  9
$DIMSCALE
 40
1.0
  9
$DIMASZ
 40
0.1875
  9
$DIMEXO
 40
0.0625
  9
$DIMDLI
 40
0.4443307087
  9
$DIMRND
 40
0.0
  9
$DIMDLE
 40
0.0
  9
$DIMEXE
 40
0.125
  9
$DIMTP
 40
0.01
  9
$DIMTM
 40
0.01
  9
$DIMTXT
 40
1.0
  9
$DIMCEN
 40
0.1052362205
  9
$DIMTSZ
 40
0.0
  9
$DIMTOL
 70
     1
  9
$DIMLIM
 70
     0
  9
$DIMTIH
 70
     0
  9
$DIMTOH
 70
     1
  9
$DIMSE1
 70
     0
  9
$DIMSE2
 70
     0
  9
$DIMTAD
 70
     0
  9
$DIMZIN
 70
     0
  9
$DIMBLK
  1

  9
$DIMASO
 70
     1
  9
$DIMSHO
 70
     1
  9
$DIMPOST
  1
\X
  9
$DIMAPOST
  1

  9
$DIMALT
 70
     1
  9
$DIMALTD
 70
     2
  9
$DIMALTF
 40
25.3999999999999986
  9
$DIMLFAC
 40
1.0
  9
$DIMTOFL
 70
     0
  9
$DIMTVP
 40
0.0
  9
$DIMTIX
 70
     0
  9
$DIMSOXD
 70
     0
  9
$DIMSAH
 70
     0
  9
$DIMBLK1
  1

  9
$DIMBLK2
  1

  9
$DIMSTYLE
  2
STANDARD
  9
$DIMCLRD
 70
     0
  9
$DIMCLRE
 70
     0
  9
$DIMCLRT
 70
     0
  9
$DIMTFAC
 40
1.0
  9
$DIMGAP
 40
0.09
  9
$LUNITS
 70
     2
  9
$LUPREC
 70
     4
  9
$SKETCHINC
 40
0.1
  9
$FILLETRAD
 40
0.0
  9
$AUNITS
 70
     0
  9
$AUPREC
 70
     0
  9
$MENU
  1
.
  9
$ELEVATION
 40
0.0
  9
$PELEVATION
 40
0.0
  9
$THICKNESS
 40
0.0
  9
$LIMCHECK
 70
     0
  9
$BLIPMODE
 70
     0
  9
$CHAMFERA
 40
0.0
  9
$CHAMFERB
 40
0.0
  9
$SKPOLY
 70
     0
  9
$TDCREATE
 40
2458172.5207638889551163
  9
$TDUPDATE
 40
2459111.4500115741975605
  9
$TDINDWG
 40
0.3932414583
  9
$TDUSRTIMER
 40
0.3932414583
  9
$USRTIMER
 70
     1
  9
$ANGBASE
 50
0.0
  9
$ANGDIR
 70
     0
  9
$PDMODE
 70
     0
  9
$PDSIZE
 40
0.3125
  9
$PLINEWID
 40
0.0
  9
$COORDS
 70
     1
  9
$SPLFRAME
 70
     0
  9
$SPLINETYPE
 70
     6
  9
$SPLINESEGS
 70
     8
  9
$ATTDIA
 70
     1
  9
$ATTREQ
 70
     1
  9
$HANDLING
 70
     1
  9
$HANDSEED
  5
BEE5
  9
$SURFTAB1
 70
     6
  9
$SURFTAB2
 70
     6
  9
$SURFTYPE
 70
     6
  9
$SURFU
 70
     6
  9
$SURFV
 70
     6
  9
$UCSNAME
  2

  9
$UCSORG
 10
0.0
 20
0.0
 30
0.0
  9
$UCSXDIR
 10
1.0
 20
0.0
 30
0.0
  9
$UCSYDIR
 10
0.0
 20
1.0
 30
0.0
  9
$PUCSNAME
  2

  9
$PUCSORG
 10
0.0
 20
0.0
 30
0.0
  9
$PUCSXDIR
 10
1.0
 20
0.0
 30
0.0
  9
$PUCSYDIR
 10
0.0
 20
1.0
 30
0.0
  9
$USERI1
 70
     0
  9
$USERI2
 70
     0
  9
$USERI3
 70
     0
  9
$USERI4
 70
     0
  9
$USERI5
 70
     0
  9
$USERR1
 40
0.0
  9
$USERR2
 40
0.0
  9
$USERR3
 40
0.0
  9
$USERR4
 40
0.0
  9
$USERR5
 40
0.0
  9
$WORLDVIEW
 70
     1
  9
$SHADEDGE
 70
     3
  9
$SHADEDIF
 70
    70
  9
$TILEMODE
 70
     1
  9
$MAXACTVP
 70
    64
  9
$PLIMCHECK
 70
     0
  9
$PEXTMIN
 10
1.0000000000000000E+20
 20
1.0000000000000000E+20
 30
1.0000000000000000E+20
  9
$PEXTMAX
 10
-1.0000000000000000E+20
 20
-1.0000000000000000E+20
 30
-1.0000000000000000E+20
  9
$PLIMMIN
 10
0.0
 20
0.0
  9
$PLIMMAX
 10
12.0
 20
9.0
  9
$UNITMODE
 70
     0
  9
$VISRETAIN
 70
     1
  9
$PLINEGEN
 70
     0
  9
$PSLTSCALE
 70
     1
  0
ENDSEC
  0
SECTION
  2
TABLES
  0
TABLE
  2
VPORT
 70
     1
  0
VPORT
  2
*ACTIVE
 70
     0
 10
0.0
 20
0.0
 11
1.0
 21
1.0
 12
327.4762039450038742
 22
20.1993321913502584
 13
0.0
 23
0.0
 14
1.0
 24
1.0
 15
0.0
 25
0.0
 16
0.0
 26
0.0
 36
24.1179433675886514
 17
466.74220170783002
 27
89.133147119929788
 37
0.0
 40
25.6300306338540906
 41
2.005224660397074
 42
50.0
 43
0.0
 44
0.0
 50
0.0
 51
0.0
 71
     0
 72
   100
 73
     1
 74
     1
 75
     0
 76
     0
 77
     0
 78
     0
  0
ENDTAB
  0
TABLE
  2
LTYPE
 70
     2
  0
LTYPE
  2
CONTINUOUS
 70
     0
  3
Solid line
 72
    65
 73
     0
 40
0.0
  0
LTYPE
  2
PHANTOM2
 70
     0
  3
___ _ _ ___ _ _ ___ _ _ ___ _ _
 72
    65
 73
     6
 40
1.25
 49
0.625
 49
-0.125
 49
0.125
 49
-0.125
 49
0.125
 49
-0.125
  0
ENDTAB
  0
TABLE
  2
LAYER
 70
     2
  0
LAYER
  2
0
 70
     0
 62
   255
  6
CONTINUOUS
  0
LAYER
  2
DEFPOINTS
 70
     0
 62
     7
  6
CONTINUOUS
  0
ENDTAB
  0
TABLE
  2
STYLE
 70
     1
  0
STYLE
  2
STANDARD
 70
     0
 40
0.0
 41
0.8
 50
0.0
 71
     0
 42
0.2
  3
txt
  4

  0
ENDTAB
  0
TABLE
  2
VIEW
 70
     0
  0
ENDTAB
  0
TABLE
  2
UCS
 70
     0
  0
ENDTAB
  0
TABLE
  2
APPID
 70
    11
  0
APPID
  2
ACAD
 70
     0
  0
APPID
  2
ACAD_MLEADERVER
 70
     0
  0
APPID
  2
ACAD_EXEMPT_FROM_CAD_STANDARDS
 70
     0
  0
APPID
  2
ACAD_DSTYLE_DIMJAG
 70
     0
  0
APPID
  2
ACAD_DSTYLE_DIMTALN
 70
     0
  0
APPID
  2
ACAD_NAV_VCDISPLAY
 70
     0
  0
APPID
  2
ACAECLAYERSTANDARD
 70
     0
  0
APPID
  2
ACCMTRANSPARENCY
 70
     0
  0
APPID
  2
DCO15
 70
     0
  0
APPID
  2
ACDBATTR
 70
     0
  0
APPID
  2
ACADANNOTATIVE
 70
     0
  0
ENDTAB
  0
TABLE
  2
DIMSTYLE
 70
     1
  0
DIMSTYLE
  2
STANDARD
 70
     0
  3

  4

  5

  6

  7

 40
1.0
 41
0.1875
 42
0.0625
 43
0.38
 44
0.125
 45
0.0
 46
0.0
 47
0.01
 48
0.01
140
0.15625
141
0.09
142
0.0
143
25.3999999999999986
144
1.0
145
0.0
146
1.0
147
0.09
 71
     1
 72
     0
 73
     1
 74
     1
 75
     0
 76
     0
 77
     0
 78
     4
170
     0
171
     2
172
     0
173
     0
174
     0
175
     0
176
     0
177
     0
178
     0
  0
ENDTAB
  0
ENDSEC
  0
SECTION
  2
BLOCKS
  0
BLOCK
  8
0
  2
$MODEL_SPACE
 70
     0
 10
0.0
 20
0.0
 30
0.0
  3
$MODEL_SPACE
  1

  0
ENDBLK
  5
21
  8
0
  0
BLOCK
 67
     1
  8
0
  2
$PAPER_SPACE
 70
     0
 10
0.0
 20
0.0
 30
0.0
  3
$PAPER_SPACE
  1

  0
ENDBLK
  5
1D
 67
     1
  8
0
  0
ENDSEC
  0
SECTION
  2
ENTITIES
  0
ATTDEF
  5
829
  8
DEFPOINTS
 10
794.2005821131346011
 20
97.4258038842609864
 30
0.0
 40
0.001
  1
K-20247T
  3

  2
MODELNUMBER
 70
     0
1001
ACDBATTR
1070
     0
1070
     1
  0
ATTDEF
  5
82A
  8
DEFPOINTS
 10
794.2005821131346011
 20
97.424137217594307
 30
0.0
 40
0.001
  1
KARING
  3

  2
TRADENAME
 70
     0
1001
ACDBATTR
1070
     0
1070
     1
  0
ATTDEF
  5
82B
  8
DEFPOINTS
 10
794.2005821131346011
 20
97.4224705509276419
 30
0.0
 40
0.001
  1
BATH
  3

  2
PRODUCT
 70
     0
1001
ACDBATTR
1070
     0
1070
     1
  0
LINE
  5
BDF3
  8
0
 10
769.0907328274430483
 20
121.2436656244799025
 30
0.0
 11
819.3182642150093216
 21
121.2436656244799025
 31
0.0
  0
LINE
  5
BDF4
  8
0
 10
817.3096742317602548
 20
97.618176487879893
 30
0.0
 11
795.1887302252603149
 21
97.618176487879893
 31
0.0
  0
LINE
  5
BDF5
  8
0
 10
793.2202262882602781
 20
97.618176487879893
 30
0.0
 11
771.0993228105603521
 21
97.618176487879893
 31
0.0
  0
LINE
  5
BDF6
  8
0
 10
817.5333973128424532
 20
97.8150268815798825
 30
0.0
 11
770.8755997294781537
 21
97.8150268815798825
 31
0.0
  0
ARC
  5
BDF7
  8
0
 10
680.0238408110940327
 20
94.9838856100651867
 30
0.0
 40
90.8958605188569067
 50
1.7848853044800539
 51
8.7737959508407322
  0
ARC
  5
BDF8
  8
0
 10
644.8186616250532097
 20
89.5503216087355867
 30
0.0
 40
126.5178798226215946
 50
8.7737959508407322
 51
11.0408511802896996
  0
ARC
  5
BDF9
  8
0
 10
803.7335474088215506
 20
119.1308075817755991
 30
0.0
 40
35.1484749769781075
 50
183.3189098389024139
 51
188.7570742398945924
  0
ARC
  5
BDFA
  8
0
 10
787.6636625907716507
 20
117.4935549403884067
 30
0.0
 40
19.0529012556369608
 50
169.4384398969187089
 51
178.923337854788798
  0
ARC
  5
BDFB
  8
0
 10
787.5340770466791582
 20
118.2218101340395009
 30
0.0
 40
18.9235742663511495
 50
181.1210869623776887
 51
183.4108669021834999
  0
ARC
  5
BDFC
  8
0
 10
769.7952988405744463
 20
120.7492750858888968
 30
0.0
 40
0.8936227494297769
 50
149.392319335900396
 51
164.652233407535789
  0
ARC
  5
BDFD
  8
0
 10
769.1000659151786749
 20
121.1605604959336944
 30
0.0
 40
0.0858452373201005
 50
121.335277227131499
 51
149.392319335900396
  0
ARC
  5
BDFE
  8
0
 10
769.0903014360465022
 20
121.1765979903003938
 30
0.0
 40
0.0670690215595668
 50
89.631468057778676
 51
121.3352772271316979
  0
LINE
  5
BDFF
  8
0
 10
771.0993228105603521
 20
97.7362867240798892
 30
0.0
 11
771.0993228105603521
 21
97.618176487879893
 31
0.0
  0
LINE
  5
BE00
  8
0
 10
771.0783709629604346
 20
97.7362867240798892
 30
0.0
 11
771.0783709629604346
 21
97.8150268815798825
 31
0.0
  0
LINE
  5
BE01
  8
0
 10
771.0783709629604346
 20
97.7362867240798892
 30
0.0
 11
771.0993228105603521
 21
97.7362867240798892
 31
0.0
  0
ARC
  5
BE02
  8
0
 10
908.3851562312266879
 20
94.9838856100651867
 30
0.0
 40
90.8958605188569067
 50
171.2262040491592074
 51
178.215114695519901
  0
ARC
  5
BE03
  8
0
 10
943.5903354172673971
 20
89.5503216087355867
 30
0.0
 40
126.5178798226215946
 50
168.9591488197102933
 51
171.2262040491592074
  0
ARC
  5
BE04
  8
0
 10
784.6754496334992837
 20
119.1308075817755991
 30
0.0
 40
35.1484749769781075
 50
351.2429257601053791
 51
356.6810901610975861
  0
ARC
  5
BE05
  8
0
 10
800.7336966383488743
 20
117.4918799096139992
 30
0.0
 40
19.0646489330111493
 50
1.0810335570621461
 51
10.5600981154801392
  0
ARC
  5
BE06
  8
0
 10
800.6716591321636542
 20
118.2318878837888008
 30
0.0
 40
19.1270747566214894
 50
356.595223765167475
 51
358.8606481794690239
  0
ARC
  5
BE07
  8
0
 10
818.6136982017461605
 20
120.7492750858888968
 30
0.0
 40
0.8936227494297769
 50
15.3477665924625803
 51
30.6076806640996111
  0
ARC
  5
BE08
  8
0
 10
819.3089311271419319
 20
121.1605604959336944
 30
0.0
 40
0.0858452373201005
 50
30.6076806640996111
 51
58.6647227728685223
  0
ARC
  5
BE09
  8
0
 10
819.3186956062742183
 20
121.1765979903003938
 30
0.0
 40
0.0670690215595668
 50
58.6647227728683092
 51
90.368531829654458
  0
LINE
  5
BE0A
  8
0
 10
817.3096742317602548
 20
97.7362867240798892
 30
0.0
 11
817.3096742317602548
 21
97.618176487879893
 31
0.0
  0
LINE
  5
BE0B
  8
0
 10
817.330626079360286
 20
97.7362867240798892
 30
0.0
 11
817.330626079360286
 21
97.8150268815798825
 31
0.0
  0
LINE
  5
BE0C
  8
0
 10
817.330626079360286
 20
97.7362867240798892
 30
0.0
 11
817.3096742317602548
 21
97.7362867240798892
 31
0.0
  0
LINE
  5
BE0D
  8
0
 10
816.2517024331604034
 20
97.4213260941798751
 30
0.0
 11
813.4957969213603519
 21
97.4213260941798751
 31
0.0
  0
LINE
  5
BE0E
  8
0
 10
813.4957969213603519
 20
97.4213260941798751
 30
0.0
 11
813.4957969213603519
 21
97.618176487879893
 31
0.0
  0
LINE
  5
BE0F
  8
0
 10
816.2517024331604034
 20
97.4213260941798751
 30
0.0
 11
816.2517024331604034
 21
97.618176487879893
 31
0.0
  0
LINE
  5
BE10
  8
0
 10
808.7714276549602346
 20
97.4213260941798751
 30
0.0
 11
806.0155221431602968
 21
97.4213260941798751
 31
0.0
  0
LINE
  5
BE11
  8
0
 10
806.0155221431602968
 20
97.4213260941798751
 30
0.0
 11
806.0155221431602968
 21
97.618176487879893
 31
0.0
  0
LINE
  5
BE12
  8
0
 10
808.7714276549602346
 20
97.4213260941798751
 30
0.0
 11
808.7714276549602346
 21
97.618176487879893
 31
0.0
  0
LINE
  5
BE13
  8
0
 10
798.9289079700604361
 20
97.4213260941798751
 30
0.0
 11
796.1730024582602709
 21
97.4213260941798751
 31
0.0
  0
LINE
  5
BE14
  8
0
 10
796.1730024582602709
 20
97.4213260941798751
 30
0.0
 11
796.1730024582602709
 21
97.618176487879893
 31
0.0
  0
LINE
  5
BE15
  8
0
 10
798.9289079700604361
 20
97.4213260941798751
 30
0.0
 11
798.9289079700604361
 21
97.618176487879893
 31
0.0
  0
LINE
  5
BE16
  8
0
 10
782.3934748991603101
 20
97.4213260941798751
 30
0.0
 11
779.6375693873603723
 21
97.4213260941798751
 31
0.0
  0
LINE
  5
BE17
  8
0
 10
779.6375693873603723
 20
97.4213260941798751
 30
0.0
 11
779.6375693873603723
 21
97.618176487879893
 31
0.0
  0
LINE
  5
BE18
  8
0
 10
782.3934748991603101
 20
97.4213260941798751
 30
0.0
 11
782.3934748991603101
 21
97.618176487879893
 31
0.0
  0
LINE
  5
BE19
  8
0
 10
774.913119756160313
 20
97.4213260941798751
 30
0.0
 11
772.1572142443602615
 21
97.4213260941798751
 31
0.0
  0
LINE
  5
BE1A
  8
0
 10
772.1572142443602615
 20
97.4213260941798751
 30
0.0
 11
772.1572142443602615
 21
97.618176487879893
 31
0.0
  0
LINE
  5
BE1B
  8
0
 10
774.913119756160313
 20
97.4213260941798751
 30
0.0
 11
774.913119756160313
 21
97.618176487879893
 31
0.0
  0
LINE
  5
BE1C
  8
0
 10
793.2202262882602781
 20
97.7362867240798892
 30
0.0
 11
795.1887302252603149
 21
97.7362867240798892
 31
0.0
  0
LINE
  5
BE1D
  8
0
 10
795.1887302252603149
 20
97.7362867240798892
 30
0.0
 11
795.1887302252603149
 21
97.618176487879893
 31
0.0
  0
LINE
  5
BE1E
  8
0
 10
793.2202262882602781
 20
97.618176487879893
 30
0.0
 11
793.2202262882602781
 21
97.7362867240798892
 31
0.0
  0
ENDSEC
  0
EOF
