  0
SECTION
  2
HEADER
  9
$ACADVER
  1
AC1009
  9
$INSBASE
 10
872.693285714708054
 20
98.5075049159545699
 30
0.0
  9
$EXTMIN
 10
841.1894316915660283
 20
98.5059274758473435
 30
-0.000000000000013
  9
$EXTMAX
 10
904.2382942040552507
 20
120.3650924792521977
 30
0.0000000000000023
  9
$LIMMIN
 10
0.0
 20
0.0
  9
$LIMMAX
 10
11.6929133858000007
 20
8.2677165353999982
  9
$ORTHOMODE
 70
     0
  9
$REGENMODE
 70
     1
  9
$FILLMODE
 70
     1
  9
$QTEXTMODE
 70
     0
  9
$MIRRTEXT
 70
     0
  9
$DRAGMODE
 70
     2
  9
$LTSCALE
 40
0.6431102362
  9
$OSMODE
 70
  4095
  9
$ATTMODE
 70
     1
  9
$TEXTSIZE
 40
0.2
  9
$TRACEWID
 40
0.05
  9
$TEXTSTYLE
  7
STANDARD
  9
$CLAYER
  8
0
  9
$CELTYPE
  6
BYLAYER
  9
$CECOLOR
 62
   256
  9
$DIMSCALE
 40
1.0
  9
$DIMASZ
 40
0.1875
  9
$DIMEXO
 40
0.0625
  9
$DIMDLI
 40
0.4443307087
  9
$DIMRND
 40
0.0
  9
$DIMDLE
 40
0.0
  9
$DIMEXE
 40
0.125
  9
$DIMTP
 40
0.01
  9
$DIMTM
 40
0.01
  9
$DIMTXT
 40
1.0
  9
$DIMCEN
 40
0.1052362205
  9
$DIMTSZ
 40
0.0
  9
$DIMTOL
 70
     1
  9
$DIMLIM
 70
     0
  9
$DIMTIH
 70
     0
  9
$DIMTOH
 70
     1
  9
$DIMSE1
 70
     0
  9
$DIMSE2
 70
     0
  9
$DIMTAD
 70
     0
  9
$DIMZIN
 70
     0
  9
$DIMBLK
  1

  9
$DIMASO
 70
     1
  9
$DIMSHO
 70
     1
  9
$DIMPOST
  1
\X
  9
$DIMAPOST
  1

  9
$DIMALT
 70
     1
  9
$DIMALTD
 70
     2
  9
$DIMALTF
 40
25.3999999999999986
  9
$DIMLFAC
 40
1.0
  9
$DIMTOFL
 70
     0
  9
$DIMTVP
 40
0.0
  9
$DIMTIX
 70
     0
  9
$DIMSOXD
 70
     0
  9
$DIMSAH
 70
     0
  9
$DIMBLK1
  1

  9
$DIMBLK2
  1

  9
$DIMSTYLE
  2
STANDARD
  9
$DIMCLRD
 70
     0
  9
$DIMCLRE
 70
     0
  9
$DIMCLRT
 70
     0
  9
$DIMTFAC
 40
1.0
  9
$DIMGAP
 40
0.09
  9
$LUNITS
 70
     2
  9
$LUPREC
 70
     4
  9
$SKETCHINC
 40
0.1
  9
$FILLETRAD
 40
0.0
  9
$AUNITS
 70
     0
  9
$AUPREC
 70
     0
  9
$MENU
  1
.
  9
$ELEVATION
 40
0.0
  9
$PELEVATION
 40
0.0
  9
$THICKNESS
 40
0.0
  9
$LIMCHECK
 70
     0
  9
$BLIPMODE
 70
     0
  9
$CHAMFERA
 40
0.0
  9
$CHAMFERB
 40
0.0
  9
$SKPOLY
 70
     0
  9
$TDCREATE
 40
2458172.5207638889551163
  9
$TDUPDATE
 40
2459111.6012499998323619
  9
$TDINDWG
 40
0.3951396065
  9
$TDUSRTIMER
 40
0.3951396065
  9
$USRTIMER
 70
     1
  9
$ANGBASE
 50
0.0
  9
$ANGDIR
 70
     0
  9
$PDMODE
 70
     0
  9
$PDSIZE
 40
0.3125
  9
$PLINEWID
 40
0.0
  9
$COORDS
 70
     1
  9
$SPLFRAME
 70
     0
  9
$SPLINETYPE
 70
     6
  9
$SPLINESEGS
 70
     8
  9
$ATTDIA
 70
     1
  9
$ATTREQ
 70
     1
  9
$HANDLING
 70
     1
  9
$HANDSEED
  5
BFEB
  9
$SURFTAB1
 70
     6
  9
$SURFTAB2
 70
     6
  9
$SURFTYPE
 70
     6
  9
$SURFU
 70
     6
  9
$SURFV
 70
     6
  9
$UCSNAME
  2

  9
$UCSORG
 10
0.0
 20
0.0
 30
0.0
  9
$UCSXDIR
 10
1.0
 20
0.0
 30
0.0
  9
$UCSYDIR
 10
0.0
 20
1.0
 30
0.0
  9
$PUCSNAME
  2

  9
$PUCSORG
 10
0.0
 20
0.0
 30
0.0
  9
$PUCSXDIR
 10
1.0
 20
0.0
 30
0.0
  9
$PUCSYDIR
 10
0.0
 20
1.0
 30
0.0
  9
$USERI1
 70
     0
  9
$USERI2
 70
     0
  9
$USERI3
 70
     0
  9
$USERI4
 70
     0
  9
$USERI5
 70
     0
  9
$USERR1
 40
0.0
  9
$USERR2
 40
0.0
  9
$USERR3
 40
0.0
  9
$USERR4
 40
0.0
  9
$USERR5
 40
0.0
  9
$WORLDVIEW
 70
     1
  9
$SHADEDGE
 70
     3
  9
$SHADEDIF
 70
    70
  9
$TILEMODE
 70
     1
  9
$MAXACTVP
 70
    64
  9
$PLIMCHECK
 70
     0
  9
$PEXTMIN
 10
1.0000000000000000E+20
 20
1.0000000000000000E+20
 30
1.0000000000000000E+20
  9
$PEXTMAX
 10
-1.0000000000000000E+20
 20
-1.0000000000000000E+20
 30
-1.0000000000000000E+20
  9
$PLIMMIN
 10
0.0
 20
0.0
  9
$PLIMMAX
 10
12.0
 20
9.0
  9
$UNITMODE
 70
     0
  9
$VISRETAIN
 70
     1
  9
$PLINEGEN
 70
     0
  9
$PSLTSCALE
 70
     1
  0
ENDSEC
  0
SECTION
  2
TABLES
  0
TABLE
  2
VPORT
 70
     1
  0
VPORT
  2
*ACTIVE
 70
     0
 10
0.0
 20
0.0
 11
1.0
 21
1.0
 12
405.9716612399805058
 22
20.3023628576199791
 13
0.0
 23
0.0
 14
1.0
 24
1.0
 15
0.0
 25
0.0
 16
0.0
 26
0.0
 36
24.1179433675886514
 17
466.74220170783002
 27
89.133147119929788
 37
0.0
 40
31.5498847512285394
 41
2.005224660397074
 42
50.0
 43
0.0
 44
0.0
 50
0.0
 51
0.0
 71
     0
 72
   100
 73
     1
 74
     1
 75
     0
 76
     0
 77
     0
 78
     0
  0
ENDTAB
  0
TABLE
  2
LTYPE
 70
     2
  0
LTYPE
  2
CONTINUOUS
 70
     0
  3
Solid line
 72
    65
 73
     0
 40
0.0
  0
LTYPE
  2
PHANTOM2
 70
     0
  3
___ _ _ ___ _ _ ___ _ _ ___ _ _
 72
    65
 73
     6
 40
1.25
 49
0.625
 49
-0.125
 49
0.125
 49
-0.125
 49
0.125
 49
-0.125
  0
ENDTAB
  0
TABLE
  2
LAYER
 70
     2
  0
LAYER
  2
0
 70
     0
 62
   255
  6
CONTINUOUS
  0
LAYER
  2
DEFPOINTS
 70
     0
 62
     7
  6
CONTINUOUS
  0
ENDTAB
  0
TABLE
  2
STYLE
 70
     1
  0
STYLE
  2
STANDARD
 70
     0
 40
0.0
 41
0.8
 50
0.0
 71
     0
 42
0.2
  3
txt
  4

  0
ENDTAB
  0
TABLE
  2
VIEW
 70
     0
  0
ENDTAB
  0
TABLE
  2
UCS
 70
     0
  0
ENDTAB
  0
TABLE
  2
APPID
 70
    11
  0
APPID
  2
ACAD
 70
     0
  0
APPID
  2
ACAD_MLEADERVER
 70
     0
  0
APPID
  2
ACAD_EXEMPT_FROM_CAD_STANDARDS
 70
     0
  0
APPID
  2
ACAD_DSTYLE_DIMJAG
 70
     0
  0
APPID
  2
ACAD_DSTYLE_DIMTALN
 70
     0
  0
APPID
  2
ACAD_NAV_VCDISPLAY
 70
     0
  0
APPID
  2
ACAECLAYERSTANDARD
 70
     0
  0
APPID
  2
ACCMTRANSPARENCY
 70
     0
  0
APPID
  2
DCO15
 70
     0
  0
APPID
  2
ACDBATTR
 70
     0
  0
APPID
  2
ACADANNOTATIVE
 70
     0
  0
ENDTAB
  0
TABLE
  2
DIMSTYLE
 70
     1
  0
DIMSTYLE
  2
STANDARD
 70
     0
  3

  4

  5

  6

  7

 40
1.0
 41
0.1875
 42
0.0625
 43
0.38
 44
0.125
 45
0.0
 46
0.0
 47
0.01
 48
0.01
140
0.15625
141
0.09
142
0.0
143
25.3999999999999986
144
1.0
145
0.0
146
1.0
147
0.09
 71
     1
 72
     0
 73
     1
 74
     1
 75
     0
 76
     0
 77
     0
 78
     4
170
     0
171
     2
172
     0
173
     0
174
     0
175
     0
176
     0
177
     0
178
     0
  0
ENDTAB
  0
ENDSEC
  0
SECTION
  2
BLOCKS
  0
BLOCK
  8
0
  2
$MODEL_SPACE
 70
     0
 10
0.0
 20
0.0
 30
0.0
  3
$MODEL_SPACE
  1

  0
ENDBLK
  5
21
  8
0
  0
BLOCK
 67
     1
  8
0
  2
$PAPER_SPACE
 70
     0
 10
0.0
 20
0.0
 30
0.0
  3
$PAPER_SPACE
  1

  0
ENDBLK
  5
1D
 67
     1
  8
0
  0
ENDSEC
  0
SECTION
  2
ENTITIES
  0
ATTDEF
  5
829
  8
DEFPOINTS
 10
872.6904714604014544
 20
98.5120085366652347
 30
0.0
 40
0.001
  1
K-20248T
  3

  2
MODELNUMBER
 70
     0
1001
ACDBATTR
1070
     0
1070
     1
  0
ATTDEF
  5
82A
  8
DEFPOINTS
 10
872.6904714604014544
 20
98.5103418699985696
 30
0.0
 40
0.001
  1
KARING
  3

  2
TRADENAME
 70
     0
1001
ACDBATTR
1070
     0
1070
     1
  0
ATTDEF
  5
82B
  8
DEFPOINTS
 10
872.6904714604014544
 20
98.5086752033319044
 30
0.0
 40
0.001
  1
BATH
  3

  2
PRODUCT
 70
     0
1001
ACDBATTR
1070
     0
1070
     1
  0
LINE
  5
BECA
  8
0
 10
844.9980213722692497
 20
98.7043553096545736
 30
0.0
 11
900.3885500571467446
 21
98.7043553096545736
 31
0.0
  0
LINE
  5
BECB
  8
0
 10
903.9111911350246373
 20
120.3567574294545039
 30
0.0
 11
841.4688154354705603
 21
120.3567574294545039
 31
0.0
  0
ARC
  5
BECC
  8
0
 10
578.3880120765616084
 20
60.5590498809605506
 30
0.0
 40
269.3250106895118279
 50
8.1423511295697857
 51
9.2870172150548278
  0
ARC
  5
BECD
  8
0
 10
751.3076359638738495
 20
88.8354927562513552
 30
0.0
 40
94.1087056633838301
 50
9.2870172150548278
 51
12.5567543839370401
  0
ARC
  5
BECE
  8
0
 10
983.1047364374219342
 20
149.2911497666275125
 30
0.0
 40
145.5427471840366991
 50
193.9938025563627946
 51
195.9503653908080878
  0
ARC
  5
BECF
  8
0
 10
871.9114634445978709
 20
121.2604868009732968
 30
0.0
 40
30.8727513180072215
 50
187.6496191563682032
 51
193.4178264579088022
  0
ARC
  5
BED0
  8
0
 10
851.9444478277652024
 20
118.7306169895838934
 30
0.0
 40
10.7477209854704299
 50
173.3754008886313045
 51
188.4522162225815123
  0
ARC
  5
BED1
  8
0
 10
843.0607342618618532
 20
119.7003216354599004
 30
0.0
 40
1.812500420565387
 50
165.4779959664662101
 51
171.4268997328424859
  0
ARC
  5
BED2
  8
0
 10
841.8580035841603149
 20
120.0149577735338937
 30
0.0
 40
0.5693076017419735
 50
153.2063439020180056
 51
165.779627039307087
  0
ARC
  5
BED3
  8
0
 10
841.5174249867187655
 20
120.1866765598300049
 30
0.0
 40
0.1878879597397438
 50
130.0574248865403035
 51
153.1321639742454011
  0
ARC
  5
BED4
  8
0
 10
841.4720978649310155
 20
120.2350829709460953
 30
0.0
 40
0.1217187257428084
 50
91.5453017258704165
 51
128.3902753438599973
  0
ARC
  5
BED5
  8
0
 10
1166.9985593528540448
 20
60.5590498809605506
 30
0.0
 40
269.3250106895118279
 50
170.7129827849452113
 51
171.8576488704302108
  0
ARC
  5
BED6
  8
0
 10
994.0789354655420311
 20
88.8354927562513552
 30
0.0
 40
94.1087056633838301
 50
167.4432456160629101
 51
170.7129827849452113
  0
ARC
  5
BED7
  8
0
 10
762.2818349919939465
 20
149.2911497666275125
 30
0.0
 40
145.5427471840366991
 50
344.0496346091919122
 51
346.006197443637177
  0
ARC
  5
BED8
  8
0
 10
873.4751079848177824
 20
121.2604868009732968
 30
0.0
 40
30.8727513180072215
 50
346.5821735420910841
 51
352.3503808436316831
  0
ARC
  5
BED9
  8
0
 10
893.4421236016505645
 20
118.7306169895838934
 30
0.0
 40
10.7477209854704299
 50
351.5477837774184877
 51
6.6245991113686813
  0
ARC
  5
BEDA
  8
0
 10
902.3258371675538001
 20
119.7003216354599004
 30
0.0
 40
1.812500420565387
 50
8.5731002671574998
 51
14.5220040335337401
  0
ARC
  5
BEDB
  8
0
 10
903.5285678452552247
 20
120.0149577735338937
 30
0.0
 40
0.5693076017419735
 50
14.2203729606929201
 51
26.7936560979819696
  0
ARC
  5
BEDC
  8
0
 10
903.8691464426968878
 20
120.1866765598300049
 30
0.0
 40
0.1878879597397438
 50
26.8678360257545492
 51
49.9425751134597107
  0
ARC
  5
BEDD
  8
0
 10
903.9144735644849789
 20
120.2350829709460953
 30
0.0
 40
0.1217187257428084
 50
51.6097246561400098
 51
91.5453017282814159
  0
LINE
  5
BEDE
  8
0
 10
858.943719756469136
 20
98.7043553096545736
 30
0.0
 11
858.943719756469136
 21
98.5075049159545699
 31
0.0
  0
LINE
  5
BEDF
  8
0
 10
858.943719756469136
 20
98.5075049159545699
 30
0.0
 11
856.187814244469223
 21
98.5075049159545699
 31
0.0
  0
LINE
  5
BEE0
  8
0
 10
856.187814244469223
 20
98.5075049159545699
 30
0.0
 11
856.187814244469223
 21
98.7043553096545736
 31
0.0
  0
LINE
  5
BEE1
  8
0
 10
881.3846646381690562
 20
98.7043553096545736
 30
0.0
 11
881.3846646381690562
 21
98.5075049159545699
 31
0.0
  0
LINE
  5
BEE2
  8
0
 10
881.3846646381690562
 20
98.5075049159545699
 30
0.0
 11
878.6287591263691183
 21
98.5075049159545699
 31
0.0
  0
LINE
  5
BEE3
  8
0
 10
878.6287591263691183
 20
98.5075049159545699
 30
0.0
 11
878.6287591263691183
 21
98.7043553096545736
 31
0.0
  0
ENDSEC
  0
EOF
