  0
SECTION
  2
HEADER
  9
$ACADVER
  1
AC1009
  9
$INSBASE
 10
3265.9817651167109034
 20
152.9809326611413951
 30
0.0
  9
$EXTMIN
 10
3247.5445092848372042
 20
152.9744950759026949
 30
-0.0000000349181948
  9
$EXTMAX
 10
3265.9842867329871297
 20
188.8672916213604935
 30
0.0000000814935746
  9
$LIMMIN
 10
0.0
 20
0.0
  9
$LIMMAX
 10
11.6929133858000007
 20
8.2677165353999982
  9
$ORTHOMODE
 70
     0
  9
$REGENMODE
 70
     1
  9
$FILLMODE
 70
     1
  9
$QTEXTMODE
 70
     0
  9
$MIRRTEXT
 70
     0
  9
$DRAGMODE
 70
     2
  9
$LTSCALE
 40
0.6431102362
  9
$OSMODE
 70
  4095
  9
$ATTMODE
 70
     1
  9
$TEXTSIZE
 40
0.2
  9
$TRACEWID
 40
0.05
  9
$TEXTSTYLE
  7
STANDARD
  9
$CLAYER
  8
0
  9
$CELTYPE
  6
BYLAYER
  9
$CECOLOR
 62
   256
  9
$DIMSCALE
 40
1.0
  9
$DIMASZ
 40
0.1875
  9
$DIMEXO
 40
0.0625
  9
$DIMDLI
 40
0.4443307087
  9
$DIMRND
 40
0.0
  9
$DIMDLE
 40
0.0
  9
$DIMEXE
 40
0.125
  9
$DIMTP
 40
0.01
  9
$DIMTM
 40
0.01
  9
$DIMTXT
 40
2.0
  9
$DIMCEN
 40
0.1052362205
  9
$DIMTSZ
 40
0.0
  9
$DIMTOL
 70
     1
  9
$DIMLIM
 70
     0
  9
$DIMTIH
 70
     1
  9
$DIMTOH
 70
     1
  9
$DIMSE1
 70
     0
  9
$DIMSE2
 70
     0
  9
$DIMTAD
 70
     0
  9
$DIMZIN
 70
     0
  9
$DIMBLK
  1

  9
$DIMASO
 70
     1
  9
$DIMSHO
 70
     1
  9
$DIMPOST
  1
\X
  9
$DIMAPOST
  1

  9
$DIMALT
 70
     1
  9
$DIMALTD
 70
     2
  9
$DIMALTF
 40
25.3999999999999986
  9
$DIMLFAC
 40
1.0
  9
$DIMTOFL
 70
     0
  9
$DIMTVP
 40
0.0
  9
$DIMTIX
 70
     0
  9
$DIMSOXD
 70
     0
  9
$DIMSAH
 70
     0
  9
$DIMBLK1
  1

  9
$DIMBLK2
  1

  9
$DIMSTYLE
  2
STANDARD
  9
$DIMCLRD
 70
     0
  9
$DIMCLRE
 70
     0
  9
$DIMCLRT
 70
     0
  9
$DIMTFAC
 40
1.0
  9
$DIMGAP
 40
0.09
  9
$LUNITS
 70
     2
  9
$LUPREC
 70
     4
  9
$SKETCHINC
 40
0.1
  9
$FILLETRAD
 40
0.0
  9
$AUNITS
 70
     0
  9
$AUPREC
 70
     0
  9
$MENU
  1
.
  9
$ELEVATION
 40
0.0
  9
$PELEVATION
 40
0.0
  9
$THICKNESS
 40
0.0
  9
$LIMCHECK
 70
     0
  9
$BLIPMODE
 70
     0
  9
$CHAMFERA
 40
0.0
  9
$CHAMFERB
 40
0.0
  9
$SKPOLY
 70
     0
  9
$TDCREATE
 40
2458060.468368056230247
  9
$TDUPDATE
 40
2460826.7207754631526768
  9
$TDINDWG
 40
0.4551228009
  9
$TDUSRTIMER
 40
0.4551228009
  9
$USRTIMER
 70
     1
  9
$ANGBASE
 50
0.0
  9
$ANGDIR
 70
     0
  9
$PDMODE
 70
     0
  9
$PDSIZE
 40
0.3125
  9
$PLINEWID
 40
0.0
  9
$COORDS
 70
     1
  9
$SPLFRAME
 70
     0
  9
$SPLINETYPE
 70
     6
  9
$SPLINESEGS
 70
     8
  9
$ATTDIA
 70
     1
  9
$ATTREQ
 70
     1
  9
$HANDLING
 70
     1
  9
$HANDSEED
  5
9AEC
  9
$SURFTAB1
 70
     6
  9
$SURFTAB2
 70
     6
  9
$SURFTYPE
 70
     6
  9
$SURFU
 70
     6
  9
$SURFV
 70
     6
  9
$UCSNAME
  2

  9
$UCSORG
 10
0.0
 20
0.0
 30
0.0
  9
$UCSXDIR
 10
1.0
 20
0.0
 30
0.0
  9
$UCSYDIR
 10
0.0
 20
1.0
 30
0.0
  9
$PUCSNAME
  2

  9
$PUCSORG
 10
0.0
 20
0.0
 30
0.0
  9
$PUCSXDIR
 10
1.0
 20
0.0
 30
0.0
  9
$PUCSYDIR
 10
0.0
 20
1.0
 30
0.0
  9
$USERI1
 70
     0
  9
$USERI2
 70
     0
  9
$USERI3
 70
     0
  9
$USERI4
 70
     0
  9
$USERI5
 70
     0
  9
$USERR1
 40
0.0
  9
$USERR2
 40
0.0
  9
$USERR3
 40
0.0
  9
$USERR4
 40
0.0
  9
$USERR5
 40
0.0
  9
$WORLDVIEW
 70
     1
  9
$SHADEDGE
 70
     3
  9
$SHADEDIF
 70
    70
  9
$TILEMODE
 70
     1
  9
$MAXACTVP
 70
    64
  9
$PLIMCHECK
 70
     0
  9
$PEXTMIN
 10
1.0000000000000000E+20
 20
1.0000000000000000E+20
 30
1.0000000000000000E+20
  9
$PEXTMAX
 10
-1.0000000000000000E+20
 20
-1.0000000000000000E+20
 30
-1.0000000000000000E+20
  9
$PLIMMIN
 10
0.0
 20
0.0
  9
$PLIMMAX
 10
12.0
 20
9.0
  9
$UNITMODE
 70
     0
  9
$VISRETAIN
 70
     1
  9
$PLINEGEN
 70
     0
  9
$PSLTSCALE
 70
     1
  0
ENDSEC
  0
SECTION
  2
TABLES
  0
TABLE
  2
VPORT
 70
     1
  0
VPORT
  2
*ACTIVE
 70
     0
 10
0.0
 20
0.0
 11
1.0
 21
1.0
 12
123.847039610473999
 22
-18.7273461825117806
 13
0.0
 23
0.0
 14
1.0
 24
1.0
 15
0.0
 25
0.0
 16
0.0
 26
0.0
 36
71.4061910302851857
 17
3132.9173583984370453
 27
189.6482395311433891
 37
0.0
 40
36.147054844481147
 41
2.244680851063829
 42
50.0
 43
0.0
 44
0.0
 50
0.0
 51
0.0
 71
     0
 72
   100
 73
     1
 74
     1
 75
     0
 76
     0
 77
     0
 78
     0
  0
ENDTAB
  0
TABLE
  2
LTYPE
 70
     2
  0
LTYPE
  2
CONTINUOUS
 70
     0
  3
Solid line
 72
    65
 73
     0
 40
0.0
  0
LTYPE
  2
PHANTOM2
 70
     0
  3
___ _ _ ___ _ _ ___ _ _ ___ _ _
 72
    65
 73
     6
 40
1.25
 49
0.625
 49
-0.125
 49
0.125
 49
-0.125
 49
0.125
 49
-0.125
  0
ENDTAB
  0
TABLE
  2
LAYER
 70
     2
  0
LAYER
  2
0
 70
     0
 62
   255
  6
CONTINUOUS
  0
LAYER
  2
DEFPOINTS
 70
     0
 62
     7
  6
CONTINUOUS
  0
ENDTAB
  0
TABLE
  2
STYLE
 70
     1
  0
STYLE
  2
STANDARD
 70
     0
 40
0.0
 41
0.8
 50
0.0
 71
     0
 42
0.2
  3
txt
  4

  0
ENDTAB
  0
TABLE
  2
VIEW
 70
     0
  0
ENDTAB
  0
TABLE
  2
UCS
 70
     0
  0
ENDTAB
  0
TABLE
  2
APPID
 70
     9
  0
APPID
  2
ACAD
 70
     0
  0
APPID
  2
ACAD_MLEADERVER
 70
     0
  0
APPID
  2
ACAD_EXEMPT_FROM_CAD_STANDARDS
 70
     0
  0
APPID
  2
ACAD_NAV_VCDISPLAY
 70
     0
  0
APPID
  2
ACAECLAYERSTANDARD
 70
     0
  0
APPID
  2
ACCMTRANSPARENCY
 70
     0
  0
APPID
  2
ACAD_DSTYLE_DIMJAG
 70
     0
  0
APPID
  2
ACAD_DSTYLE_DIMTALN
 70
     0
  0
APPID
  2
ACDBATTR
 70
     0
  0
ENDTAB
  0
TABLE
  2
DIMSTYLE
 70
     1
  0
DIMSTYLE
  2
STANDARD
 70
     0
  3

  4

  5

  6

  7

 40
1.0
 41
0.1875
 42
0.0625
 43
0.38
 44
0.125
 45
0.0
 46
0.0
 47
0.01
 48
0.01
140
0.15625
141
0.09
142
0.0
143
25.3999999999999986
144
1.0
145
0.0
146
1.0
147
0.09
 71
     1
 72
     0
 73
     1
 74
     1
 75
     0
 76
     0
 77
     0
 78
     4
170
     0
171
     2
172
     0
173
     0
174
     0
175
     0
176
     0
177
     0
178
     0
  0
ENDTAB
  0
ENDSEC
  0
SECTION
  2
BLOCKS
  0
BLOCK
  8
0
  2
$MODEL_SPACE
 70
     0
 10
0.0
 20
0.0
 30
0.0
  3
$MODEL_SPACE
  1

  0
ENDBLK
  5
21
  8
0
  0
BLOCK
 67
     1
  8
0
  2
$PAPER_SPACE
 70
     0
 10
0.0
 20
0.0
 30
0.0
  3
$PAPER_SPACE
  1

  0
ENDBLK
  5
1D
 67
     1
  8
0
  0
BLOCK
  8
0
  2
_FILLED
 70
     0
 10
0.0
 20
0.0
 30
0.0
  3
_FILLED
  1

  0
SOLID
  5
9090
  8
0
  6
BYBLOCK
 62
     0
 10
0.0
 20
0.0
 30
0.0
 11
-1.0
 21
0.1666666667
 31
0.0
 12
-1.0
 22
-0.1666666667
 32
0.0
 13
-1.0
 23
-0.1666666667
 33
0.0
  0
ENDBLK
  5
9091
  8
0
  6
BYBLOCK
 62
     0
  0
ENDSEC
  0
SECTION
  2
ENTITIES
  0
ATTDEF
  5
3930
  8
DEFPOINTS
 10
3265.9709952718158092
 20
152.9786849185846904
 30
0.0
 40
0.001
  1
K-2031-R
  3

  2
MODELNUMBER
 70
     0
1001
ACDBATTR
1070
     0
1070
     1
  0
ATTDEF
  5
3931
  8
DEFPOINTS
 10
3265.9709952718158092
 20
152.9770182519181105
 30
0.0
 40
0.001
  1
GREENWICH
  3

  2
TRADENAME
 70
     0
1001
ACDBATTR
1070
     0
1070
     1
  0
ATTDEF
  5
3932
  8
DEFPOINTS
 10
3265.9709952718158092
 20
152.9753515852513885
 30
0.0
 40
0.001
  1
BATHROOM SINK
  3

  2
PRODUCT
 70
     0
1001
ACDBATTR
1070
     0
1070
     1
  0
LINE
  5
9893
  8
0
 10
3264.8231636245582195
 20
188.8609324429415892
 30
0.0
 11
3265.8567651167109034
 21
188.8609324429415892
 31
0.0
  0
LINE
  5
9894
  8
0
 10
3264.3612181828038956
 20
188.5522604566849054
 30
0.0
 11
3262.5600805549338475
 21
184.2864452098075105
 31
0.0
  0
LINE
  5
9895
  8
0
 10
3248.255434412500108
 20
183.9809326611417077
 30
0.0
 11
3262.0994563791969085
 21
183.9809326611415088
 31
0.0
  0
ARC
  5
9896
  8
0
 10
3267.7317662025370737
 20
181.2309326610414928
 30
0.0
 40
19.9999999999002789
 50
173.0620073260776905
 51
179.6704654175630935
  0
ARC
  5
9897
  8
0
 10
3247.9820928601388914
 20
181.3445234381759974
 30
0.0
 40
0.25
 50
179.6704654175622977
 51
226.211602964539793
  0
ARC
  5
9898
  8
0
 10
3248.255434412500108
 20
183.6009326611415986
 30
0.0
 40
0.38
 50
90.0
 51
173.0620073260776905
  0
LINE
  5
9899
  8
0
 10
3265.9817651167109034
 20
188.7359324429415892
 30
0.0
 11
3265.9817651167109034
 21
178.7359326611415895
 31
0.0
  0
ARC
  5
989A
  8
0
 10
3265.8567651167109034
 20
188.7359324429415892
 30
0.0
 40
0.125
 50
0.0
 51
90.0
  0
ARC
  5
989B
  8
0
 10
3264.8231636245582195
 20
188.3609324429415892
 30
0.0
 40
0.5
 50
90.0
 51
157.5016995443293979
  0
ARC
  5
989C
  8
0
 10
3262.0994563791969085
 20
184.4809326611415088
 30
0.0
 40
0.5
 50
270.0
 51
337.1092701200781789
  0
LINE
  5
989D
  8
0
 10
3248.1518003216338002
 20
180.0891437254703078
 30
0.0
 11
3248.113291313146874
 21
180.5293037069280047
 31
0.0
  0
ARC
  5
989E
  8
0
 10
3247.1170966150880304
 20
180.4421479642460895
 30
0.0
 40
0.9999999999611723
 50
4.9999999964125106
 51
46.2116029645403827
  0
LINE
  5
989F
  8
0
 10
3248.4008489961579471
 20
179.8609326611415895
 30
0.0
 11
3262.4297217510738847
 21
179.8609326611415895
 31
0.0
  0
ARC
  5
98A0
  8
0
 10
3248.4008489961579471
 20
180.1109326611415895
 30
0.0
 40
0.25
 50
184.9999999964117023
 51
270.0
  0
LINE
  5
98A1
  8
0
 10
3247.8090936111238989
 20
181.164048343384394
 30
0.0
 11
3265.7317651167109034
 21
181.164048343384394
 31
0.0
  0
ARC
  5
98A2
  8
0
 10
3265.7317651167109034
 20
181.414048343384394
 30
0.0
 40
0.25
 50
270.0
 51
0.0000000000016284
  0
LINE
  5
98A3
  8
0
 10
3265.8567651167109034
 20
178.6109326611415895
 30
0.0
 11
3265.5893799100540491
 21
178.6109326611415895
 31
0.0
  0
ARC
  5
98A4
  8
0
 10
3265.8567651167109034
 20
178.7359326611415895
 30
0.0
 40
0.125
 50
270.0
 51
359.9999999999984084
  0
ARC
  5
98A5
  8
0
 10
3262.1951276917948235
 20
174.7269622444013919
 30
0.0
 40
5.1393274474985366
 50
69.710582448906905
 51
87.3837196035484283
  0
ARC
  5
98A6
  8
0
 10
3262.234515060682952
 20
174.8607985846419979
 30
0.0
 40
5.0001461518301129
 50
56.8287837950977632
 51
69.6021141889586232
  0
ARC
  5
98A7
  8
0
 10
3262.2067555587500465
 20
174.8183310710892897
 30
0.0
 40
5.050881540415693
 50
49.1912735744280099
 51
56.8287837950977632
  0
ARC
  5
98A8
  8
0
 10
3265.5893799100540491
 20
178.7359326611415895
 30
0.0
 40
0.125
 50
229.1912735744529925
 51
270.0
  0
LINE
  5
98A9
  8
0
 10
3257.2098146879798151
 20
176.2309326611415941
 30
0.0
 11
3259.6837177172928932
 21
176.2309326611415941
 31
0.0
  0
ARC
  5
98AA
  8
0
 10
3257.2098146879798151
 20
176.3509326611415986
 30
0.0
 40
0.12
 50
185.9999999967120914
 51
270.0
  0
ARC
  5
98AB
  8
0
 10
3255.7320969950369545
 20
183.4109326611416009
 30
0.0
 40
6.2500000000000737
 50
214.6108770984475029
 51
244.5191108898245886
  0
ARC
  5
98AC
  8
0
 10
3255.7320969948268612
 20
183.4109326607012918
 30
0.0
 40
6.2499999995122577
 50
244.5191108898245886
 51
265.216454625037386
  0
ARC
  5
98AD
  8
0
 10
3256.9621767896069287
 20
198.1101873088173875
 30
0.0
 40
21.0006333252948991
 50
265.216454625037386
 51
268.9250541228639122
  0
ARC
  5
98AE
  8
0
 10
3256.5588196573721689
 20
176.613337855638008
 30
0.0
 40
0.5
 50
5.9999999967129281
 51
88.9250541228638411
  0
LINE
  5
98AF
  8
0
 10
3257.0560806050589235
 20
176.6656020872432862
 30
0.0
 11
3257.0904720605349212
 21
176.3383892455563
 31
0.0
  0
LINE
  5
98B0
  8
0
 10
3259.9520140069830632
 20
177.7555886747443026
 30
0.0
 11
3259.8030603447377871
 21
176.3383892455476882
 31
0.0
  0
ARC
  5
98B1
  8
0
 10
3259.6837177172928932
 20
176.3509326611415986
 30
0.0
 40
0.12
 50
270.0
 51
353.9999999991538857
  0
ARC
  5
98B2
  8
0
 10
3255.8192529817260947
 20
183.5282368864606894
 30
0.0
 40
5.7552785277038776
 50
219.5838723530667096
 51
234.9026972526368127
  0
ARC
  5
98B3
  8
0
 10
3255.824999347497851
 20
183.536413956157304
 30
0.0
 40
5.7652727854757861
 50
234.9026972526368127
 51
247.6995212444826109
  0
ARC
  5
98B4
  8
0
 10
3255.9821392512581042
 20
183.9195515129104876
 30
0.0
 40
6.1793830808663586
 50
247.6995212444826109
 51
260.4878701806031245
  0
ARC
  5
98B5
  8
0
 10
3256.4083841279211811
 20
186.4633820167788087
 30
0.0
 40
8.7586772337872372
 50
260.4878701806031245
 51
268.3317318871932002
  0
ARC
  5
98B6
  8
0
 10
3257.4818251452720688
 20
202.3063018635212984
 30
0.0
 40
24.6337299529030709
 50
266.908696438586901
 51
269.7844831350059849
  0
ARC
  5
98B7
  8
0
 10
3258.9069353243471596
 20
83.8778801691991447
 30
0.0
 40
93.8071453198677858
 50
90.3775317069653852
 51
90.9270675986864347
  0
ARC
  5
98B8
  8
0
 10
3257.8793035825151492
 20
178.2935396002563948
 30
0.0
 40
0.7351751878200947
 50
303.8516101364280075
 51
348.1407933531368144
  0
ARC
  5
98B9
  8
0
 10
3249.7396122250302142
 20
180.5587192812299975
 30
0.0
 40
9.1827722017793736
 50
344.7441280807498174
 51
355.6419691210372207
  0
ARC
  5
98BA
  8
0
 10
3245.294293915856997
 20
180.995222702541497
 30
0.0
 40
14.3030572284838193
 50
349.6646105098096768
 51
355.4514376630526158
  0
ARC
  5
98BB
  8
0
 10
3256.1911184276427775
 20
179.0079804334880009
 30
0.0
 40
3.2265091977765552
 50
340.7231490382292804
 51
349.6646105098096768
  0
ARC
  5
98BC
  8
0
 10
3258.0670577750997836
 20
178.3518865766112071
 30
0.0
 40
1.2391472316584951
 50
326.7705706293335197
 51
340.7231490382292804
  0
ARC
  5
98BD
  8
0
 10
3258.4255653235168211
 20
178.117022725481803
 30
0.0
 40
0.8105580450953628
 50
306.7196460979325821
 51
326.7705706293335197
  0
ARC
  5
98BE
  8
0
 10
3258.5845092960389593
 20
177.9039355520374102
 30
0.0
 40
0.544721008760262
 50
284.4001479063268221
 51
306.7196460979325821
  0
ARC
  5
98BF
  8
0
 10
3258.6252796219691845
 20
177.7451473181461097
 30
0.0
 40
0.3807822314719856
 50
251.0028643155588099
 51
284.4001479063268221
  0
ARC
  5
98C0
  8
0
 10
3258.6214111131398568
 20
177.7339105279019122
 30
0.0
 40
0.3688981742713114
 50
215.4228148909542142
 51
251.0028643155588099
  0
ARC
  5
98C1
  8
0
 10
3258.6254864855618507
 20
177.7368091873944138
 30
0.0
 40
0.3738992628760757
 50
188.3109750144228087
 51
215.4228148909542142
  0
ARC
  5
98C2
  8
0
 10
3259.064314922657104
 20
180.8667901369774995
 30
0.0
 40
3.1584495681416902
 50
271.1255759675099171
 51
284.3002454986395264
  0
ARC
  5
98C3
  8
0
 10
3259.5635417419130135
 20
178.9082803600032889
 30
0.0
 40
1.137314252640012
 50
284.3002454986395264
 51
305.0487057807670794
  0
ARC
  5
98C4
  8
0
 10
3259.2092997121972076
 20
178.9470794443967065
 30
0.0
 40
1.398376744695931
 50
316.0863218671843242
 51
342.6017492880048962
  0
ARC
  5
98C5
  8
0
 10
3257.8620494392612272
 20
179.1937529565250031
 30
0.0
 40
2.7628272662901239
 50
346.076586854642585
 51
0.0358713560499679
  0
ARC
  5
98C6
  8
0
 10
9977.817920114233857
 20
-172.3087033376278896
 30
0.0
 40
6726.3836927792290226
 50
176.9988236319358066
 51
177.0044997489594039
  0
ARC
  5
98C7
  8
0
 10
3260.3170508188700296
 20
177.8264989879349116
 30
0.0
 40
0.371860385829458
 50
178.387118636033108
 51
190.9930947553239946
  0
ARC
  5
98C8
  8
0
 10
3272.5418636103790959
 20
181.2371759656261929
 30
0.0
 40
23.7262417287175182
 50
174.1889684598183123
 51
179.7904865374536882
  0
ARC
  5
98C9
  8
0
 10
3249.3155927702268855
 20
183.6009326611415986
 30
0.0
 40
0.38
 50
90.0
 51
174.1889684598183123
  0
ARC
  5
98CA
  8
0
 10
3249.0657788372191135
 20
181.3230213415423009
 30
0.0
 40
0.2500000000000047
 50
179.7904865374545977
 51
219.4861733318452934
  0
ARC
  5
98CB
  8
0
 10
3248.1414895842890473
 20
180.5157961606194021
 30
0.0
 40
0.9772901402360984
 50
0.7919879285339372
 51
41.5532625366642279
  0
ARC
  5
98CC
  8
0
 10
3530.1933091803521165
 20
199.7755951850051019
 30
0.0
 40
281.7327870411011759
 50
183.9171540643611991
 51
184.0060022411487921
  0
ARC
  5
98CD
  8
0
 10
3249.3982585682579156
 20
180.1109326611415895
 30
0.0
 40
0.25
 50
184.0060022411317107
 51
270.0
  0
ARC
  5
98CE
  8
0
 10
3257.0754761395128298
 20
177.456382478030207
 30
0.0
 40
0.7910182129443984
 50
268.5949834896471771
 51
283.4855176092087277
  0
ARC
  5
98CF
  8
0
 10
3256.8742053215100896
 20
177.2008791232260023
 30
0.0
 40
0.6424061516539684
 50
306.9024852434981199
 51
335.0886486413863281
  0
ARC
  5
98D0
  8
0
 10
3256.7121197640080936
 20
177.3113358417205916
 30
0.0
 40
0.8365461530384299
 50
332.9027841907648053
 51
356.3252606526330055
  0
LINE
  5
98D1
  8
0
 10
3257.5734396350808311
 20
177.6755469968420016
 30
0.0
 11
3257.5469459550590727
 21
177.2577196417553012
 31
0.0
  0
ENDSEC
  0
EOF
