  0
SECTION
  2
HEADER
  9
$ACADVER
  1
AC1009
  9
$INSBASE
 10
3594.8573753063328695
 20
128.1153690461563883
 30
0.0
  9
$EXTMIN
 10
3576.5657749337428868
 20
128.1073727650795036
 30
-0.0000000349181948
  9
$EXTMAX
 10
3594.94286102424212
 20
164.0048635756145927
 30
0.0000000814935746
  9
$LIMMIN
 10
0.0
 20
0.0
  9
$LIMMAX
 10
11.6929133858000007
 20
8.2677165353999982
  9
$ORTHOMODE
 70
     0
  9
$REGENMODE
 70
     1
  9
$FILLMODE
 70
     1
  9
$QTEXTMODE
 70
     0
  9
$MIRRTEXT
 70
     0
  9
$DRAGMODE
 70
     2
  9
$LTSCALE
 40
0.6431102362
  9
$OSMODE
 70
  4095
  9
$ATTMODE
 70
     1
  9
$TEXTSIZE
 40
0.2
  9
$TRACEWID
 40
0.05
  9
$TEXTSTYLE
  7
STANDARD
  9
$CLAYER
  8
0
  9
$CELTYPE
  6
BYLAYER
  9
$CECOLOR
 62
   256
  9
$DIMSCALE
 40
1.0
  9
$DIMASZ
 40
0.1875
  9
$DIMEXO
 40
0.0625
  9
$DIMDLI
 40
0.4443307087
  9
$DIMRND
 40
0.0
  9
$DIMDLE
 40
0.0
  9
$DIMEXE
 40
0.125
  9
$DIMTP
 40
0.01
  9
$DIMTM
 40
0.01
  9
$DIMTXT
 40
2.0
  9
$DIMCEN
 40
0.1052362205
  9
$DIMTSZ
 40
0.0
  9
$DIMTOL
 70
     1
  9
$DIMLIM
 70
     0
  9
$DIMTIH
 70
     1
  9
$DIMTOH
 70
     1
  9
$DIMSE1
 70
     0
  9
$DIMSE2
 70
     0
  9
$DIMTAD
 70
     0
  9
$DIMZIN
 70
     0
  9
$DIMBLK
  1

  9
$DIMASO
 70
     1
  9
$DIMSHO
 70
     1
  9
$DIMPOST
  1
\X
  9
$DIMAPOST
  1

  9
$DIMALT
 70
     1
  9
$DIMALTD
 70
     2
  9
$DIMALTF
 40
25.3999999999999986
  9
$DIMLFAC
 40
1.0
  9
$DIMTOFL
 70
     0
  9
$DIMTVP
 40
0.0
  9
$DIMTIX
 70
     0
  9
$DIMSOXD
 70
     0
  9
$DIMSAH
 70
     0
  9
$DIMBLK1
  1

  9
$DIMBLK2
  1

  9
$DIMSTYLE
  2
STANDARD
  9
$DIMCLRD
 70
     0
  9
$DIMCLRE
 70
     0
  9
$DIMCLRT
 70
     0
  9
$DIMTFAC
 40
1.0
  9
$DIMGAP
 40
0.09
  9
$LUNITS
 70
     2
  9
$LUPREC
 70
     4
  9
$SKETCHINC
 40
0.1
  9
$FILLETRAD
 40
0.0
  9
$AUNITS
 70
     0
  9
$AUPREC
 70
     0
  9
$MENU
  1
.
  9
$ELEVATION
 40
0.0
  9
$PELEVATION
 40
0.0
  9
$THICKNESS
 40
0.0
  9
$LIMCHECK
 70
     0
  9
$BLIPMODE
 70
     0
  9
$CHAMFERA
 40
0.0
  9
$CHAMFERB
 40
0.0
  9
$SKPOLY
 70
     0
  9
$TDCREATE
 40
2458060.468368056230247
  9
$TDUPDATE
 40
2460881.7566666668280959
  9
$TDINDWG
 40
0.9889075231
  9
$TDUSRTIMER
 40
0.9889075231
  9
$USRTIMER
 70
     1
  9
$ANGBASE
 50
0.0
  9
$ANGDIR
 70
     0
  9
$PDMODE
 70
     0
  9
$PDSIZE
 40
0.3125
  9
$PLINEWID
 40
0.0
  9
$COORDS
 70
     1
  9
$SPLFRAME
 70
     0
  9
$SPLINETYPE
 70
     6
  9
$SPLINESEGS
 70
     8
  9
$ATTDIA
 70
     1
  9
$ATTREQ
 70
     1
  9
$HANDLING
 70
     1
  9
$HANDSEED
  5
2B717
  9
$SURFTAB1
 70
     6
  9
$SURFTAB2
 70
     6
  9
$SURFTYPE
 70
     6
  9
$SURFU
 70
     6
  9
$SURFV
 70
     6
  9
$UCSNAME
  2

  9
$UCSORG
 10
0.0
 20
0.0
 30
0.0
  9
$UCSXDIR
 10
1.0
 20
0.0
 30
0.0
  9
$UCSYDIR
 10
0.0
 20
1.0
 30
0.0
  9
$PUCSNAME
  2

  9
$PUCSORG
 10
0.0
 20
0.0
 30
0.0
  9
$PUCSXDIR
 10
1.0
 20
0.0
 30
0.0
  9
$PUCSYDIR
 10
0.0
 20
1.0
 30
0.0
  9
$USERI1
 70
     0
  9
$USERI2
 70
     0
  9
$USERI3
 70
     0
  9
$USERI4
 70
     0
  9
$USERI5
 70
     0
  9
$USERR1
 40
0.0
  9
$USERR2
 40
0.0
  9
$USERR3
 40
0.0
  9
$USERR4
 40
0.0
  9
$USERR5
 40
0.0
  9
$WORLDVIEW
 70
     1
  9
$SHADEDGE
 70
     3
  9
$SHADEDIF
 70
    70
  9
$TILEMODE
 70
     1
  9
$MAXACTVP
 70
    64
  9
$PLIMCHECK
 70
     0
  9
$PEXTMIN
 10
1.0000000000000000E+20
 20
1.0000000000000000E+20
 30
1.0000000000000000E+20
  9
$PEXTMAX
 10
-1.0000000000000000E+20
 20
-1.0000000000000000E+20
 30
-1.0000000000000000E+20
  9
$PLIMMIN
 10
0.0
 20
0.0
  9
$PLIMMAX
 10
12.0
 20
9.0
  9
$UNITMODE
 70
     0
  9
$VISRETAIN
 70
     1
  9
$PLINEGEN
 70
     0
  9
$PSLTSCALE
 70
     1
  0
ENDSEC
  0
SECTION
  2
TABLES
  0
TABLE
  2
VPORT
 70
     1
  0
VPORT
  2
*ACTIVE
 70
     0
 10
0.0
 20
0.0
 11
1.0
 21
1.0
 12
322.3652798930543213
 22
-5.6655844053365172
 13
0.0
 23
0.0
 14
1.0
 24
1.0
 15
0.0
 25
0.0
 16
0.0
 26
0.0
 36
92.3385285193394054
 17
3263.3890380859379547
 27
151.7217025756835938
 37
0.0
 40
36.1447754774274728
 41
1.8172413793103439
 42
50.0
 43
0.0
 44
0.0
 50
0.0
 51
0.0
 71
     0
 72
   100
 73
     1
 74
     1
 75
     0
 76
     0
 77
     0
 78
     0
  0
ENDTAB
  0
TABLE
  2
LTYPE
 70
     2
  0
LTYPE
  2
CONTINUOUS
 70
     0
  3
Solid line
 72
    65
 73
     0
 40
0.0
  0
LTYPE
  2
PHANTOM2
 70
     0
  3
___ _ _ ___ _ _ ___ _ _ ___ _ _
 72
    65
 73
     6
 40
1.25
 49
0.625
 49
-0.125
 49
0.125
 49
-0.125
 49
0.125
 49
-0.125
  0
ENDTAB
  0
TABLE
  2
LAYER
 70
     3
  0
LAYER
  2
0
 70
     0
 62
   255
  6
CONTINUOUS
  0
LAYER
  2
DEFPOINTS
 70
     0
 62
     7
  6
CONTINUOUS
  0
LAYER
  2
NOTE
 70
     0
 62
   210
  6
CONTINUOUS
  0
ENDTAB
  0
TABLE
  2
STYLE
 70
     1
  0
STYLE
  2
STANDARD
 70
     0
 40
0.0
 41
0.8
 50
0.0
 71
     0
 42
0.2
  3
txt
  4

  0
ENDTAB
  0
TABLE
  2
VIEW
 70
     0
  0
ENDTAB
  0
TABLE
  2
UCS
 70
     0
  0
ENDTAB
  0
TABLE
  2
APPID
 70
    10
  0
APPID
  2
ACAD
 70
     0
  0
APPID
  2
ACAD_MLEADERVER
 70
     0
  0
APPID
  2
ACAD_EXEMPT_FROM_CAD_STANDARDS
 70
     0
  0
APPID
  2
ACAD_NAV_VCDISPLAY
 70
     0
  0
APPID
  2
ACAECLAYERSTANDARD
 70
     0
  0
APPID
  2
ACCMTRANSPARENCY
 70
     0
  0
APPID
  2
ACAD_DSTYLE_DIMJAG
 70
     0
  0
APPID
  2
ACAD_DSTYLE_DIMTALN
 70
     0
  0
APPID
  2
ACDBATTR
 70
     0
  0
APPID
  2
ACADANNOTATIVE
 70
     0
  0
ENDTAB
  0
TABLE
  2
DIMSTYLE
 70
     1
  0
DIMSTYLE
  2
STANDARD
 70
     0
  3

  4

  5

  6

  7

 40
1.0
 41
0.1875
 42
0.0625
 43
0.38
 44
0.125
 45
0.0
 46
0.0
 47
0.01
 48
0.01
140
0.15625
141
0.09
142
0.0
143
25.3999999999999986
144
1.0
145
0.0
146
1.0
147
0.09
 71
     1
 72
     0
 73
     1
 74
     1
 75
     0
 76
     0
 77
     0
 78
     4
170
     0
171
     2
172
     0
173
     0
174
     0
175
     0
176
     0
177
     0
178
     0
  0
ENDTAB
  0
ENDSEC
  0
SECTION
  2
BLOCKS
  0
BLOCK
  8
0
  2
$MODEL_SPACE
 70
     0
 10
0.0
 20
0.0
 30
0.0
  3
$MODEL_SPACE
  1

  0
ENDBLK
  5
21
  8
0
  0
BLOCK
 67
     1
  8
0
  2
$PAPER_SPACE
 70
     0
 10
0.0
 20
0.0
 30
0.0
  3
$PAPER_SPACE
  1

  0
ENDBLK
  5
1D
 67
     1
  8
0
  0
BLOCK
  8
0
  2
_FILLED
 70
     0
 10
0.0
 20
0.0
 30
0.0
  3
_FILLED
  1

  0
SOLID
  5
2AA7D
  8
0
  6
BYBLOCK
 62
     0
 10
0.0
 20
0.0
 30
0.0
 11
-1.0
 21
0.1666666667
 31
0.0
 12
-1.0
 22
-0.1666666667
 32
0.0
 13
-1.0
 23
-0.1666666667
 33
0.0
  0
ENDBLK
  5
2AA7E
  8
0
  6
BYBLOCK
 62
     0
  0
ENDSEC
  0
SECTION
  2
ENTITIES
  0
ATTDEF
  5
2143C
  8
DEFPOINTS
 10
3594.8538509505419825
 20
128.1168596064663063
 30
0.0
 40
0.001
  1
K-2032-L
  3

  2
MODELNUMBER
 70
     0
1001
ACDBATTR
1070
     0
1070
     1
  0
ATTDEF
  5
2143D
  8
DEFPOINTS
 10
3594.8538509505419825
 20
128.1151929397996128
 30
0.0
 40
0.001
  1
KOHLER
  3

  2
BRANDNAME
 70
     0
1001
ACDBATTR
1070
     0
1070
     1
  0
ATTDEF
  5
2143E
  8
DEFPOINTS
 10
3594.8538509505419825
 20
128.1135262731330045
 30
0.0
 40
0.001
  1
BATHROOM SINK
  3

  2
PRODUCT
 70
     0
1001
ACDBATTR
1070
     0
1070
     1
  0
LINE
  5
2B591
  8
0
 10
3593.6945553572418248
 20
163.9953463993564071
 30
0.0
 11
3594.732375306333779
 21
163.9953463993564071
 31
0.0
  0
LINE
  5
2B592
  8
0
 10
3576.6847050831102024
 20
156.2984845051564093
 30
0.0
 11
3594.857375306333779
 21
156.2984845051564093
 31
0.0
  0
LINE
  5
2B593
  8
0
 10
3577.1310456516971499
 20
159.1153690461563883
 30
0.0
 11
3590.9746046720019876
 21
159.1153690461563883
 31
0.0
  0
LINE
  5
2B594
  8
0
 10
3594.4648256058749212
 20
153.7453674403429034
 30
0.0
 11
3594.732375306333779
 21
153.7453674403429034
 31
0.0
  0
LINE
  5
2B595
  8
0
 10
3577.2764602353340706
 20
154.9953690461564122
 30
0.0
 11
3591.3766756421459831
 21
154.9953690461564122
 31
0.0
  0
LINE
  5
2B596
  8
0
 10
3586.0854259271341107
 20
151.3653690461563883
 30
0.0
 11
3588.5593289565340456
 21
151.3653690461563883
 31
0.0
  0
LINE
  5
2B597
  8
0
 10
3594.857375306333779
 20
163.8703463993564071
 30
0.0
 11
3594.857375306333779
 21
153.8703674403429034
 31
0.0
  0
ARC
  5
2B598
  8
0
 10
3594.732375306333779
 20
163.8703463993564071
 30
0.0
 40
0.125
 50
359.9999999999992042
 51
90.0
  0
LINE
  5
2B599
  8
0
 10
3593.2337858773198604
 20
163.6894893528015871
 30
0.0
 11
3591.435374151923952
 21
159.4212260927112084
 31
0.0
  0
ARC
  5
2B59A
  8
0
 10
3593.6945553572418248
 20
163.4953463993564071
 30
0.0
 40
0.5
 50
90.0
 51
157.1521145092000893
  0
ARC
  5
2B59B
  8
0
 10
3590.9746046720019876
 20
159.6153690461563883
 30
0.0
 40
0.5
 50
270.0
 51
337.1521145092000893
  0
ARC
  5
2B59C
  8
0
 10
3596.6073774417318418
 20
156.365369046056486
 30
0.0
 40
19.9999999998983817
 50
173.0620073260776905
 51
179.6704654178398926
  0
ARC
  5
2B59D
  8
0
 10
3576.8577040993359333
 20
156.4789598230954937
 30
0.0
 40
0.25
 50
179.6704654178398926
 51
226.2116029566699922
  0
ARC
  5
2B59E
  8
0
 10
3577.1310456516971499
 20
158.7353690461563929
 30
0.0
 40
0.38
 50
90.0
 51
173.0620073260768947
  0
ARC
  5
2B59F
  8
0
 10
3605.2173287088658071
 20
156.060614664171311
 30
0.0
 40
27.5380658407698604
 50
174.3478676767711022
 51
179.1453534868855968
  0
ARC
  5
2B5A0
  8
0
 10
3577.9322985935459656
 20
156.4676391551224981
 30
0.0
 40
0.25
 50
179.1453534868863926
 51
221.7015521790264074
  0
ARC
  5
2B5A1
  8
0
 10
3578.1912999734490768
 20
158.7353690461563929
 30
0.0
 40
0.38
 50
90.0
 51
174.3478676767695106
  0
ARC
  5
2B5A2
  8
0
 10
3575.9927078541331866
 20
155.5765843492563931
 30
0.0
 40
1.0000000000000011
 50
5.0000000000014051
 51
46.2116029566699993
  0
LINE
  5
2B5A3
  8
0
 10
3576.9889025522252268
 20
155.6637400920041046
 30
0.0
 11
3577.0274115608140164
 21
155.2235801104339998
 31
0.0
  0
ARC
  5
2B5A4
  8
0
 10
3577.0125842551528876
 20
155.6481588750174012
 30
0.0
 40
0.9818369996587353
 50
0.909343814287499
 51
41.7015521790264216
  0
LINE
  5
2B5A5
  8
0
 10
3577.9942975999329065
 20
155.663740998656408
 30
0.0
 11
3578.0244695750470783
 21
155.2280958857975008
 31
0.0
  0
ARC
  5
2B5A6
  8
0
 10
3578.2738721370451458
 20
155.2453690461564122
 30
0.0
 40
0.25
 50
183.9618732175655111
 51
270.0
  0
ARC
  5
2B5A7
  8
0
 10
3577.2764602353340706
 20
155.2453690461564122
 30
0.0
 40
0.25
 50
185.0000000081722931
 51
270.0
  0
ARC
  5
2B5A8
  8
0
 10
3584.6077082342339963
 20
158.5453690461565088
 30
0.0
 40
6.2500000000000631
 50
214.6119025106015101
 51
230.1746517246479016
  0
ARC
  5
2B5A9
  8
0
 10
3584.6077082342899303
 20
158.5453690462242946
 30
0.0
 40
6.250000000088427
 50
230.1746517246479016
 51
265.2164546225271806
  0
ARC
  5
2B5AA
  8
0
 10
3585.8377352130519284
 20
173.2439925436586066
 30
0.0
 40
20.9999999691667014
 50
265.2164546225271806
 51
268.9251506701314725
  0
ARC
  5
2B5AB
  8
0
 10
3585.4344261853088938
 20
151.7477756555103952
 30
0.0
 40
0.5
 50
6.0007901594933166
 51
88.9251506701314867
  0
LINE
  5
2B5AC
  8
0
 10
3585.9316864121760773
 20
151.8000467448077018
 30
0.0
 11
3585.966083472686023
 21
151.4728239847250961
 31
0.0
  0
ARC
  5
2B5AD
  8
0
 10
3586.0854259271341107
 20
151.4853690461563929
 30
0.0
 40
0.12
 50
186.0007901594916859
 51
270.0
  0
ARC
  5
2B5AE
  8
0
 10
3584.6942018715940321
 20
158.661394675858503
 30
0.0
 40
5.7538967839236497
 50
219.5789743616516034
 51
246.5309337515894015
  0
ARC
  5
2B5AF
  8
0
 10
3584.868681635628036
 20
159.0632638528259974
 30
0.0
 40
6.1920086685535853
 50
246.5309337515894015
 51
263.2092475715018054
  0
ARC
  5
2B5B0
  8
0
 10
3585.8871603663851602
 20
167.6162242847512971
 30
0.0
 40
14.8053954052026508
 50
263.2092475715018054
 51
270.1271103521027044
  0
ARC
  5
2B5B1
  8
0
 10
3586.1857918874620736
 20
220.1829648183195047
 30
0.0
 40
67.3726237711701117
 50
269.7739668287190966
 51
270.83230824450402
  0
LINE
  5
2B5B2
  8
0
 10
3586.4483115833659213
 20
152.8112707465444089
 30
0.0
 11
3586.4225577357328802
 21
152.3921543539564141
 31
0.0
  0
ARC
  5
2B5B3
  8
0
 10
3585.6008359963061594
 20
152.4426474791299029
 30
0.0
 40
0.8232716275559115
 50
334.1748312959135774
 51
356.4837124036126852
  0
ARC
  5
2B5B4
  8
0
 10
3585.5738432700591147
 20
152.4557109041953993
 30
0.0
 40
0.8532592974331344
 50
315.4367631006149963
 51
334.1748312959135774
  0
ARC
  5
2B5B5
  8
0
 10
3586.0225403160288806
 20
152.0138030302074981
 30
0.0
 40
0.2234882214423187
 50
292.923700011937683
 51
315.4367631006149963
  0
ARC
  5
2B5B6
  8
0
 10
3586.0572783340580827
 20
151.9316614287344862
 30
0.0
 40
0.1343031745501433
 50
272.084090286060416
 51
292.923700011937683
  0
ARC
  5
2B5B7
  8
0
 10
3586.0248626806510401
 20
152.8224390295582964
 30
0.0
 40
1.025670387720625
 50
264.7820339731567856
 51
272.084090286060416
  0
ARC
  5
2B5B8
  8
0
 10
3575.0362441736010624
 20
156.1714238196072984
 30
0.0
 40
12.7905837096151398
 50
349.0661708024302925
 51
354.7250044529134243
  0
ARC
  5
2B5B9
  8
0
 10
3583.9135268082882249
 20
154.4564922248981134
 30
0.0
 40
3.749171355858433
 50
339.4942261805705925
 51
349.0661708024302925
  0
ARC
  5
2B5BA
  8
0
 10
3586.6901854908678615
 20
153.4180231468581894
 30
0.0
 40
0.7846728374593193
 50
320.4020011857414829
 51
339.4942261805705925
  0
ARC
  5
2B5BB
  8
0
 10
3587.0085796717248741
 20
153.154588874120094
 30
0.0
 40
0.3714265831020252
 50
294.8122115301518988
 51
320.4084708322826032
  0
ARC
  5
2B5BC
  8
0
 10
3571.8467480863459969
 20
156.4149448157166091
 30
0.0
 40
16.6426724126319705
 50
350.5838570400794083
 51
355.1068764218920251
  0
ARC
  5
2B5BD
  8
0
 10
3584.5428319526317864
 20
154.3094464605759981
 30
0.0
 40
3.7731864530737118
 50
339.5235738418655842
 51
350.5838570400794083
  0
ARC
  5
2B5BE
  8
0
 10
3587.2768791863350089
 20
153.2885100387659065
 30
0.0
 40
0.8547407274346372
 50
305.7541948406612846
 51
339.5235738418655842
  0
ARC
  5
2B5BF
  8
0
 10
3587.48527194852295
 20
152.9990789236005071
 30
0.0
 40
0.4980925622103112
 50
265.3561907157130122
 51
305.7541948406612846
  0
ARC
  5
2B5C0
  8
0
 10
3587.4692765770291771
 20
152.8021587734388902
 30
0.0
 40
0.3005238464456046
 50
214.1063596514428014
 51
265.3561907157130122
  0
ARC
  5
2B5C1
  8
0
 10
3587.8082813182568316
 20
153.0317371198840988
 30
0.0
 40
0.7099508017524684
 50
197.6011988065345975
 51
214.1063596514428014
  0
ARC
  5
2B5C2
  8
0
 10
3591.362536351514791
 20
150.4123246195636909
 30
0.0
 40
4.5206709707057851
 50
48.1039942421851165
 51
69.7906315293842141
  0
ARC
  5
2B5C3
  8
0
 10
3591.0300107477669371
 20
149.735506046146412
 30
0.0
 40
5.2712745449150438
 50
68.9401094646225232
 51
86.2292267829374168
  0
ARC
  5
2B5C4
  8
0
 10
3594.4648256058749212
 20
153.8703674403429034
 30
0.0
 40
0.125
 50
228.1039942421801925
 51
270.0
  0
ARC
  5
2B5C5
  8
0
 10
3594.732375306333779
 20
153.8703674403429034
 30
0.0
 40
0.125
 50
270.0
 51
0.0000000000008142
  0
LINE
  5
2B5C6
  8
0
 10
3589.5353498396329996
 20
154.9953690430563995
 30
0.0
 11
3589.4832072020099076
 21
154.004776742723692
 31
0.0
  0
ARC
  5
2B5C7
  8
0
 10
3588.0931312595030249
 20
154.0779473358271048
 30
0.0
 40
1.3920003813333059
 50
316.1021338056769991
 51
356.9868548350066817
  0
ARC
  5
2B5C8
  8
0
 10
3587.9335161122708087
 20
155.8797088216097961
 30
0.0
 40
3.0384726699376272
 50
271.3627849211288208
 51
286.9841718404049971
  0
ARC
  5
2B5C9
  8
0
 10
3588.5572354152959633
 20
153.8375980563459962
 30
0.0
 40
0.9032344755970655
 50
286.9841593305509946
 51
306.6322722090840216
  0
ARC
  5
2B5CA
  8
0
 10
3589.151185283229097
 20
152.9543424375767131
 30
0.0
 40
0.3301938772772299
 50
176.6027968428028032
 51
191.4114676752020898
  0
LINE
  5
2B5CB
  8
0
 10
3588.827518812533981
 20
152.8890124112564024
 30
0.0
 11
3588.67867158397803
 21
151.4728256305660921
 31
0.0
  0
ARC
  5
2B5CC
  8
0
 10
3588.5593289565340456
 20
151.4853690461563929
 30
0.0
 40
0.12
 50
270.0
 51
354.0000000008864731
  0
ENDSEC
  0
EOF
