  0
SECTION
  2
HEADER
  9
$ACADVER
  1
AC1009
  9
$INSBASE
 10
966.6244428324203
 20
143.3476654313080019
 30
0.0
  9
$EXTMIN
 10
962.1606057190851971
 20
142.8016794281901127
 30
-0.0000000349181948
  9
$EXTMAX
 10
971.1253400095861252
 20
143.3485355603945095
 30
0.0000000814935746
  9
$LIMMIN
 10
0.0
 20
0.0
  9
$LIMMAX
 10
11.6929133858000007
 20
8.2677165353999982
  9
$ORTHOMODE
 70
     0
  9
$REGENMODE
 70
     1
  9
$FILLMODE
 70
     1
  9
$QTEXTMODE
 70
     0
  9
$MIRRTEXT
 70
     0
  9
$DRAGMODE
 70
     2
  9
$LTSCALE
 40
0.6431102362
  9
$OSMODE
 70
  4095
  9
$ATTMODE
 70
     1
  9
$TEXTSIZE
 40
0.2
  9
$TRACEWID
 40
0.05
  9
$TEXTSTYLE
  7
STANDARD
  9
$CLAYER
  8
0
  9
$CELTYPE
  6
BYLAYER
  9
$CECOLOR
 62
   256
  9
$DIMSCALE
 40
1.0
  9
$DIMASZ
 40
0.1875
  9
$DIMEXO
 40
0.0625
  9
$DIMDLI
 40
0.4443307087
  9
$DIMRND
 40
0.0
  9
$DIMDLE
 40
0.0
  9
$DIMEXE
 40
0.125
  9
$DIMTP
 40
0.01
  9
$DIMTM
 40
0.01
  9
$DIMTXT
 40
1.0
  9
$DIMCEN
 40
0.1052362205
  9
$DIMTSZ
 40
0.0
  9
$DIMTOL
 70
     1
  9
$DIMLIM
 70
     0
  9
$DIMTIH
 70
     0
  9
$DIMTOH
 70
     1
  9
$DIMSE1
 70
     0
  9
$DIMSE2
 70
     0
  9
$DIMTAD
 70
     0
  9
$DIMZIN
 70
     0
  9
$DIMBLK
  1

  9
$DIMASO
 70
     1
  9
$DIMSHO
 70
     1
  9
$DIMPOST
  1
\X
  9
$DIMAPOST
  1

  9
$DIMALT
 70
     1
  9
$DIMALTD
 70
     2
  9
$DIMALTF
 40
25.3999999999999986
  9
$DIMLFAC
 40
1.0
  9
$DIMTOFL
 70
     0
  9
$DIMTVP
 40
0.0
  9
$DIMTIX
 70
     0
  9
$DIMSOXD
 70
     0
  9
$DIMSAH
 70
     0
  9
$DIMBLK1
  1

  9
$DIMBLK2
  1

  9
$DIMSTYLE
  2
STANDARD
  9
$DIMCLRD
 70
     0
  9
$DIMCLRE
 70
     0
  9
$DIMCLRT
 70
     0
  9
$DIMTFAC
 40
1.0
  9
$DIMGAP
 40
0.09
  9
$LUNITS
 70
     2
  9
$LUPREC
 70
     4
  9
$SKETCHINC
 40
0.1
  9
$FILLETRAD
 40
0.0
  9
$AUNITS
 70
     0
  9
$AUPREC
 70
     0
  9
$MENU
  1
.
  9
$ELEVATION
 40
0.0
  9
$PELEVATION
 40
0.0
  9
$THICKNESS
 40
0.0
  9
$LIMCHECK
 70
     0
  9
$BLIPMODE
 70
     0
  9
$CHAMFERA
 40
0.0
  9
$CHAMFERB
 40
0.0
  9
$SKPOLY
 70
     0
  9
$TDCREATE
 40
2458172.5207638889551163
  9
$TDUPDATE
 40
2459142.5119791668839753
  9
$TDINDWG
 40
0.4444104398
  9
$TDUSRTIMER
 40
0.4444104398
  9
$USRTIMER
 70
     1
  9
$ANGBASE
 50
0.0
  9
$ANGDIR
 70
     0
  9
$PDMODE
 70
     0
  9
$PDSIZE
 40
0.3125
  9
$PLINEWID
 40
0.0
  9
$COORDS
 70
     1
  9
$SPLFRAME
 70
     0
  9
$SPLINETYPE
 70
     6
  9
$SPLINESEGS
 70
     8
  9
$ATTDIA
 70
     1
  9
$ATTREQ
 70
     1
  9
$HANDLING
 70
     1
  9
$HANDSEED
  5
B6C4
  9
$SURFTAB1
 70
     6
  9
$SURFTAB2
 70
     6
  9
$SURFTYPE
 70
     6
  9
$SURFU
 70
     6
  9
$SURFV
 70
     6
  9
$UCSNAME
  2

  9
$UCSORG
 10
0.0
 20
0.0
 30
0.0
  9
$UCSXDIR
 10
1.0
 20
0.0
 30
0.0
  9
$UCSYDIR
 10
0.0
 20
1.0
 30
0.0
  9
$PUCSNAME
  2

  9
$PUCSORG
 10
0.0
 20
0.0
 30
0.0
  9
$PUCSXDIR
 10
1.0
 20
0.0
 30
0.0
  9
$PUCSYDIR
 10
0.0
 20
1.0
 30
0.0
  9
$USERI1
 70
     0
  9
$USERI2
 70
     0
  9
$USERI3
 70
     0
  9
$USERI4
 70
     0
  9
$USERI5
 70
     0
  9
$USERR1
 40
0.0
  9
$USERR2
 40
0.0
  9
$USERR3
 40
0.0
  9
$USERR4
 40
0.0
  9
$USERR5
 40
0.0
  9
$WORLDVIEW
 70
     1
  9
$SHADEDGE
 70
     3
  9
$SHADEDIF
 70
    70
  9
$TILEMODE
 70
     1
  9
$MAXACTVP
 70
    64
  9
$PLIMCHECK
 70
     0
  9
$PEXTMIN
 10
1.0000000000000000E+20
 20
1.0000000000000000E+20
 30
1.0000000000000000E+20
  9
$PEXTMAX
 10
-1.0000000000000000E+20
 20
-1.0000000000000000E+20
 30
-1.0000000000000000E+20
  9
$PLIMMIN
 10
0.0
 20
0.0
  9
$PLIMMAX
 10
12.0
 20
9.0
  9
$UNITMODE
 70
     0
  9
$VISRETAIN
 70
     1
  9
$PLINEGEN
 70
     0
  9
$PSLTSCALE
 70
     1
  0
ENDSEC
  0
SECTION
  2
TABLES
  0
TABLE
  2
VPORT
 70
     1
  0
VPORT
  2
*ACTIVE
 70
     0
 10
0.0
 20
0.0
 11
1.0
 21
1.0
 12
499.9007711565055274
 22
53.9419603743625089
 13
0.0
 23
0.0
 14
1.0
 24
1.0
 15
0.0
 25
0.0
 16
0.0
 26
0.0
 36
24.1179433675886514
 17
466.74220170783002
 27
89.133147119929788
 37
0.0
 40
3.4562631686296981
 41
2.6055226824457591
 42
50.0
 43
0.0
 44
0.0
 50
0.0
 51
0.0
 71
     0
 72
   100
 73
     1
 74
     1
 75
     0
 76
     0
 77
     0
 78
     0
  0
ENDTAB
  0
TABLE
  2
LTYPE
 70
     2
  0
LTYPE
  2
CONTINUOUS
 70
     0
  3
Solid line
 72
    65
 73
     0
 40
0.0
  0
LTYPE
  2
PHANTOM2
 70
     0
  3
___ _ _ ___ _ _ ___ _ _ ___ _ _
 72
    65
 73
     6
 40
1.25
 49
0.625
 49
-0.125
 49
0.125
 49
-0.125
 49
0.125
 49
-0.125
  0
ENDTAB
  0
TABLE
  2
LAYER
 70
     2
  0
LAYER
  2
0
 70
     0
 62
   255
  6
CONTINUOUS
  0
LAYER
  2
DEFPOINTS
 70
     0
 62
     7
  6
CONTINUOUS
  0
ENDTAB
  0
TABLE
  2
STYLE
 70
     1
  0
STYLE
  2
STANDARD
 70
     0
 40
0.0
 41
0.8
 50
0.0
 71
     0
 42
0.2
  3
txt
  4

  0
ENDTAB
  0
TABLE
  2
VIEW
 70
     0
  0
ENDTAB
  0
TABLE
  2
UCS
 70
     0
  0
ENDTAB
  0
TABLE
  2
APPID
 70
    11
  0
APPID
  2
ACAD
 70
     0
  0
APPID
  2
ACAD_MLEADERVER
 70
     0
  0
APPID
  2
ACAD_EXEMPT_FROM_CAD_STANDARDS
 70
     0
  0
APPID
  2
ACAD_DSTYLE_DIMJAG
 70
     0
  0
APPID
  2
ACAD_DSTYLE_DIMTALN
 70
     0
  0
APPID
  2
ACAD_NAV_VCDISPLAY
 70
     0
  0
APPID
  2
ACAECLAYERSTANDARD
 70
     0
  0
APPID
  2
ACCMTRANSPARENCY
 70
     0
  0
APPID
  2
DCO15
 70
     0
  0
APPID
  2
ACDBATTR
 70
     0
  0
APPID
  2
ACADANNOTATIVE
 70
     0
  0
ENDTAB
  0
TABLE
  2
DIMSTYLE
 70
     1
  0
DIMSTYLE
  2
STANDARD
 70
     0
  3

  4

  5

  6

  7

 40
1.0
 41
0.1875
 42
0.0625
 43
0.38
 44
0.125
 45
0.0
 46
0.0
 47
0.01
 48
0.01
140
0.15625
141
0.09
142
0.0
143
25.3999999999999986
144
1.0
145
0.0
146
1.0
147
0.09
 71
     1
 72
     0
 73
     1
 74
     1
 75
     0
 76
     0
 77
     0
 78
     4
170
     0
171
     2
172
     0
173
     0
174
     0
175
     0
176
     0
177
     0
178
     0
  0
ENDTAB
  0
ENDSEC
  0
SECTION
  2
BLOCKS
  0
BLOCK
  8
0
  2
$MODEL_SPACE
 70
     0
 10
0.0
 20
0.0
 30
0.0
  3
$MODEL_SPACE
  1

  0
ENDBLK
  5
21
  8
0
  0
BLOCK
 67
     1
  8
0
  2
$PAPER_SPACE
 70
     0
 10
0.0
 20
0.0
 30
0.0
  3
$PAPER_SPACE
  1

  0
ENDBLK
  5
1D
 67
     1
  8
0
  0
ENDSEC
  0
SECTION
  2
ENTITIES
  0
ATTDEF
  5
829
  8
DEFPOINTS
 10
966.6190669499650312
 20
143.3453552482498878
 30
0.0
 40
0.001
  1
K-20341T-PNE
  3

  2
MODELNUMBER
 70
     0
1001
ACDBATTR
1070
     0
1070
     1
  0
ATTDEF
  5
82A
  8
DEFPOINTS
 10
966.6190669499650312
 20
143.343688581583308
 30
0.0
 40
0.001
  1
PEBBLE
  3

  2
TRADENAME
 70
     0
1001
ACDBATTR
1070
     0
1070
     1
  0
ATTDEF
  5
82B
  8
DEFPOINTS
 10
966.6190669499650312
 20
143.342021914916586
 30
0.0
 40
0.001
  1
ACTUATOR PLATE
  3

  2
PRODUCT
 70
     0
1001
ACDBATTR
1070
     0
1070
     1
  0
LINE
  5
B566
  8
0
 10
970.9886571899749015
 20
142.9539646439079945
 30
0.0
 11
962.2602286276277255
 21
142.9539646439079945
 31
0.0
  0
LINE
  5
B567
  8
0
 10
962.1952789960597556
 20
143.3476654313080019
 30
0.0
 11
971.053606668780958
 21
143.3476654313080019
 31
0.0
  0
LINE
  5
B568
  8
0
 10
971.047748188765695
 20
143.01203320708359
 30
0.0
 11
971.053606668780958
 21
143.3476654313080019
 31
0.0
  0
LINE
  5
B569
  8
0
 10
962.2011376293065723
 20
143.0120331801967097
 30
0.0
 11
962.1952789960597556
 21
143.3476654313080019
 31
0.0
  0
ARC
  5
B56A
  8
0
 10
970.9886571899749015
 20
143.0130646439079953
 30
0.0
 40
0.0591
 50
270.0
 51
359.000000384051873
  0
ARC
  5
B56B
  8
0
 10
962.2602286276277255
 20
143.0130646439079953
 30
0.0
 40
0.0591
 50
181.0000256859999865
 51
270.0
  0
ARC
  5
B56C
  8
0
 10
963.3552076588561022
 20
142.9657928718760047
 30
0.0
 40
0.0127596299650277
 50
247.9725071301637058
 51
268.6917346257230861
  0
ARC
  5
B56D
  8
0
 10
963.3122905436289329
 20
141.0865547140998046
 30
0.0
 40
1.8669685238970251
 50
87.1132897510077555
 51
88.6917346257296657
  0
ARC
  5
B56E
  8
0
 10
963.1807848283567637
 20
138.4786220353813064
 30
0.0
 40
4.4782147033823634
 50
85.4147688325981136
 51
87.1132897510077555
  0
ARC
  5
B56F
  8
0
 10
963.1352759746756647
 20
137.9111704996909111
 30
0.0
 40
5.0474881887307914
 50
82.3346781411351287
 51
85.4147688325981136
  0
ARC
  5
B570
  8
0
 10
967.2935633246050884
 20
168.8073508708972952
 30
0.0
 40
26.1272662644273801
 50
262.334678141135214
 51
263.1858235956732983
  0
ARC
  5
B571
  8
0
 10
965.4097823362084227
 20
153.0426662235263109
 30
0.0
 40
10.25043053298198
 50
263.1858235956732983
 51
265.835622551257984
  0
ARC
  5
B572
  8
0
 10
965.2055685283562525
 20
152.8877052461178891
 30
0.0
 40
10.0828853111522694
 50
266.9291209529778257
 51
269.4205475962160108
  0
ARC
  5
B573
  8
0
 10
964.9971120165251932
 20
154.6740440619622916
 30
0.0
 40
11.8691861838088801
 50
270.5140459979439811
 51
274.1529140583982098
  0
ARC
  5
B574
  8
0
 10
962.922471482251126
 20
183.2467302226799006
 30
0.0
 40
40.5170923513688379
 50
274.1529140583982098
 51
275.5849282841030004
  0
ARC
  5
B575
  8
0
 10
967.3022897513603766
 20
138.4565727908567112
 30
0.0
 40
4.486696498437289
 50
90.9587954562359897
 51
95.5849282841030572
  0
ARC
  5
B576
  8
0
 10
967.5658453339201515
 20
134.0558427963810004
 30
0.0
 40
8.8932477970164321
 50
91.0005824858186543
 51
92.1822103745436436
  0
ARC
  5
B577
  8
0
 10
967.3860351262811719
 20
143.5788885563470103
 30
0.0
 40
0.6316298007531352
 50
272.2239974041261803
 51
273.4089285234629187
  0
ARC
  5
B578
  8
0
 10
967.4224373805343475
 20
142.9677775020678894
 30
0.0
 40
0.0194355139644014
 50
273.4089285234629187
 51
314.7079413190028845
  0
ENDSEC
  0
EOF
