  0
SECTION
  2
HEADER
  9
$ACADVER
  1
AC1009
  9
$INSBASE
 10
4564.3256612801442316
 20
547.5200086391278091
 30
0.0
  9
$EXTMIN
 10
4553.5939403463980852
 20
540.8670145829938747
 30
-0.0000000349181948
  9
$EXTMAX
 10
4575.0108815184630657
 20
548.0224465182503764
 30
0.0000000814935746
  9
$LIMMIN
 10
0.0
 20
0.0
  9
$LIMMAX
 10
11.6929133858000007
 20
8.2677165353999982
  9
$ORTHOMODE
 70
     0
  9
$REGENMODE
 70
     1
  9
$FILLMODE
 70
     1
  9
$QTEXTMODE
 70
     0
  9
$MIRRTEXT
 70
     0
  9
$DRAGMODE
 70
     2
  9
$LTSCALE
 40
0.6431102362
  9
$OSMODE
 70
   695
  9
$ATTMODE
 70
     1
  9
$TEXTSIZE
 40
0.2
  9
$TRACEWID
 40
0.05
  9
$TEXTSTYLE
  7
STANDARD
  9
$CLAYER
  8
0
  9
$CELTYPE
  6
BYLAYER
  9
$CECOLOR
 62
   256
  9
$DIMSCALE
 40
1.0
  9
$DIMASZ
 40
0.1875
  9
$DIMEXO
 40
0.0625
  9
$DIMDLI
 40
0.4443307087
  9
$DIMRND
 40
0.0
  9
$DIMDLE
 40
0.0
  9
$DIMEXE
 40
0.125
  9
$DIMTP
 40
0.01
  9
$DIMTM
 40
0.01
  9
$DIMTXT
 40
2.0
  9
$DIMCEN
 40
0.1052362205
  9
$DIMTSZ
 40
0.0
  9
$DIMTOL
 70
     1
  9
$DIMLIM
 70
     0
  9
$DIMTIH
 70
     1
  9
$DIMTOH
 70
     1
  9
$DIMSE1
 70
     0
  9
$DIMSE2
 70
     0
  9
$DIMTAD
 70
     0
  9
$DIMZIN
 70
     0
  9
$DIMBLK
  1

  9
$DIMASO
 70
     1
  9
$DIMSHO
 70
     1
  9
$DIMPOST
  1
\X
  9
$DIMAPOST
  1

  9
$DIMALT
 70
     1
  9
$DIMALTD
 70
     2
  9
$DIMALTF
 40
25.3999999999999986
  9
$DIMLFAC
 40
1.0
  9
$DIMTOFL
 70
     0
  9
$DIMTVP
 40
0.0
  9
$DIMTIX
 70
     0
  9
$DIMSOXD
 70
     0
  9
$DIMSAH
 70
     0
  9
$DIMBLK1
  1

  9
$DIMBLK2
  1

  9
$DIMSTYLE
  2
STANDARD
  9
$DIMCLRD
 70
     0
  9
$DIMCLRE
 70
     0
  9
$DIMCLRT
 70
     0
  9
$DIMTFAC
 40
1.0
  9
$DIMGAP
 40
0.09
  9
$LUNITS
 70
     2
  9
$LUPREC
 70
     4
  9
$SKETCHINC
 40
0.1
  9
$FILLETRAD
 40
0.0
  9
$AUNITS
 70
     0
  9
$AUPREC
 70
     0
  9
$MENU
  1
.
  9
$ELEVATION
 40
0.0
  9
$PELEVATION
 40
0.0
  9
$THICKNESS
 40
0.0
  9
$LIMCHECK
 70
     0
  9
$BLIPMODE
 70
     0
  9
$CHAMFERA
 40
0.0
  9
$CHAMFERB
 40
0.0
  9
$SKPOLY
 70
     0
  9
$TDCREATE
 40
2458060.468368056230247
  9
$TDUPDATE
 40
2459297.812071758788079
  9
$TDINDWG
 40
1.5400374999999999
  9
$TDUSRTIMER
 40
1.5400374999999999
  9
$USRTIMER
 70
     1
  9
$ANGBASE
 50
0.0
  9
$ANGDIR
 70
     0
  9
$PDMODE
 70
     0
  9
$PDSIZE
 40
0.3125
  9
$PLINEWID
 40
0.0
  9
$COORDS
 70
     1
  9
$SPLFRAME
 70
     0
  9
$SPLINETYPE
 70
     6
  9
$SPLINESEGS
 70
     8
  9
$ATTDIA
 70
     1
  9
$ATTREQ
 70
     1
  9
$HANDLING
 70
     1
  9
$HANDSEED
  5
19E4A
  9
$SURFTAB1
 70
     6
  9
$SURFTAB2
 70
     6
  9
$SURFTYPE
 70
     6
  9
$SURFU
 70
     6
  9
$SURFV
 70
     6
  9
$UCSNAME
  2

  9
$UCSORG
 10
0.0
 20
0.0
 30
0.0
  9
$UCSXDIR
 10
1.0
 20
0.0
 30
0.0
  9
$UCSYDIR
 10
0.0
 20
1.0
 30
0.0
  9
$PUCSNAME
  2

  9
$PUCSORG
 10
0.0
 20
0.0
 30
0.0
  9
$PUCSXDIR
 10
1.0
 20
0.0
 30
0.0
  9
$PUCSYDIR
 10
0.0
 20
1.0
 30
0.0
  9
$USERI1
 70
     0
  9
$USERI2
 70
     0
  9
$USERI3
 70
     0
  9
$USERI4
 70
     0
  9
$USERI5
 70
     0
  9
$USERR1
 40
0.0
  9
$USERR2
 40
0.0
  9
$USERR3
 40
0.0
  9
$USERR4
 40
0.0
  9
$USERR5
 40
0.0
  9
$WORLDVIEW
 70
     1
  9
$SHADEDGE
 70
     3
  9
$SHADEDIF
 70
    70
  9
$TILEMODE
 70
     1
  9
$MAXACTVP
 70
    64
  9
$PLIMCHECK
 70
     0
  9
$PEXTMIN
 10
1.0000000000000000E+20
 20
1.0000000000000000E+20
 30
1.0000000000000000E+20
  9
$PEXTMAX
 10
-1.0000000000000000E+20
 20
-1.0000000000000000E+20
 30
-1.0000000000000000E+20
  9
$PLIMMIN
 10
0.0
 20
0.0
  9
$PLIMMAX
 10
12.0
 20
9.0
  9
$UNITMODE
 70
     0
  9
$VISRETAIN
 70
     1
  9
$PLINEGEN
 70
     0
  9
$PSLTSCALE
 70
     1
  0
ENDSEC
  0
SECTION
  2
TABLES
  0
TABLE
  2
VPORT
 70
     1
  0
VPORT
  2
*ACTIVE
 70
     0
 10
0.0
 20
0.0
 11
1.0
 21
1.0
 12
652.9370544362375313
 22
411.8651253563816113
 13
0.0
 23
0.0
 14
1.0
 24
1.0
 15
0.0
 25
0.0
 16
0.0
 26
0.0
 36
60.4960186965801583
 17
3911.3653564453120453
 27
132.5796051025390057
 37
0.0
 40
15.0812071406481891
 41
1.866962305986696
 42
50.0
 43
0.0
 44
0.0
 50
0.0
 51
0.0
 71
     0
 72
   100
 73
     1
 74
     1
 75
     0
 76
     0
 77
     0
 78
     0
  0
ENDTAB
  0
TABLE
  2
LTYPE
 70
     2
  0
LTYPE
  2
CONTINUOUS
 70
     0
  3
Solid line
 72
    65
 73
     0
 40
0.0
  0
LTYPE
  2
PHANTOM2
 70
     0
  3
___ _ _ ___ _ _ ___ _ _ ___ _ _
 72
    65
 73
     6
 40
1.25
 49
0.625
 49
-0.125
 49
0.125
 49
-0.125
 49
0.125
 49
-0.125
  0
ENDTAB
  0
TABLE
  2
LAYER
 70
     2
  0
LAYER
  2
0
 70
     0
 62
   255
  6
CONTINUOUS
  0
LAYER
  2
DEFPOINTS
 70
     0
 62
     7
  6
CONTINUOUS
  0
ENDTAB
  0
TABLE
  2
STYLE
 70
     1
  0
STYLE
  2
STANDARD
 70
     0
 40
0.0
 41
0.8
 50
0.0
 71
     0
 42
0.2
  3
txt
  4

  0
ENDTAB
  0
TABLE
  2
VIEW
 70
     0
  0
ENDTAB
  0
TABLE
  2
UCS
 70
     0
  0
ENDTAB
  0
TABLE
  2
APPID
 70
    11
  0
APPID
  2
ACAD
 70
     0
  0
APPID
  2
ACAD_MLEADERVER
 70
     0
  0
APPID
  2
ACAD_EXEMPT_FROM_CAD_STANDARDS
 70
     0
  0
APPID
  2
ACAD_NAV_VCDISPLAY
 70
     0
  0
APPID
  2
ACAECLAYERSTANDARD
 70
     0
  0
APPID
  2
ACCMTRANSPARENCY
 70
     0
  0
APPID
  2
ACAD_DSTYLE_DIMJAG
 70
     0
  0
APPID
  2
ACAD_DSTYLE_DIMTALN
 70
     0
  0
APPID
  2
ACDBATTR
 70
     0
  0
APPID
  2
ACADANNOTATIVE
 70
     0
  0
APPID
  2
DCO15
 70
     0
  0
ENDTAB
  0
TABLE
  2
DIMSTYLE
 70
     1
  0
DIMSTYLE
  2
STANDARD
 70
     0
  3

  4

  5

  6

  7

 40
1.0
 41
0.1875
 42
0.0625
 43
0.38
 44
0.125
 45
0.0
 46
0.0
 47
0.01
 48
0.01
140
0.15625
141
0.09
142
0.0
143
25.3999999999999986
144
1.0
145
0.0
146
1.0
147
0.09
 71
     1
 72
     0
 73
     1
 74
     1
 75
     0
 76
     0
 77
     0
 78
     4
170
     0
171
     2
172
     0
173
     0
174
     0
175
     0
176
     0
177
     0
178
     0
  0
ENDTAB
  0
ENDSEC
  0
SECTION
  2
BLOCKS
  0
BLOCK
  8
0
  2
$MODEL_SPACE
 70
     0
 10
0.0
 20
0.0
 30
0.0
  3
$MODEL_SPACE
  1

  0
ENDBLK
  5
21
  8
0
  0
BLOCK
 67
     1
  8
0
  2
$PAPER_SPACE
 70
     0
 10
0.0
 20
0.0
 30
0.0
  3
$PAPER_SPACE
  1

  0
ENDBLK
  5
1D
 67
     1
  8
0
  0
ENDSEC
  0
SECTION
  2
ENTITIES
  0
LINE
  5
19D43
  8
0
 10
4553.6619612254444291
 20
547.7191783638215838
 30
0.0
 11
4553.6629826151929592
 21
547.6991514277276565
 31
0.0
  0
LINE
  5
19D44
  8
0
 10
4562.9468906695947226
 20
541.0552517984276619
 30
0.0
 11
4562.8016434889941593
 21
541.9323179797278272
 31
0.0
  0
LINE
  5
19D45
  8
0
 10
4563.1410973715946966
 20
540.8905629210278221
 30
0.0
 11
4565.5102251886937665
 21
540.8905629210278221
 31
0.0
  0
LINE
  5
19D46
  8
0
 10
4553.8477573644931908
 20
547.5226386196277417
 30
0.0
 11
4562.7257775105936162
 21
547.5200086895276854
 31
0.0
  0
LINE
  5
19D47
  8
0
 10
4574.9893839170936189
 20
548.0151270465277094
 30
0.0
 11
4553.6619612254444291
 21
548.0151270465277094
 31
0.0
  0
ARC
  5
19D48
  8
0
 10
4562.4137961273581823
 20
541.8634282143151495
 30
0.0
 40
0.393917980937428
 50
10.0718801070944703
 51
85.4968829963521415
  0
ARC
  5
19D49
  8
0
 10
4561.6663722834819055
 20
550.0401959945277213
 30
0.0
 40
7.6336728902308257
 50
201.4406995425003117
 51
204.1594943728831026
  0
ARC
  5
19D4A
  8
0
 10
4563.1410960104030892
 20
541.0874133147329985
 30
0.0
 40
0.1968503937099045
 50
189.4031674654499966
 51
270.0003961916698927
  0
ARC
  5
19D4B
  8
0
 10
4564.2936173726111519
 20
542.5498248409676307
 30
0.0
 40
1.423428235021434
 50
207.4966036608045101
 51
261.1921903348313094
  0
ARC
  5
19D4C
  8
0
 10
4566.6211176502292801
 20
543.7111075519248971
 30
0.0
 40
4.0244155064455578
 50
204.2176615326544038
 51
206.8631061519085961
  0
ARC
  5
19D4D
  8
0
 10
4563.4991488952337022
 20
555.5248756243554453
 30
0.0
 40
13.3105753909866795
 50
256.2523224305197118
 51
265.4564349283016895
  0
ARC
  5
19D4E
  8
0
 10
4562.4222780733180116
 20
551.5617086064601153
 30
0.0
 40
9.2056213600753942
 50
233.2739345299038121
 51
256.9007989278500759
  0
ARC
  5
19D4F
  8
0
 10
4561.6565745415227866
 20
550.3721591649671154
 30
0.0
 40
7.79492152193321
 50
217.8828812531255892
 51
232.5563384609548052
  0
ARC
  5
19D50
  8
0
 10
4560.4831382939655668
 20
549.4985475557947439
 30
0.0
 40
6.3324016836263706
 50
204.0696155167111954
 51
218.1636836682278044
  0
ARC
  5
19D51
  8
0
 10
4553.8588116213886678
 20
547.7191783926963353
 30
0.0
 40
0.1968503974934706
 50
185.8392023035293903
 51
266.7808263183948725
  0
ARC
  5
19D52
  8
0
 10
4562.7299751537084376
 20
544.6166742484796259
 30
0.0
 40
2.9033374755243182
 50
82.3425824898973389
 51
90.0828382232929954
  0
ARC
  5
19D53
  8
0
 10
4562.3797341543786388
 20
541.8685467304801477
 30
0.0
 40
5.6736601157155793
 50
79.1612997193750516
 51
82.5351551584739553
  0
ARC
  5
19D54
  8
0
 10
4557.7249031209121313
 20
517.3762552557294612
 30
0.0
 40
30.6043556763775193
 50
78.6484919613468065
 51
79.2246829863224775
  0
ARC
  5
19D55
  8
0
 10
4565.0521323989605662
 20
553.8964842945896407
 30
0.0
 40
6.6436711562273381
 50
258.6855328696432821
 51
260.810953037598324
  0
ARC
  5
19D56
  8
0
 10
4564.3870483660002719
 20
549.7948892011913813
 30
0.0
 40
2.4885041769641498
 50
260.8467557027910857
 51
265.5627766347964211
  0
ARC
  5
19D57
  8
0
 10
4562.1700729504891569
 20
547.1104309554723386
 30
0.0
 40
0.4994303949373414
 50
7.3451199762045452
 51
30.840576661825061
  0
ARC
  5
19D58
  8
0
 10
4562.3173985827988872
 20
547.1991125975000614
 30
0.0
 40
0.3274748819552536
 50
30.7329473211175284
 51
55.2719093050061616
  0
ARC
  5
19D59
  8
0
 10
4562.3796111344599922
 20
547.2843708633042752
 30
0.0
 40
0.2219774713903473
 50
55.9327414462727788
 51
75.8798250035052462
  0
ARC
  5
19D5A
  8
0
 10
4578.0777579773603065
 20
618.185262153813369
 30
0.0
 40
72.3960738494688485
 50
257.4457860246365044
 51
257.5205766032603947
  0
ARC
  5
19D5B
  8
0
 10
4563.3898876253060735
 20
542.2511072994077495
 30
0.0
 40
0.4786940305743733
 50
198.304775191728794
 51
203.4938658065863137
  0
ARC
  5
19D5C
  8
0
 10
4564.0047233448767656
 20
542.4436109328992188
 30
0.0
 40
1.12292615970225
 50
190.2253710624285929
 51
197.7772031212813033
  0
ARC
  5
19D5D
  8
0
 10
4567.460835736826084
 20
543.0742444776342381
 30
0.0
 40
4.6361012721145993
 50
185.3862725212779026
 51
190.3129484099688113
  0
ARC
  5
19D5E
  8
0
 10
4585.4303291272353817
 20
544.8224953514802564
 30
0.0
 40
22.6904216352472616
 50
182.5969083167373981
 51
185.5219694000282971
  0
ARC
  5
19D5F
  8
0
 10
4674.3686422210003002
 20
548.7153512309600956
 30
0.0
 40
111.7138670474868007
 50
180.7904087891226936
 51
182.5246663749462073
  0
LINE
  5
19D60
  8
0
 10
4574.9893839170936189
 20
547.7191783638223797
 30
0.0
 11
4574.9883625273441794
 21
547.6991514277276565
 31
0.0
  0
LINE
  5
19D61
  8
0
 10
4565.7044318906937406
 20
541.0552517984276619
 30
0.0
 11
4565.8496790712943039
 21
541.9323179797278272
 31
0.0
  0
LINE
  5
19D62
  8
0
 10
4574.8035877780439478
 20
547.5226386196277417
 30
0.0
 11
4565.9255450496939375
 21
547.5200086895276854
 31
0.0
  0
ARC
  5
19D63
  8
0
 10
4566.2375704951973603
 20
541.8633774991258178
 30
0.0
 40
0.3939702356819707
 50
94.5055484503286749
 51
169.921978621572606
  0
ARC
  5
19D64
  8
0
 10
4565.8068965659513196
 20
550.5311710694119256
 30
0.0
 40
8.9097311613049381
 50
335.3371512626176241
 51
338.3897449929527852
  0
ARC
  5
19D65
  8
0
 10
4565.510226549885374
 20
541.0874133147329985
 30
0.0
 40
0.1968503937099045
 50
269.9996038083301073
 51
350.5968325345500034
  0
ARC
  5
19D66
  8
0
 10
4564.3577051876773112
 20
542.5498248409676307
 30
0.0
 40
1.423428235021434
 50
278.8078096651688043
 51
332.5033963391954899
  0
ARC
  5
19D67
  8
0
 10
4562.030204910059183
 20
543.7111075519248971
 30
0.0
 40
4.0244155064455578
 50
333.1368938480914039
 51
335.7823384673455962
  0
ARC
  5
19D68
  8
0
 10
4565.173418174694234
 20
555.3110716186173477
 30
0.0
 40
13.0957628192819406
 50
274.5251125194956217
 51
284.3927617727742927
  0
ARC
  5
19D69
  8
0
 10
4566.225917287685661
 20
551.5712849557636446
 30
0.0
 40
9.2121723090743561
 50
283.833759635639808
 51
307.3507438991927074
  0
ARC
  5
19D6A
  8
0
 10
4567.1334803653699055
 20
550.2518677423927329
 30
0.0
 40
7.6131177328191306
 50
307.9454967948162789
 51
323.4974642888507219
  0
ARC
  5
19D6B
  8
0
 10
4567.7485657992619963
 20
549.7481168550963275
 30
0.0
 40
6.81914461507737
 50
323.8255014635822135
 51
334.5087291934690938
  0
ARC
  5
19D6C
  8
0
 10
4574.7925335211475613
 20
547.7191783926963353
 30
0.0
 40
0.1968503974934706
 50
273.2191736816051275
 51
354.1607976964705813
  0
ARC
  5
19D6D
  8
0
 10
4565.9213474065800256
 20
544.6166742484796259
 30
0.0
 40
2.9033374755243182
 50
89.9171617767070046
 51
97.6574175101026754
  0
ARC
  5
19D6E
  8
0
 10
4566.2715884059089149
 20
541.8685467304801477
 30
0.0
 40
5.6736601157155793
 50
97.4648448415260589
 51
100.8387002806249058
  0
ARC
  5
19D6F
  8
0
 10
4570.9264194393763319
 20
517.3762552557294612
 30
0.0
 40
30.6043556763775193
 50
100.7753170136774941
 51
101.3515080386531935
  0
ARC
  5
19D70
  8
0
 10
4563.5991901613278969
 20
553.8964842945896407
 30
0.0
 40
6.6436711562273381
 50
279.189046962401676
 51
281.3144671303567179
  0
ARC
  5
19D71
  8
0
 10
4564.2642741942900102
 20
549.7948892011913813
 30
0.0
 40
2.4885041769641498
 50
274.4372233652035789
 51
279.1532442972088006
  0
ARC
  5
19D72
  8
0
 10
4566.4812496097993062
 20
547.1104309554723386
 30
0.0
 40
0.4994303949373414
 50
149.1594233381748893
 51
172.6548800237954993
  0
ARC
  5
19D73
  8
0
 10
4566.3339239774877569
 20
547.1991125975000614
 30
0.0
 40
0.3274748819552536
 50
124.7280906949510069
 51
149.2670526788824077
  0
ARC
  5
19D74
  8
0
 10
4566.2717114258275615
 20
547.2843708633042752
 30
0.0
 40
0.2219774713903473
 50
104.120174996494697
 51
124.0672585537271999
  0
ARC
  5
19D75
  8
0
 10
4550.5735645829281566
 20
618.185262153813369
 30
0.0
 40
72.3960738494688485
 50
282.4794233967394916
 51
282.5542139743474763
  0
ARC
  5
19D76
  8
0
 10
4565.2614349349823897
 20
542.2511072994077495
 30
0.0
 40
0.4786940305743733
 50
336.5061341934077177
 51
341.6952248082711776
  0
ARC
  5
19D77
  8
0
 10
4564.6465992154098785
 20
542.4436109328992188
 30
0.0
 40
1.12292615970225
 50
342.2227968787187251
 51
349.7746289375713218
  0
ARC
  5
19D78
  8
0
 10
4561.1904868234632886
 20
543.0742444776342381
 30
0.0
 40
4.6361012721145993
 50
349.6870515900311034
 51
354.6137274787221259
  0
ARC
  5
19D79
  8
0
 10
4543.2209934330539909
 20
544.8224953514802564
 30
0.0
 40
22.6904216352472616
 50
354.4780305999717029
 51
357.4030916832625735
  0
ARC
  5
19D7A
  8
0
 10
4454.2826803392881629
 20
548.7153512309600956
 30
0.0
 40
111.7138670474868007
 50
357.475333625053679
 51
359.2095912108773064
  0
ARC
  5
19D7B
  8
0
 10
4564.3256612801442316
 20
542.9946788515376284
 30
0.0
 40
1.8682984972851491
 50
262.3100942498542167
 51
277.6899057501457264
  0
ARC
  5
19D7C
  8
0
 10
4564.3256612801442316
 20
549.0421710169357539
 30
0.0
 40
1.733295335358898
 50
265.6608775032104859
 51
274.3391224967894004
  0
LINE
  5
19D7E
  8
0
 10
4553.6619612254444291
 20
547.7191783638215838
 30
0.0
 11
4553.6619612254444291
 21
548.0151270465277094
 31
0.0
  0
LINE
  5
19D7F
  8
0
 10
4574.9893839170936189
 20
547.7191783638223797
 30
0.0
 11
4574.9893839170936189
 21
548.0151270465277094
 31
0.0
  0
ARC
  5
19D80
  8
0
 10
4574.457985944189204
 20
547.1088732879471763
 30
0.0
 40
0.3937037973897908
 50
93.2270237084546665
 51
159.0259520756821132
  0
ARC
  5
19D81
  8
0
 10
2898.5877932893668003
 20
30344.9679444530083856
 30
0.0
 40
29844.5547151205682894
 50
273.2189976237766018
 51
273.2197047763356181
  0
ARC
  5
19D82
  8
0
 10
4554.1915113551458489
 20
547.1063398626788512
 30
0.0
 40
0.3963397126242285
 50
21.2204656210533393
 51
86.5337947557464275
  0
ARC
  5
19D83
  8
0
 10
4552.0938583442502932
 20
513.0633370447264952
 30
0.0
 40
34.5039074135553818
 50
86.4747078750851017
 51
87.0862912165160736
  0
ATTDEF
  5
19D84
  8
DEFPOINTS
 10
4564.325732782547675
 20
547.5188932721034689
 30
0.0
 40
0.001
  1
K-20413T
  3

  2
MODELNUMBER
 70
     0
1001
ACDBATTR
1070
     0
1070
     1
  0
ATTDEF
  5
19D85
  8
DEFPOINTS
 10
4564.3256069728922739
 20
547.5172264317243389
 30
0.0
 40
0.001
  1
CAXTON
  3

  2
TRADENAME
 70
     0
1001
ACDBATTR
1070
     0
1070
     1
  0
ATTDEF
  5
19D86
  8
DEFPOINTS
 10
4564.325732782547675
 20
547.5155599387702523
 30
0.0
 40
0.001
  1
BATHROOM SINK
  3

  2
PRODUCT
 70
     0
1001
ACDBATTR
1070
     0
1070
     1
  0
ENDSEC
  0
EOF
