  0
SECTION
  2
HEADER
  9
$ACADVER
  1
AC1009
  9
$INSBASE
 10
4574.4224100925121093
 20
572.8142035445315514
 30
0.0
  9
$EXTMIN
 10
4561.6433999904393204
 20
563.8705742217312036
 30
-0.0000000000000058
  9
$EXTMAX
 10
4587.1653272272696995
 20
581.7453594663616059
 30
0.0000000000000104
  9
$LIMMIN
 10
0.0
 20
0.0
  9
$LIMMAX
 10
11.6929133858000007
 20
8.2677165353999982
  9
$ORTHOMODE
 70
     0
  9
$REGENMODE
 70
     1
  9
$FILLMODE
 70
     1
  9
$QTEXTMODE
 70
     0
  9
$MIRRTEXT
 70
     0
  9
$DRAGMODE
 70
     2
  9
$LTSCALE
 40
0.6431102362
  9
$OSMODE
 70
   695
  9
$ATTMODE
 70
     1
  9
$TEXTSIZE
 40
0.2
  9
$TRACEWID
 40
0.05
  9
$TEXTSTYLE
  7
STANDARD
  9
$CLAYER
  8
0
  9
$CELTYPE
  6
BYLAYER
  9
$CECOLOR
 62
   256
  9
$DIMSCALE
 40
1.0
  9
$DIMASZ
 40
0.1875
  9
$DIMEXO
 40
0.0625
  9
$DIMDLI
 40
0.4443307087
  9
$DIMRND
 40
0.0
  9
$DIMDLE
 40
0.0
  9
$DIMEXE
 40
0.125
  9
$DIMTP
 40
0.01
  9
$DIMTM
 40
0.01
  9
$DIMTXT
 40
2.0
  9
$DIMCEN
 40
0.1052362205
  9
$DIMTSZ
 40
0.0
  9
$DIMTOL
 70
     1
  9
$DIMLIM
 70
     0
  9
$DIMTIH
 70
     1
  9
$DIMTOH
 70
     1
  9
$DIMSE1
 70
     0
  9
$DIMSE2
 70
     0
  9
$DIMTAD
 70
     0
  9
$DIMZIN
 70
     0
  9
$DIMBLK
  1

  9
$DIMASO
 70
     1
  9
$DIMSHO
 70
     1
  9
$DIMPOST
  1
\X
  9
$DIMAPOST
  1

  9
$DIMALT
 70
     1
  9
$DIMALTD
 70
     2
  9
$DIMALTF
 40
25.3999999999999986
  9
$DIMLFAC
 40
1.0
  9
$DIMTOFL
 70
     0
  9
$DIMTVP
 40
0.0
  9
$DIMTIX
 70
     0
  9
$DIMSOXD
 70
     0
  9
$DIMSAH
 70
     0
  9
$DIMBLK1
  1

  9
$DIMBLK2
  1

  9
$DIMSTYLE
  2
STANDARD
  9
$DIMCLRD
 70
     0
  9
$DIMCLRE
 70
     0
  9
$DIMCLRT
 70
     0
  9
$DIMTFAC
 40
1.0
  9
$DIMGAP
 40
0.09
  9
$LUNITS
 70
     2
  9
$LUPREC
 70
     4
  9
$SKETCHINC
 40
0.1
  9
$FILLETRAD
 40
0.0
  9
$AUNITS
 70
     0
  9
$AUPREC
 70
     0
  9
$MENU
  1
.
  9
$ELEVATION
 40
0.0
  9
$PELEVATION
 40
0.0
  9
$THICKNESS
 40
0.0
  9
$LIMCHECK
 70
     0
  9
$BLIPMODE
 70
     0
  9
$CHAMFERA
 40
0.0
  9
$CHAMFERB
 40
0.0
  9
$SKPOLY
 70
     0
  9
$TDCREATE
 40
2458060.468368056230247
  9
$TDUPDATE
 40
2459297.8596180560998619
  9
$TDINDWG
 40
1.5412759259
  9
$TDUSRTIMER
 40
1.5412759259
  9
$USRTIMER
 70
     1
  9
$ANGBASE
 50
0.0
  9
$ANGDIR
 70
     0
  9
$PDMODE
 70
     0
  9
$PDSIZE
 40
0.3125
  9
$PLINEWID
 40
0.0
  9
$COORDS
 70
     1
  9
$SPLFRAME
 70
     0
  9
$SPLINETYPE
 70
     6
  9
$SPLINESEGS
 70
     8
  9
$ATTDIA
 70
     1
  9
$ATTREQ
 70
     1
  9
$HANDLING
 70
     1
  9
$HANDSEED
  5
19FC1
  9
$SURFTAB1
 70
     6
  9
$SURFTAB2
 70
     6
  9
$SURFTYPE
 70
     6
  9
$SURFU
 70
     6
  9
$SURFV
 70
     6
  9
$UCSNAME
  2

  9
$UCSORG
 10
0.0
 20
0.0
 30
0.0
  9
$UCSXDIR
 10
1.0
 20
0.0
 30
0.0
  9
$UCSYDIR
 10
0.0
 20
1.0
 30
0.0
  9
$PUCSNAME
  2

  9
$PUCSORG
 10
0.0
 20
0.0
 30
0.0
  9
$PUCSXDIR
 10
1.0
 20
0.0
 30
0.0
  9
$PUCSYDIR
 10
0.0
 20
1.0
 30
0.0
  9
$USERI1
 70
     0
  9
$USERI2
 70
     0
  9
$USERI3
 70
     0
  9
$USERI4
 70
     0
  9
$USERI5
 70
     0
  9
$USERR1
 40
0.0
  9
$USERR2
 40
0.0
  9
$USERR3
 40
0.0
  9
$USERR4
 40
0.0
  9
$USERR5
 40
0.0
  9
$WORLDVIEW
 70
     1
  9
$SHADEDGE
 70
     3
  9
$SHADEDIF
 70
    70
  9
$TILEMODE
 70
     1
  9
$MAXACTVP
 70
    64
  9
$PLIMCHECK
 70
     0
  9
$PEXTMIN
 10
1.0000000000000000E+20
 20
1.0000000000000000E+20
 30
1.0000000000000000E+20
  9
$PEXTMAX
 10
-1.0000000000000000E+20
 20
-1.0000000000000000E+20
 30
-1.0000000000000000E+20
  9
$PLIMMIN
 10
0.0
 20
0.0
  9
$PLIMMAX
 10
12.0
 20
9.0
  9
$UNITMODE
 70
     0
  9
$VISRETAIN
 70
     1
  9
$PLINEGEN
 70
     0
  9
$PSLTSCALE
 70
     1
  0
ENDSEC
  0
SECTION
  2
TABLES
  0
TABLE
  2
VPORT
 70
     1
  0
VPORT
  2
*ACTIVE
 70
     0
 10
0.0
 20
0.0
 11
1.0
 21
1.0
 12
663.0390071426242002
 22
440.2283617201973129
 13
0.0
 23
0.0
 14
1.0
 24
1.0
 15
0.0
 25
0.0
 16
0.0
 26
0.0
 36
60.4960186965801583
 17
3911.3653564453120453
 27
132.5796051025390057
 37
0.0
 40
22.1320719989468095
 41
1.866962305986696
 42
50.0
 43
0.0
 44
0.0
 50
0.0
 51
0.0
 71
     0
 72
   100
 73
     1
 74
     1
 75
     0
 76
     0
 77
     0
 78
     0
  0
ENDTAB
  0
TABLE
  2
LTYPE
 70
     2
  0
LTYPE
  2
CONTINUOUS
 70
     0
  3
Solid line
 72
    65
 73
     0
 40
0.0
  0
LTYPE
  2
PHANTOM2
 70
     0
  3
___ _ _ ___ _ _ ___ _ _ ___ _ _
 72
    65
 73
     6
 40
1.25
 49
0.625
 49
-0.125
 49
0.125
 49
-0.125
 49
0.125
 49
-0.125
  0
ENDTAB
  0
TABLE
  2
LAYER
 70
     2
  0
LAYER
  2
0
 70
     0
 62
   255
  6
CONTINUOUS
  0
LAYER
  2
DEFPOINTS
 70
     0
 62
     7
  6
CONTINUOUS
  0
ENDTAB
  0
TABLE
  2
STYLE
 70
     1
  0
STYLE
  2
STANDARD
 70
     0
 40
0.0
 41
0.8
 50
0.0
 71
     0
 42
0.2
  3
txt
  4

  0
ENDTAB
  0
TABLE
  2
VIEW
 70
     0
  0
ENDTAB
  0
TABLE
  2
UCS
 70
     0
  0
ENDTAB
  0
TABLE
  2
APPID
 70
    11
  0
APPID
  2
ACAD
 70
     0
  0
APPID
  2
ACAD_MLEADERVER
 70
     0
  0
APPID
  2
ACAD_EXEMPT_FROM_CAD_STANDARDS
 70
     0
  0
APPID
  2
ACAD_NAV_VCDISPLAY
 70
     0
  0
APPID
  2
ACAECLAYERSTANDARD
 70
     0
  0
APPID
  2
ACCMTRANSPARENCY
 70
     0
  0
APPID
  2
ACAD_DSTYLE_DIMJAG
 70
     0
  0
APPID
  2
ACAD_DSTYLE_DIMTALN
 70
     0
  0
APPID
  2
ACDBATTR
 70
     0
  0
APPID
  2
ACADANNOTATIVE
 70
     0
  0
APPID
  2
DCO15
 70
     0
  0
ENDTAB
  0
TABLE
  2
DIMSTYLE
 70
     1
  0
DIMSTYLE
  2
STANDARD
 70
     0
  3

  4

  5

  6

  7

 40
1.0
 41
0.1875
 42
0.0625
 43
0.38
 44
0.125
 45
0.0
 46
0.0
 47
0.01
 48
0.01
140
0.15625
141
0.09
142
0.0
143
25.3999999999999986
144
1.0
145
0.0
146
1.0
147
0.09
 71
     1
 72
     0
 73
     1
 74
     1
 75
     0
 76
     0
 77
     0
 78
     4
170
     0
171
     2
172
     0
173
     0
174
     0
175
     0
176
     0
177
     0
178
     0
  0
ENDTAB
  0
ENDSEC
  0
SECTION
  2
BLOCKS
  0
BLOCK
  8
0
  2
$MODEL_SPACE
 70
     0
 10
0.0
 20
0.0
 30
0.0
  3
$MODEL_SPACE
  1

  0
ENDBLK
  5
21
  8
0
  0
BLOCK
 67
     1
  8
0
  2
$PAPER_SPACE
 70
     0
 10
0.0
 20
0.0
 30
0.0
  3
$PAPER_SPACE
  1

  0
ENDBLK
  5
1D
 67
     1
  8
0
  0
BLOCK
  8
0
  2
_CLOSED
 70
     0
 10
0.0
 20
0.0
 30
0.0
  3
_CLOSED
  1

  0
LINE
  5
19CF9
  8
0
  6
BYBLOCK
 62
     0
 10
0.0
 20
0.0
 30
0.0
 11
-1.0
 21
0.1666666667
 31
0.0
  0
LINE
  5
19CFA
  8
0
  6
BYBLOCK
 62
     0
 10
-1.0
 20
0.1666666667
 30
0.0
 11
-1.0
 21
-0.1666666667
 31
0.0
  0
LINE
  5
19CFB
  8
0
  6
BYBLOCK
 62
     0
 10
-1.0
 20
-0.1666666667
 30
0.0
 11
0.0
 21
0.0
 31
0.0
  0
LINE
  5
19CFC
  8
0
  6
BYBLOCK
 62
     0
 10
-1.0
 20
0.0
 30
0.0
 11
0.0
 21
0.0
 31
0.0
  0
ENDBLK
  5
19CFD
  8
0
  6
BYBLOCK
 62
     0
  0
ENDSEC
  0
SECTION
  2
ENTITIES
  0
CIRCLE
  5
19EC8
  8
0
 10
4574.4224100925121093
 20
572.8142035445315514
 30
0.0
 40
1.2598425197000001
  0
CIRCLE
  5
19EC9
  8
0
 10
4574.4224100925121093
 20
572.8142035445315514
 30
0.0
 40
0.8858267717
  0
LINE
  5
19ECA
  8
0
 10
4573.3209854299857398
 20
572.0021441373055495
 30
0.0
 11
4563.5584425656743406
 21
565.5477197810299685
 31
0.0
  0
LINE
  5
19ECB
  8
0
 10
4573.3209857919109709
 20
573.6262634426507248
 30
0.0
 11
4563.5584489194561684
 21
580.0806934720231993
 31
0.0
  0
ARC
  5
19ECC
  8
0
 10
4564.4506443702275647
 20
566.488661852474138
 30
0.0
 40
2.5963060995425842
 50
180.6054519607191935
 51
270.0
  0
ARC
  5
19ECD
  8
0
 10
4564.4506196503680258
 20
579.139770231793932
 30
0.0
 40
2.5962811044376082
 50
90.0
 51
179.3949116383585078
  0
ARC
  5
19ECE
  8
0
 10
4574.4227921526653518
 20
-83.5492210319204105
 30
0.0
 40
664.1390162328566475
 50
89.150965154542277
 51
90.8490994067241644
  0
ARC
  5
19ECF
  8
0
 10
4716.805834710333329
 20
572.8139451428691018
 30
0.0
 40
153.8007586692226027
 50
177.6746375125634927
 51
182.3251719314075103
  0
ARC
  5
19ED0
  8
0
 10
4564.6051533031468352
 20
566.584811875058449
 30
0.0
 40
1.4734868100661609
 50
180.4153521577794095
 51
269.0557074341510884
  0
ARC
  5
19ED1
  8
0
 10
4564.6051123096704032
 20
579.0436418563849656
 30
0.0
 40
1.4734246862027309
 50
90.9419188271790802
 51
179.5866661370002078
  0
CIRCLE
  5
19ED2
  8
0
 10
4574.4224100925121093
 20
572.8142035445315514
 30
0.0
 40
1.368421268500001
  0
ARC
  5
19ED3
  8
0
 10
4574.4185951097097131
 20
564.281854578626735
 30
0.0
 40
1.164386125636695
 50
89.9647955812371976
 51
97.2455782385243737
  0
ARC
  5
19ED4
  8
0
 10
4574.3841782335930475
 20
564.5429260710077415
 30
0.0
 40
0.9010594509459551
 50
97.1683147483834944
 51
104.5142679743548939
  0
ARC
  5
19ED5
  8
0
 10
4574.2931153252784497
 20
564.8861184469068348
 30
0.0
 40
0.5460019004202444
 50
104.2891342963415013
 51
114.5726003300932945
  0
ARC
  5
19ED6
  8
0
 10
4574.1865580424591826
 20
565.1248769438226418
 30
0.0
 40
0.2845650870079335
 50
115.0517708956239034
 51
122.8901610836777962
  0
ARC
  5
19ED7
  8
0
 10
4574.1218542250062455
 20
565.2246724801074151
 30
0.0
 40
0.1656293940135696
 50
122.8415067969349934
 51
132.4326568312554002
  0
ARC
  5
19ED8
  8
0
 10
4574.0738380524571767
 20
565.2766925897728925
 30
0.0
 40
0.0948378510928273
 50
132.2271471578654882
 51
146.4370528085007948
  0
ARC
  5
19ED9
  8
0
 10
4574.04150906893301
 20
565.298364102119649
 30
0.0
 40
0.0559179407367836
 50
146.6268638753901996
 51
163.3045464939015972
  0
ARC
  5
19EDA
  8
0
 10
4574.0274375566959861
 20
565.3027193678391313
 30
0.0
 40
0.0411886110193813
 50
163.4841925930066964
 51
185.8888572568669986
  0
ARC
  5
19EDB
  8
0
 10
4574.0301946330127976
 20
565.3036594747702566
 30
0.0
 40
0.0440324232436824
 50
186.737636714417107
 51
210.9451493537071087
  0
ARC
  5
19EDC
  8
0
 10
4574.0509396853522048
 20
565.3162112679813163
 30
0.0
 40
0.0682790426542578
 50
211.0271391632452946
 51
226.4831363597843961
  0
ARC
  5
19EDD
  8
0
 10
4574.089538732998335
 20
565.3578360674458736
 30
0.0
 40
0.1250440395686315
 50
226.790395394224106
 51
239.4040629784919076
  0
ARC
  5
19EDE
  8
0
 10
4574.1837125216407003
 20
565.531406703182256
 30
0.0
 40
0.3224646730672114
 50
240.6979220194544951
 51
255.4156525385772056
  0
ARC
  5
19EDF
  8
0
 10
4574.3402648453193251
 20
566.1219481446266855
 30
0.0
 40
0.933402560897878
 50
255.2433715014389861
 51
264.4271241201316798
  0
ARC
  5
19EE0
  8
0
 10
4574.4162113139827852
 20
566.8137040849049981
 30
0.0
 40
1.6292859048733761
 50
264.1313793096417157
 51
270.1089882844696035
  0
LINE
  5
19EE1
  8
0
 10
4575.5238348475204475
 20
572.0021442627452188
 30
0.0
 11
4585.2863776327430969
 21
565.5477203598020424
 31
0.0
  0
LINE
  5
19EE2
  8
0
 10
4575.5238344855943069
 20
573.6262633172110554
 30
0.0
 11
4585.2863838576213311
 21
580.080680216137921
 31
0.0
  0
ARC
  5
19EE3
  8
0
 10
4584.3533617424291151
 20
566.5036882284049398
 30
0.0
 40
2.6373170567135289
 50
278.0495489213539031
 51
359.077485811405495
  0
ARC
  5
19EE4
  8
0
 10
4584.3942005346543738
 20
579.1397702317940457
 30
0.0
 40
2.596281104437574
 50
0.6050883616414394
 51
90.0
  0
ARC
  5
19EE5
  8
0
 10
4451.7180767644567823
 20
572.8144905964875306
 30
0.0
 40
134.1402444196100987
 50
357.3335745803054238
 51
2.6661737269704489
  0
ARC
  5
19EE6
  8
0
 10
4584.2396856570767341
 20
566.5847665705854297
 30
0.0
 40
1.47344118824806
 50
270.9437524346918167
 51
359.586698644675721
  0
ARC
  5
19EE7
  8
0
 10
4584.2396709674603699
 20
579.043594979784757
 30
0.0
 40
1.4734835125950321
 50
0.4144957268215171
 51
89.0560671864149782
  0
ARC
  5
19EE8
  8
0
 10
4574.4224093844313757
 20
1228.9263188588720368
 30
0.0
 40
663.8877436816433146
 50
269.1506104166621185
 51
270.8493900624919206
  0
ARC
  5
19EE9
  8
0
 10
4574.4200259841836669
 20
564.281854578626735
 30
0.0
 40
1.164386125636695
 50
82.7544217614756263
 51
90.0352044187628167
  0
ARC
  5
19EEA
  8
0
 10
4574.454442860301242
 20
564.5429260710077415
 30
0.0
 40
0.9010594509459551
 50
75.4857320256450919
 51
82.8316852516165056
  0
ARC
  5
19EEB
  8
0
 10
4574.5455057686149303
 20
564.8861184469068348
 30
0.0
 40
0.5460019004202444
 50
65.4273996699066913
 51
75.7108657036584702
  0
ARC
  5
19EEC
  8
0
 10
4574.6520630514351069
 20
565.1248769438226418
 30
0.0
 40
0.2845650870079335
 50
57.1098389163221682
 51
64.9482291043761109
  0
ARC
  5
19EED
  8
0
 10
4574.7167668688871345
 20
565.2246724801074151
 30
0.0
 40
0.1656293940135696
 50
47.5673431687445927
 51
57.1584932030649995
  0
ARC
  5
19EEE
  8
0
 10
4574.7647830414371128
 20
565.2766925897728925
 30
0.0
 40
0.0948378510928273
 50
33.5629471914992266
 51
47.7728528421344834
  0
ARC
  5
19EEF
  8
0
 10
4574.79711202496037
 20
565.298364102119649
 30
0.0
 40
0.0559179407367836
 50
16.6954535060983993
 51
33.3731361246098075
  0
ARC
  5
19EF0
  8
0
 10
4574.8111835371973939
 20
565.3027193678391313
 30
0.0
 40
0.0411886110193813
 50
354.1111427431264929
 51
16.5158074069933001
  0
ARC
  5
19EF1
  8
0
 10
4574.808426460879673
 20
565.3036594747702566
 30
0.0
 40
0.0440324232436824
 50
329.0548506462928913
 51
353.2623632855829214
  0
ARC
  5
19EF2
  8
0
 10
4574.7876814085420847
 20
565.3162112679813163
 30
0.0
 40
0.0682790426542578
 50
313.5168636402156039
 51
328.9728608367547054
  0
ARC
  5
19EF3
  8
0
 10
4574.7490823608959545
 20
565.3578360674458736
 30
0.0
 40
0.1250440395686315
 50
300.5959370215081208
 51
313.2096046057757803
  0
ARC
  5
19EF4
  8
0
 10
4574.6549085722517702
 20
565.531406703182256
 30
0.0
 40
0.3224646730672114
 50
284.5843474614227944
 51
299.3020779805455049
  0
ARC
  5
19EF5
  8
0
 10
4574.4983562485740549
 20
566.1219481446266855
 30
0.0
 40
0.933402560897878
 50
275.5728758798682065
 51
284.7566284985609855
  0
ARC
  5
19EF6
  8
0
 10
4574.4224097799124138
 20
566.8137040849049981
 30
0.0
 40
1.6292859048733761
 50
269.8910117155305102
 51
275.8686206903582843
  0
ARC
  5
19EF7
  8
0
 10
4922.3602487512889638
 20
572.8142048416156058
 30
0.0
 40
360.5617385494040832
 50
178.9904142675138132
 51
181.0095848326378984
  0
ARC
  5
19EF8
  8
0
 10
4226.4845713539052667
 20
572.8142048409098379
 30
0.0
 40
360.5617386292332753
 50
358.9904151676942092
 51
1.009585732375456
  0
LINE
  5
19EF9
  8
0
 10
4584.3942005346543738
 20
581.7360513362316397
 30
0.0
 11
4564.4506196503680258
 21
581.7360513362316397
 31
0.0
  0
LINE
  5
19EFA
  8
0
 10
4584.7226637322000897
 20
563.8923557528315769
 30
0.0
 11
4564.4506443702275647
 21
563.8923557528315769
 31
0.0
  0
ATTDEF
  5
19EFC
  8
DEFPOINTS
 10
4574.4225354514810533
 20
572.8131793743003755
 30
0.0
 40
0.001
  1
K-20414T
  3

  2
MODELNUMBER
 70
     0
1001
ACDBATTR
1070
     0
1070
     1
  0
ATTDEF
  5
19EFD
  8
DEFPOINTS
 10
4574.4224096418247427
 20
572.8115125339211318
 30
0.0
 40
0.001
  1
CAXTON
  3

  2
TRADENAME
 70
     0
1001
ACDBATTR
1070
     0
1070
     1
  0
ATTDEF
  5
19EFE
  8
DEFPOINTS
 10
4574.4225354514810533
 20
572.8098460409670452
 30
0.0
 40
0.001
  1
BATHROOM SINK
  3

  2
PRODUCT
 70
     0
1001
ACDBATTR
1070
     0
1070
     1
  0
ENDSEC
  0
EOF
