  0
SECTION
  2
HEADER
  9
$ACADVER
  1
AC1009
  9
$INSBASE
 10
3310.4092294588431287
 20
145.3786590031068897
 30
0.0
  9
$EXTMIN
 10
3309.5708481445508369
 20
145.3786590031000117
 30
0.0
  9
$EXTMAX
 10
3311.2476107731349657
 20
145.9631548692069032
 30
0.0
  9
$LIMMIN
 10
0.0
 20
0.0
  9
$LIMMAX
 10
11.6929133858000007
 20
8.2677165353999982
  9
$ORTHOMODE
 70
     0
  9
$REGENMODE
 70
     1
  9
$FILLMODE
 70
     1
  9
$QTEXTMODE
 70
     0
  9
$MIRRTEXT
 70
     0
  9
$DRAGMODE
 70
     2
  9
$LTSCALE
 40
0.6431102362
  9
$OSMODE
 70
    23
  9
$ATTMODE
 70
     1
  9
$TEXTSIZE
 40
0.2
  9
$TRACEWID
 40
0.05
  9
$TEXTSTYLE
  7
STANDARD
  9
$CLAYER
  8
0
  9
$CELTYPE
  6
BYLAYER
  9
$CECOLOR
 62
   256
  9
$DIMSCALE
 40
1.0
  9
$DIMASZ
 40
0.1875
  9
$DIMEXO
 40
0.0625
  9
$DIMDLI
 40
0.4443307087
  9
$DIMRND
 40
0.0
  9
$DIMDLE
 40
0.0
  9
$DIMEXE
 40
0.125
  9
$DIMTP
 40
0.01
  9
$DIMTM
 40
0.01
  9
$DIMTXT
 40
2.0
  9
$DIMCEN
 40
0.1052362205
  9
$DIMTSZ
 40
0.0
  9
$DIMTOL
 70
     1
  9
$DIMLIM
 70
     0
  9
$DIMTIH
 70
     1
  9
$DIMTOH
 70
     1
  9
$DIMSE1
 70
     0
  9
$DIMSE2
 70
     0
  9
$DIMTAD
 70
     0
  9
$DIMZIN
 70
     0
  9
$DIMBLK
  1

  9
$DIMASO
 70
     1
  9
$DIMSHO
 70
     1
  9
$DIMPOST
  1
\X
  9
$DIMAPOST
  1

  9
$DIMALT
 70
     1
  9
$DIMALTD
 70
     2
  9
$DIMALTF
 40
25.3999999999999986
  9
$DIMLFAC
 40
1.0
  9
$DIMTOFL
 70
     0
  9
$DIMTVP
 40
0.0
  9
$DIMTIX
 70
     0
  9
$DIMSOXD
 70
     0
  9
$DIMSAH
 70
     0
  9
$DIMBLK1
  1

  9
$DIMBLK2
  1

  9
$DIMSTYLE
  2
STANDARD
  9
$DIMCLRD
 70
     0
  9
$DIMCLRE
 70
     0
  9
$DIMCLRT
 70
     0
  9
$DIMTFAC
 40
1.0
  9
$DIMGAP
 40
0.09
  9
$LUNITS
 70
     2
  9
$LUPREC
 70
     4
  9
$SKETCHINC
 40
0.1
  9
$FILLETRAD
 40
0.0
  9
$AUNITS
 70
     0
  9
$AUPREC
 70
     0
  9
$MENU
  1
.
  9
$ELEVATION
 40
0.0
  9
$PELEVATION
 40
0.0
  9
$THICKNESS
 40
0.0
  9
$LIMCHECK
 70
     0
  9
$BLIPMODE
 70
     0
  9
$CHAMFERA
 40
0.0
  9
$CHAMFERB
 40
0.0
  9
$SKPOLY
 70
     0
  9
$TDCREATE
 40
2458060.468368056230247
  9
$TDUPDATE
 40
2459779.4665972217917442
  9
$TDINDWG
 40
1.2379005786999999
  9
$TDUSRTIMER
 40
1.2379005786999999
  9
$USRTIMER
 70
     1
  9
$ANGBASE
 50
0.0
  9
$ANGDIR
 70
     0
  9
$PDMODE
 70
     0
  9
$PDSIZE
 40
0.3125
  9
$PLINEWID
 40
0.0
  9
$COORDS
 70
     1
  9
$SPLFRAME
 70
     0
  9
$SPLINETYPE
 70
     6
  9
$SPLINESEGS
 70
     8
  9
$ATTDIA
 70
     1
  9
$ATTREQ
 70
     1
  9
$HANDLING
 70
     1
  9
$HANDSEED
  5
25B11
  9
$SURFTAB1
 70
     6
  9
$SURFTAB2
 70
     6
  9
$SURFTYPE
 70
     6
  9
$SURFU
 70
     6
  9
$SURFV
 70
     6
  9
$UCSNAME
  2

  9
$UCSORG
 10
0.0
 20
0.0
 30
0.0
  9
$UCSXDIR
 10
1.0
 20
0.0
 30
0.0
  9
$UCSYDIR
 10
0.0
 20
1.0
 30
0.0
  9
$PUCSNAME
  2

  9
$PUCSORG
 10
0.0
 20
0.0
 30
0.0
  9
$PUCSXDIR
 10
1.0
 20
0.0
 30
0.0
  9
$PUCSYDIR
 10
0.0
 20
1.0
 30
0.0
  9
$USERI1
 70
     0
  9
$USERI2
 70
     0
  9
$USERI3
 70
     0
  9
$USERI4
 70
     0
  9
$USERI5
 70
     0
  9
$USERR1
 40
0.0
  9
$USERR2
 40
0.0
  9
$USERR3
 40
0.0
  9
$USERR4
 40
0.0
  9
$USERR5
 40
0.0
  9
$WORLDVIEW
 70
     1
  9
$SHADEDGE
 70
     3
  9
$SHADEDIF
 70
    70
  9
$TILEMODE
 70
     1
  9
$MAXACTVP
 70
    64
  9
$PLIMCHECK
 70
     0
  9
$PEXTMIN
 10
1.0000000000000000E+20
 20
1.0000000000000000E+20
 30
1.0000000000000000E+20
  9
$PEXTMAX
 10
-1.0000000000000000E+20
 20
-1.0000000000000000E+20
 30
-1.0000000000000000E+20
  9
$PLIMMIN
 10
0.0
 20
0.0
  9
$PLIMMAX
 10
12.0
 20
9.0
  9
$UNITMODE
 70
     0
  9
$VISRETAIN
 70
     1
  9
$PLINEGEN
 70
     0
  9
$PSLTSCALE
 70
     1
  0
ENDSEC
  0
SECTION
  2
TABLES
  0
TABLE
  2
VPORT
 70
     1
  0
VPORT
  2
*ACTIVE
 70
     0
 10
0.0
 20
0.0
 11
1.0
 21
1.0
 12
17.1863290682179013
 22
-3.1312756293789898
 13
0.0
 23
0.0
 14
1.0
 24
1.0
 15
0.0
 25
0.0
 16
0.0
 26
0.0
 36
24.2872953636903084
 17
3293.222900390625
 27
148.8021825655324051
 37
0.0
 40
0.7367093141137742
 41
2.2831541218637992
 42
50.0
 43
0.0
 44
0.0
 50
0.0
 51
0.0
 71
     0
 72
   100
 73
     1
 74
     1
 75
     0
 76
     0
 77
     0
 78
     0
  0
ENDTAB
  0
TABLE
  2
LTYPE
 70
     2
  0
LTYPE
  2
CONTINUOUS
 70
     0
  3
Solid line
 72
    65
 73
     0
 40
0.0
  0
LTYPE
  2
PHANTOM2
 70
     0
  3
___ _ _ ___ _ _ ___ _ _ ___ _ _
 72
    65
 73
     6
 40
1.25
 49
0.625
 49
-0.125
 49
0.125
 49
-0.125
 49
0.125
 49
-0.125
  0
ENDTAB
  0
TABLE
  2
LAYER
 70
     2
  0
LAYER
  2
0
 70
     0
 62
   255
  6
CONTINUOUS
  0
LAYER
  2
DEFPOINTS
 70
     0
 62
     7
  6
CONTINUOUS
  0
ENDTAB
  0
TABLE
  2
STYLE
 70
     1
  0
STYLE
  2
STANDARD
 70
     0
 40
0.0
 41
0.8
 50
0.0
 71
     0
 42
0.2
  3
txt
  4

  0
ENDTAB
  0
TABLE
  2
VIEW
 70
     0
  0
ENDTAB
  0
TABLE
  2
UCS
 70
     0
  0
ENDTAB
  0
TABLE
  2
APPID
 70
     9
  0
APPID
  2
ACAD
 70
     0
  0
APPID
  2
ACAD_MLEADERVER
 70
     0
  0
APPID
  2
ACAD_EXEMPT_FROM_CAD_STANDARDS
 70
     0
  0
APPID
  2
ACAD_NAV_VCDISPLAY
 70
     0
  0
APPID
  2
ACAECLAYERSTANDARD
 70
     0
  0
APPID
  2
ACCMTRANSPARENCY
 70
     0
  0
APPID
  2
ACAD_DSTYLE_DIMJAG
 70
     0
  0
APPID
  2
ACAD_DSTYLE_DIMTALN
 70
     0
  0
APPID
  2
ACDBATTR
 70
     0
  0
ENDTAB
  0
TABLE
  2
DIMSTYLE
 70
     1
  0
DIMSTYLE
  2
STANDARD
 70
     0
  3

  4

  5

  6

  7

 40
1.0
 41
0.1875
 42
0.0625
 43
0.38
 44
0.125
 45
0.0
 46
0.0
 47
0.01
 48
0.01
140
0.15625
141
0.09
142
0.0
143
25.3999999999999986
144
1.0
145
0.0
146
1.0
147
0.09
 71
     1
 72
     0
 73
     1
 74
     1
 75
     0
 76
     0
 77
     0
 78
     4
170
     0
171
     2
172
     0
173
     0
174
     0
175
     0
176
     0
177
     0
178
     0
  0
ENDTAB
  0
ENDSEC
  0
SECTION
  2
BLOCKS
  0
BLOCK
  8
0
  2
$MODEL_SPACE
 70
     0
 10
0.0
 20
0.0
 30
0.0
  3
$MODEL_SPACE
  1

  0
ENDBLK
  5
21
  8
0
  0
BLOCK
 67
     1
  8
0
  2
$PAPER_SPACE
 70
     0
 10
0.0
 20
0.0
 30
0.0
  3
$PAPER_SPACE
  1

  0
ENDBLK
  5
1D
 67
     1
  8
0
  0
ENDSEC
  0
SECTION
  2
ENTITIES
  0
ATTDEF
  5
2143C
  8
DEFPOINTS
 10
3310.4093022007109539
 20
145.3820533073912031
 30
0.0
 40
0.001
  1
K-20448T-4
  3

  2
MODELNUMBER
 70
     0
1001
ACDBATTR
1070
     0
1070
     1
  0
ATTDEF
  5
2143D
  8
DEFPOINTS
 10
3310.4093022007109539
 20
145.3803866407245096
 30
0.0
 40
0.001
  1
AVID
  3

  2
TRADENAME
 70
     0
1001
ACDBATTR
1070
     0
1070
     1
  0
ATTDEF
  5
2143E
  8
DEFPOINTS
 10
3310.4093022007109539
 20
145.3787199740579013
 30
0.0
 40
0.001
  1
BATHROOM SINK FAUCET HANDLES
  3

  2
PRODUCT
 70
     0
1001
ACDBATTR
1070
     0
1070
     1
  0
LINE
  5
259ED
  8
0
 10
3310.1212875498649737
 20
145.3786590031068897
 30
0.0
 11
3310.6971713678208289
 21
145.3786590031068897
 31
0.0
  0
LINE
  5
259EE
  8
0
 10
3309.71495989249388
 20
145.9631548692069032
 30
0.0
 11
3311.1034990251919226
 21
145.9631548692069032
 31
0.0
  0
LINE
  5
259EF
  8
0
 10
3310.1060798524940765
 20
145.622902749377289
 30
0.0
 11
3310.1060798524940765
 21
145.3903172374068902
 31
0.0
  0
ARC
  5
259F0
  8
0
 10
3310.5436291797677768
 20
145.4122730907537004
 30
0.0
 40
1.006497726977825
 50
147.7388693495099119
 51
158.2691607258634861
  0
ARC
  5
259F1
  8
0
 10
3310.2289076805700461
 20
145.5234262775502998
 30
0.0
 40
0.6731191259166613
 50
157.1394862402482033
 51
167.7823681503190869
  0
ARC
  5
259F2
  8
0
 10
3309.6057266138300292
 20
145.6999438185569034
 30
0.0
 40
0.0568594685416505
 50
241.8057613433005031
 51
258.887288352307678
  0
ARC
  5
259F3
  8
0
 10
3309.6893526121411924
 20
146.1256890950648994
 30
0.0
 40
0.4907400374338782
 50
258.887288352307678
 51
267.7134062163892736
  0
ARC
  5
259F4
  8
0
 10
3309.8995411435130336
 20
149.2359709908390926
 30
0.0
 40
3.6079548641255652
 50
266.3487193352518716
 51
267.8783634581861861
  0
ARC
  5
259F5
  8
0
 10
3309.7195018995139435
 20
145.9303775103126952
 30
0.0
 40
0.033090558832583
 50
97.8893197247016928
 51
144.6552225434390948
  0
ARC
  5
259F6
  8
0
 10
3309.5864652473810565
 20
145.6634723234656974
 30
0.0
 40
0.0156171028296387
 50
171.1481050629440972
 51
240.8687970486328993
  0
ARC
  5
259F7
  8
0
 10
3310.1212875498649737
 20
145.3944070347843933
 30
0.0
 40
0.0157480316844567
 50
195.0523883544952923
 51
270.0
  0
LINE
  5
259F8
  8
0
 10
3310.7123790651930904
 20
145.622902749377289
 30
0.0
 11
3310.7123790651930904
 21
145.3903172374068902
 31
0.0
  0
ARC
  5
259F9
  8
0
 10
3310.6971713678208289
 20
145.3944070347843933
 30
0.0
 40
0.0157480316844567
 50
270.0
 51
344.9476116455047077
  0
ARC
  5
259FA
  8
0
 10
3310.2748297379180258
 20
145.4122730907537004
 30
0.0
 40
1.006497726977825
 50
21.7308392741364891
 51
32.2611306504901094
  0
ARC
  5
259FB
  8
0
 10
3310.5895512371171208
 20
145.5234262775502998
 30
0.0
 40
0.6731191259166613
 50
12.2176318496808793
 51
22.8605137597517896
  0
ARC
  5
259FC
  8
0
 10
3311.2127323038557734
 20
145.6999438185569034
 30
0.0
 40
0.0568594685416505
 50
281.112711647692322
 51
298.1942386566994969
  0
ARC
  5
259FD
  8
0
 10
3311.129106305545065
 20
146.1256890950648994
 30
0.0
 40
0.4907400374338782
 50
272.2865937836107264
 51
281.112711647692322
  0
ARC
  5
259FE
  8
0
 10
3310.9189177741741332
 20
149.2359709908390926
 30
0.0
 40
3.6079548641255652
 50
272.1216365418138139
 51
273.6512806647480147
  0
ARC
  5
259FF
  8
0
 10
3311.0989570181732233
 20
145.9303775103126952
 30
0.0
 40
0.033090558832583
 50
35.3447774565609265
 51
82.1106802752983072
  0
ARC
  5
25A00
  8
0
 10
3311.2319936703038366
 20
145.6634723234656974
 30
0.0
 40
0.0156171028296387
 50
299.1312029513670723
 51
8.8518949370558548
  0
ARC
  5
25A01
  8
0
 10
3310.4092294588431287
 20
166.8403137091968063
 30
0.0
 40
21.2195765160782486
 50
268.2628467550254072
 51
271.7371532449745928
  0
ARC
  5
25A03
  8
0
 10
3309.6469071465357956
 20
145.8423990955529064
 30
0.0
 40
0.0817177108084418
 50
244.0848959989345133
 51
264.5178316082278798
  0
ARC
  5
25A04
  8
0
 10
3311.2107906103369714
 20
144.9871650298487964
 30
0.0
 40
1.7518894912792331
 50
153.7846655540546124
 51
155.2120817316476007
  0
ARC
  5
25A05
  8
0
 10
3309.8029266382682181
 20
145.6624960343083899
 30
0.0
 40
0.219278797235747
 50
150.9718538376802996
 51
162.2059352229937872
  0
ARC
  5
25A06
  8
0
 10
3309.6232296272628446
 20
145.7789923303429873
 30
0.0
 40
0.0574032704650483
 50
239.5493849392175036
 51
267.0844512664485251
  0
ARC
  5
25A07
  8
0
 10
3311.171551771150007
 20
145.8423990955529064
 30
0.0
 40
0.0817177108084418
 50
275.4821683917721202
 51
295.9151040010655151
  0
ARC
  5
25A08
  8
0
 10
3309.6076683073488311
 20
144.9871650298487964
 30
0.0
 40
1.7518894912792331
 50
24.7879182683524313
 51
26.2153344459454196
  0
ARC
  5
25A09
  8
0
 10
3311.0155322794180393
 20
145.6624960343083899
 30
0.0
 40
0.219278797235747
 50
17.7940647770061702
 51
29.028146162319679
  0
ARC
  5
25A0A
  8
0
 10
3311.195229290422958
 20
145.7789923303429873
 30
0.0
 40
0.0574032704650483
 50
272.9155487335514749
 51
300.4506150607824111
  0
ENDSEC
  0
EOF
