  0
SECTION
  2
HEADER
  9
$ACADVER
  1
AC1009
  9
$INSBASE
 10
4453.8226562842946805
 20
257.7925280207754213
 30
0.0
  9
$EXTMIN
 10
4443.1164751818951117
 20
256.595789818325386
 30
0.0
  9
$EXTMAX
 10
4453.8334441569049886
 20
267.111425658525377
 30
0.0
  9
$LIMMIN
 10
0.0
 20
0.0
  9
$LIMMAX
 10
11.6929133858000007
 20
8.2677165353999982
  9
$ORTHOMODE
 70
     0
  9
$REGENMODE
 70
     1
  9
$FILLMODE
 70
     1
  9
$QTEXTMODE
 70
     0
  9
$MIRRTEXT
 70
     0
  9
$DRAGMODE
 70
     2
  9
$LTSCALE
 40
0.6431102362
  9
$OSMODE
 70
   563
  9
$ATTMODE
 70
     1
  9
$TEXTSIZE
 40
0.2
  9
$TRACEWID
 40
0.05
  9
$TEXTSTYLE
  7
STANDARD
  9
$CLAYER
  8
0
  9
$CELTYPE
  6
BYLAYER
  9
$CECOLOR
 62
   256
  9
$DIMSCALE
 40
1.0
  9
$DIMASZ
 40
0.1875
  9
$DIMEXO
 40
0.0625
  9
$DIMDLI
 40
0.4443307087
  9
$DIMRND
 40
0.0
  9
$DIMDLE
 40
0.0
  9
$DIMEXE
 40
0.125
  9
$DIMTP
 40
0.01
  9
$DIMTM
 40
0.01
  9
$DIMTXT
 40
2.0
  9
$DIMCEN
 40
0.1052362205
  9
$DIMTSZ
 40
0.0
  9
$DIMTOL
 70
     1
  9
$DIMLIM
 70
     0
  9
$DIMTIH
 70
     1
  9
$DIMTOH
 70
     1
  9
$DIMSE1
 70
     0
  9
$DIMSE2
 70
     0
  9
$DIMTAD
 70
     0
  9
$DIMZIN
 70
     0
  9
$DIMBLK
  1

  9
$DIMASO
 70
     1
  9
$DIMSHO
 70
     1
  9
$DIMPOST
  1
\X
  9
$DIMAPOST
  1

  9
$DIMALT
 70
     1
  9
$DIMALTD
 70
     2
  9
$DIMALTF
 40
25.3999999999999986
  9
$DIMLFAC
 40
1.0
  9
$DIMTOFL
 70
     0
  9
$DIMTVP
 40
0.0
  9
$DIMTIX
 70
     0
  9
$DIMSOXD
 70
     0
  9
$DIMSAH
 70
     0
  9
$DIMBLK1
  1

  9
$DIMBLK2
  1

  9
$DIMSTYLE
  2
STANDARD
  9
$DIMCLRD
 70
     0
  9
$DIMCLRE
 70
     0
  9
$DIMCLRT
 70
     0
  9
$DIMTFAC
 40
1.0
  9
$DIMGAP
 40
0.09
  9
$LUNITS
 70
     2
  9
$LUPREC
 70
     4
  9
$SKETCHINC
 40
0.1
  9
$FILLETRAD
 40
0.0
  9
$AUNITS
 70
     0
  9
$AUPREC
 70
     0
  9
$MENU
  1
.
  9
$ELEVATION
 40
0.0
  9
$PELEVATION
 40
0.0
  9
$THICKNESS
 40
0.0
  9
$LIMCHECK
 70
     0
  9
$BLIPMODE
 70
     0
  9
$CHAMFERA
 40
0.0
  9
$CHAMFERB
 40
0.0
  9
$SKPOLY
 70
     0
  9
$TDCREATE
 40
2458060.468368056230247
  9
$TDUPDATE
 40
2459208.6561574069783092
  9
$TDINDWG
 40
0.4741390046
  9
$TDUSRTIMER
 40
0.4741390046
  9
$USRTIMER
 70
     1
  9
$ANGBASE
 50
0.0
  9
$ANGDIR
 70
     0
  9
$PDMODE
 70
     0
  9
$PDSIZE
 40
0.3125
  9
$PLINEWID
 40
0.0
  9
$COORDS
 70
     1
  9
$SPLFRAME
 70
     0
  9
$SPLINETYPE
 70
     6
  9
$SPLINESEGS
 70
     8
  9
$ATTDIA
 70
     1
  9
$ATTREQ
 70
     1
  9
$HANDLING
 70
     1
  9
$HANDSEED
  5
1D6F4
  9
$SURFTAB1
 70
     6
  9
$SURFTAB2
 70
     6
  9
$SURFTYPE
 70
     6
  9
$SURFU
 70
     6
  9
$SURFV
 70
     6
  9
$UCSNAME
  2

  9
$UCSORG
 10
0.0
 20
0.0
 30
0.0
  9
$UCSXDIR
 10
1.0
 20
0.0
 30
0.0
  9
$UCSYDIR
 10
0.0
 20
1.0
 30
0.0
  9
$PUCSNAME
  2

  9
$PUCSORG
 10
0.0
 20
0.0
 30
0.0
  9
$PUCSXDIR
 10
1.0
 20
0.0
 30
0.0
  9
$PUCSYDIR
 10
0.0
 20
1.0
 30
0.0
  9
$USERI1
 70
     0
  9
$USERI2
 70
     0
  9
$USERI3
 70
     0
  9
$USERI4
 70
     0
  9
$USERI5
 70
     0
  9
$USERR1
 40
0.0
  9
$USERR2
 40
0.0
  9
$USERR3
 40
0.0
  9
$USERR4
 40
0.0
  9
$USERR5
 40
0.0
  9
$WORLDVIEW
 70
     1
  9
$SHADEDGE
 70
     3
  9
$SHADEDIF
 70
    70
  9
$TILEMODE
 70
     1
  9
$MAXACTVP
 70
    64
  9
$PLIMCHECK
 70
     0
  9
$PEXTMIN
 10
1.0000000000000000E+20
 20
1.0000000000000000E+20
 30
1.0000000000000000E+20
  9
$PEXTMAX
 10
-1.0000000000000000E+20
 20
-1.0000000000000000E+20
 30
-1.0000000000000000E+20
  9
$PLIMMIN
 10
0.0
 20
0.0
  9
$PLIMMAX
 10
12.0
 20
9.0
  9
$UNITMODE
 70
     0
  9
$VISRETAIN
 70
     1
  9
$PLINEGEN
 70
     0
  9
$PSLTSCALE
 70
     1
  0
ENDSEC
  0
SECTION
  2
TABLES
  0
TABLE
  2
VPORT
 70
     1
  0
VPORT
  2
*ACTIVE
 70
     0
 10
0.0
 20
0.0
 11
1.0
 21
1.0
 12
537.1514231653228535
 22
129.2736581492052892
 13
0.0
 23
0.0
 14
1.0
 24
1.0
 15
0.0
 25
0.0
 16
0.0
 26
0.0
 36
60.4960186965801583
 17
3911.3653564453120453
 27
132.5796051025390057
 37
0.0
 40
13.7932743797975306
 41
1.9002217294900221
 42
50.0
 43
0.0
 44
0.0
 50
0.0
 51
0.0
 71
     0
 72
   100
 73
     1
 74
     1
 75
     0
 76
     0
 77
     0
 78
     0
  0
ENDTAB
  0
TABLE
  2
LTYPE
 70
     2
  0
LTYPE
  2
CONTINUOUS
 70
     0
  3
Solid line
 72
    65
 73
     0
 40
0.0
  0
LTYPE
  2
PHANTOM2
 70
     0
  3
___ _ _ ___ _ _ ___ _ _ ___ _ _
 72
    65
 73
     6
 40
1.25
 49
0.625
 49
-0.125
 49
0.125
 49
-0.125
 49
0.125
 49
-0.125
  0
ENDTAB
  0
TABLE
  2
LAYER
 70
     2
  0
LAYER
  2
0
 70
     0
 62
   255
  6
CONTINUOUS
  0
LAYER
  2
DEFPOINTS
 70
     0
 62
     7
  6
CONTINUOUS
  0
ENDTAB
  0
TABLE
  2
STYLE
 70
     1
  0
STYLE
  2
STANDARD
 70
     0
 40
0.0
 41
0.8
 50
0.0
 71
     0
 42
0.2
  3
txt
  4

  0
ENDTAB
  0
TABLE
  2
VIEW
 70
     0
  0
ENDTAB
  0
TABLE
  2
UCS
 70
     0
  0
ENDTAB
  0
TABLE
  2
APPID
 70
    11
  0
APPID
  2
ACAD
 70
     0
  0
APPID
  2
ACAD_MLEADERVER
 70
     0
  0
APPID
  2
ACAD_EXEMPT_FROM_CAD_STANDARDS
 70
     0
  0
APPID
  2
ACAD_NAV_VCDISPLAY
 70
     0
  0
APPID
  2
ACAECLAYERSTANDARD
 70
     0
  0
APPID
  2
ACCMTRANSPARENCY
 70
     0
  0
APPID
  2
ACAD_DSTYLE_DIMJAG
 70
     0
  0
APPID
  2
ACAD_DSTYLE_DIMTALN
 70
     0
  0
APPID
  2
ACDBATTR
 70
     0
  0
APPID
  2
ACADANNOTATIVE
 70
     0
  0
APPID
  2
DCO15
 70
     0
  0
ENDTAB
  0
TABLE
  2
DIMSTYLE
 70
     1
  0
DIMSTYLE
  2
STANDARD
 70
     0
  3

  4

  5

  6

  7

 40
1.0
 41
0.1875
 42
0.0625
 43
0.38
 44
0.125
 45
0.0
 46
0.0
 47
0.01
 48
0.01
140
0.15625
141
0.09
142
0.0
143
25.3999999999999986
144
1.0
145
0.0
146
1.0
147
0.09
 71
     1
 72
     0
 73
     1
 74
     1
 75
     0
 76
     0
 77
     0
 78
     4
170
     0
171
     2
172
     0
173
     0
174
     0
175
     0
176
     0
177
     0
178
     0
  0
ENDTAB
  0
ENDSEC
  0
SECTION
  2
BLOCKS
  0
BLOCK
  8
0
  2
$MODEL_SPACE
 70
     0
 10
0.0
 20
0.0
 30
0.0
  3
$MODEL_SPACE
  1

  0
ENDBLK
  5
21
  8
0
  0
BLOCK
 67
     1
  8
0
  2
$PAPER_SPACE
 70
     0
 10
0.0
 20
0.0
 30
0.0
  3
$PAPER_SPACE
  1

  0
ENDBLK
  5
1D
 67
     1
  8
0
  0
BLOCK
  8
0
  2
_CLOSED
 70
     0
 10
0.0
 20
0.0
 30
0.0
  3
_CLOSED
  1

  0
LINE
  5
1D598
  8
0
  6
BYBLOCK
 62
     0
 10
0.0
 20
0.0
 30
0.0
 11
-1.0
 21
0.1666666667
 31
0.0
  0
LINE
  5
1D599
  8
0
  6
BYBLOCK
 62
     0
 10
-1.0
 20
0.1666666667
 30
0.0
 11
-1.0
 21
-0.1666666667
 31
0.0
  0
LINE
  5
1D59A
  8
0
  6
BYBLOCK
 62
     0
 10
-1.0
 20
-0.1666666667
 30
0.0
 11
0.0
 21
0.0
 31
0.0
  0
LINE
  5
1D59B
  8
0
  6
BYBLOCK
 62
     0
 10
-1.0
 20
0.0
 30
0.0
 11
0.0
 21
0.0
 31
0.0
  0
ENDBLK
  5
1D59C
  8
0
  6
BYBLOCK
 62
     0
  0
ENDSEC
  0
SECTION
  2
ENTITIES
  0
LINE
  5
1D5E6
  8
0
 10
4443.1164751819960657
 20
267.0917406191254031
 30
0.0
 11
4443.1164751819960657
 21
266.2255988869254111
 31
0.0
  0
LINE
  5
1D5E7
  8
0
 10
4451.8462783315953857
 20
257.2511894380253921
 30
0.0
 11
4451.8222625835960571
 21
257.2511894380253921
 31
0.0
  0
LINE
  5
1D5E8
  8
0
 10
4453.6439378123959614
 20
256.611425658525377
 30
0.0
 11
4453.8226562842946805
 21
256.595789818325386
 31
0.0
  0
LINE
  5
1D5E9
  8
0
 10
4451.8462783315953857
 20
258.3338666034252924
 30
0.0
 11
4451.8222625835960571
 21
258.3338666034252924
 31
0.0
  0
LINE
  5
1D5EA
  8
0
 10
4453.5864358118960808
 20
258.402764241225384
 30
0.0
 11
4453.1139949109947338
 21
258.402764241225384
 31
0.0
  0
LINE
  5
1D5EB
  8
0
 10
4451.9328924608953457
 20
258.402764241225384
 30
0.0
 11
4451.8541523472958943
 21
258.402764241225384
 31
0.0
  0
LINE
  5
1D5EC
  8
0
 10
4453.6439378123959614
 20
258.9736303829254211
 30
0.0
 11
4453.8226562842946805
 21
258.9892662232253997
 31
0.0
  0
LINE
  5
1D5ED
  8
0
 10
4452.9761995913959254
 20
259.9972524302253873
 30
0.0
 11
4452.0706877803959287
 21
259.9972524302253873
 31
0.0
  0
LINE
  5
1D5EE
  8
0
 10
4452.0706877803959287
 20
260.0051264459253844
 30
0.0
 11
4452.9761995913959254
 21
260.0051264459253844
 31
0.0
  0
LINE
  5
1D5EF
  8
0
 10
4450.4572099131946743
 20
260.0151420572253755
 30
0.0
 11
4450.4716689962951932
 21
257.2018756676254156
 31
0.0
  0
LINE
  5
1D5F0
  8
0
 10
4451.8222625835960571
 20
257.201976839625388
 30
0.0
 11
4451.8222625835960571
 21
258.3830787481253992
 31
0.0
  0
LINE
  5
1D5F1
  8
0
 10
4451.8541523472958943
 20
258.402764241225384
 30
0.0
 11
4451.8541523472958943
 21
257.1823045942073804
 31
0.0
  0
LINE
  5
1D5F2
  8
0
 10
4452.0706877803959287
 20
258.5405595560254142
 30
0.0
 11
4452.0706877803959287
 21
259.9972524302253873
 31
0.0
  0
LINE
  5
1D5F3
  8
0
 10
4452.0706877803959287
 20
260.0051264459253844
 30
0.0
 11
4452.0706877803959287
 21
265.1626067609254278
 31
0.0
  0
LINE
  5
1D5F4
  8
0
 10
4452.1297428984944418
 20
259.9972524302253873
 30
0.0
 11
4452.1297428984944418
 21
260.0051264459253844
 31
0.0
  0
LINE
  5
1D5F5
  8
0
 10
4452.3226131818955764
 20
260.0051264459253844
 30
0.0
 11
4452.3226131818955764
 21
259.9972524302253873
 31
0.0
  0
LINE
  5
1D5F6
  8
0
 10
4452.4100553081943872
 20
259.9972524302253873
 30
0.0
 11
4452.4100553081943872
 21
260.0051264459253844
 31
0.0
  0
LINE
  5
1D5F7
  8
0
 10
4452.6368320635947384
 20
260.0051264459253844
 30
0.0
 11
4452.6368320635947384
 21
259.9972524302253873
 31
0.0
  0
LINE
  5
1D5F8
  8
0
 10
4452.7242741899954126
 20
259.9972524302253873
 30
0.0
 11
4452.7242741899954126
 21
260.0051264459253844
 31
0.0
  0
LINE
  5
1D5F9
  8
0
 10
4452.9171444732946838
 20
259.9972524302253873
 30
0.0
 11
4452.9171444732946838
 21
260.0051264459253844
 31
0.0
  0
LINE
  5
1D5FA
  8
0
 10
4452.9761995913959254
 20
258.5405595560254142
 30
0.0
 11
4452.9761995913959254
 21
259.9972524302253873
 31
0.0
  0
LINE
  5
1D5FB
  8
0
 10
4452.9761995913959254
 20
260.0051264459253844
 30
0.0
 11
4452.9761995913959254
 21
265.1626067609254278
 31
0.0
  0
LINE
  5
1D5FC
  8
0
 10
4451.0273806937957488
 20
266.2059138475253803
 30
0.0
 11
4443.9904294048947122
 21
266.2059138475253803
 31
0.0
  0
LINE
  5
1D5FD
  8
0
 10
4443.3399225337952885
 20
266.2059138475253803
 30
0.0
 11
4443.1361602212946309
 21
266.2059138475253803
 31
0.0
  0
LINE
  5
1D5FE
  8
0
 10
4453.5864358118960808
 20
258.9108779610253919
 30
0.0
 11
4453.5864358118960808
 21
256.6741780804254063
 31
0.0
  0
LINE
  5
1D5FF
  8
0
 10
4453.8226562842946805
 20
256.595789818325386
 30
0.0
 11
4453.8226562842946805
 21
258.9892662232253997
 31
0.0
  0
LINE
  5
1D600
  8
0
 10
4451.0273806937957488
 20
267.111425658525377
 30
0.0
 11
4443.1361602212946309
 21
267.111425658525377
 31
0.0
  0
ARC
  5
1D601
  8
0
 10
4451.0273806937957488
 20
265.1626067609254278
 30
0.0
 40
1.9488188975999989
 50
0.0
 51
90.0
  0
ARC
  5
1D602
  8
0
 10
4451.0273806937957488
 20
265.1626067609254278
 30
0.0
 40
1.0433070866
 50
0.0
 51
90.0
  0
ARC
  5
1D603
  8
0
 10
4450.4350824833927618
 20
259.7461372888100186
 30
0.0
 40
0.2920164333572011
 50
78.7662348697184598
 51
81.1655756062611147
  0
ARC
  5
1D604
  8
0
 10
4453.1139958631256377
 20
258.5405605129554942
 30
0.0
 40
0.1377962717334898
 50
180.0003978922001977
 51
269.9996041036386032
  0
ARC
  5
1D605
  8
0
 10
4451.9328913882618508
 20
258.540560633358325
 30
0.0
 40
0.1377963921370998
 50
270.0004460010558205
 51
359.9995520446598789
  0
ARC
  5
1D606
  8
0
 10
4453.6494279378957799
 20
256.6741780804254063
 30
0.0
 40
0.062992126
 50
180.0
 51
264.9999999999743068
  0
ARC
  5
1D607
  8
0
 10
4453.6494279378957799
 20
258.9108779610253919
 30
0.0
 40
0.062992126
 50
94.999999999973781
 51
180.0
  0
ARC
  5
1D608
  8
0
 10
4451.8025699327872644
 20
258.383071408196372
 30
0.0
 40
0.0196926521763719
 50
0.0213555266818569
 51
89.978955691959726
  0
ARC
  5
1D609
  8
0
 10
4451.8025700044154291
 20
257.2019841151951027
 30
0.0
 40
0.0196925805250038
 50
272.0867682186740808
 51
359.9788316494687024
  0
ARC
  5
1D60A
  8
0
 10
4450.491361216984842
 20
257.2019840649037974
 30
0.0
 40
0.0196925190280658
 50
180.3153856509458137
 51
267.914124090050791
  0
ARC
  5
1D60B
  8
0
 10
4443.1361602212946309
 20
267.0917406191254031
 30
0.0
 40
0.0196850394
 50
90.0
 51
180.0
  0
ARC
  5
1D60C
  8
0
 10
4443.1361602212946309
 20
266.2255988869254111
 30
0.0
 40
0.0196850394
 50
180.0
 51
270.0
  0
ARC
  5
1D60D
  8
0
 10
4450.4768925995313111
 20
260.0152421912649743
 30
0.0
 40
0.0196829410450486
 50
81.1221494239207033
 51
180.2914850270159945
  0
ARC
  5
1D60E
  8
0
 10
4451.8462783315953857
 20
257.2590634538253767
 30
0.0
 40
0.0078740157
 50
270.0
 51
0.0
  0
ARC
  5
1D60F
  8
0
 10
4451.8462783315953857
 20
258.3259925877252954
 30
0.0
 40
0.0078740157
 50
0.000003208599744
 51
90.0
  0
ARC
  5
1D610
  8
0
 10
4444.0478987584483548
 20
265.1700912760207984
 30
0.0
 40
1.2546548267598809
 50
116.8622038571967039
 51
124.3522859716672002
  0
ARC
  5
1D611
  8
0
 10
4443.7243125928052905
 20
265.8152270701962152
 30
0.0
 40
0.5329282077435323
 50
103.6453863256141972
 51
117.1667178769954063
  0
ARC
  5
1D612
  8
0
 10
4443.4055272833265917
 20
265.4553154124266143
 30
0.0
 40
0.951582105016366
 50
52.0725771417565326
 51
61.9716140754338767
  0
ARC
  5
1D613
  8
0
 10
4443.6523485084817366
 20
265.9181504975601911
 30
0.0
 40
0.4270473518011355
 50
62.0229232355228177
 51
78.9771093813303935
  0
ARC
  5
1D614
  8
0
 10
4443.6763374988358919
 20
266.0118901481811804
 30
0.0
 40
0.3304982354748999
 50
79.9520193825845951
 51
103.6062419850601941
  0
ARC
  5
1D615
  8
0
 10
4453.1179935215859587
 20
260.1846288860832033
 30
0.0
 40
2.1399780691968622
 50
236.3725028440013034
 51
246.1935261688848868
  0
ARC
  5
1D616
  8
0
 10
4452.5226191461997587
 20
258.800883491408797
 30
0.0
 40
0.633798788869007
 50
244.9431322229318084
 51
293.7156101743647127
  0
ARC
  5
1D617
  8
0
 10
4451.9438593818831578
 20
260.1623083147667899
 30
0.0
 40
2.1131049437325262
 50
293.2363279063380901
 51
303.6247803711801794
  0
ARC
  5
1D618
  8
0
 10
4450.8773806937952031
 20
256.6004923899052983
 30
0.0
 40
0.5952836133849273
 50
77.7874989650389921
 51
102.2125010349609937
  0
ARC
  5
1D619
  8
0
 10
4451.738875362077124
 20
402.7116234198146003
 30
0.0
 40
144.3088734206124002
 50
269.9275199139685242
 51
270.0252918931955151
  0
ARC
  5
1D61A
  8
0
 10
4451.5583117952310204
 20
260.6773049283995078
 30
0.0
 40
2.2744403330072358
 50
264.7785758831619205
 51
269.9498837268473039
  0
ARC
  5
1D61B
  8
0
 10
4451.4465616112711359
 20
259.5016025739097927
 30
0.0
 40
1.0934552283002861
 50
252.8888267530034
 51
265.0034580265877935
  0
ARC
  5
1D61C
  8
0
 10
4451.3125214950632653
 20
259.0678626682941967
 30
0.0
 40
0.6394765399142872
 50
232.2921135872225022
 51
252.9326449402333878
  0
ARC
  5
1D61D
  8
0
 10
4451.1587916928847335
 20
258.8763444309238935
 30
0.0
 40
0.3939577526189013
 50
202.8482250835286891
 51
232.9440110245176072
  0
ARC
  5
1D61E
  8
0
 10
4451.5794436749947636
 20
259.008341019172974
 30
0.0
 40
0.8339001780993331
 50
183.3255746179279129
 51
199.9821861485795864
  0
ARC
  5
1D61F
  8
0
 10
4459.3619362464942242
 20
259.5617494476982756
 30
0.0
 40
8.6359810627628502
 50
181.328641807057096
 51
183.9957907113980013
  0
ARC
  5
1D620
  8
0
 10
4363.4255933827016634
 20
255.8657818874133909
 30
0.0
 40
87.3726425109614269
 50
2.2929799738055179
 51
2.4796458230049021
  0
ARC
  5
1D621
  8
0
 10
4449.9066684739500488
 20
259.6198951285538783
 30
0.0
 40
0.8101743035001497
 50
1.8403384009776
 51
16.2141524038190816
  0
ARC
  5
1D622
  8
0
 10
4450.3473560504471607
 20
259.7452543012511796
 30
0.0
 40
0.3520215577537604
 50
16.6502714831963594
 51
35.9913100159759907
  0
ARC
  5
1D623
  8
0
 10
4450.4609608507153098
 20
259.8096958755713786
 30
0.0
 40
0.2227137789036203
 50
39.7554988422830675
 51
64.5742093950405547
  0
ARC
  5
1D624
  8
0
 10
4450.4442703165423154
 20
259.7837146902650147
 30
0.0
 40
0.2533747360307749
 50
63.6879415903779176
 51
79.1486822136650119
  0
LINE
  5
1D626
  8
0
 10
4450.490644461257034
 20
257.1823045942073804
 30
0.0
 11
4450.7514555601246684
 21
257.1823045942073804
 31
0.0
  0
LINE
  5
1D627
  8
0
 10
4451.0033058274648283
 20
257.1823045942073804
 30
0.0
 11
4451.8032870688648472
 21
257.1823045942073804
 31
0.0
  0
LINE
  5
1D628
  8
0
 10
4451.8541523472958943
 20
257.1823045942073804
 30
0.0
 11
4453.5864358118960808
 21
257.1823045942073804
 31
0.0
  0
ATTDEF
  5
1D629
  8
DEFPOINTS
 10
4453.8227774902361489
 20
257.7958850211722961
 30
0.0
 40
0.001
  1
K-20589IN-4
  3

  2
MODELNUMBER
 70
     0
1001
ACDBATTR
1070
     0
1070
     1
  0
ATTDEF
  5
1D62A
  8
DEFPOINTS
 10
4453.8226516805789288
 20
257.7942181807931092
 30
0.0
 40
0.001
  1
JULY, ALEO
  3

  2
TRADENAME
 70
     0
1001
ACDBATTR
1070
     0
1070
     1
  0
ATTDEF
  5
1D62B
  8
DEFPOINTS
 10
4453.8227774902361489
 20
257.7925516878390226
 30
0.0
 40
0.001
  1
KITCHEN SINK FAUCET
  3

  2
PRODUCT
 70
     0
1001
ACDBATTR
1070
     0
1070
     1
  0
ENDSEC
  0
EOF
