  0
SECTION
  2
HEADER
  9
$ACADVER
  1
AC1009
  9
$INSBASE
 10
4488.9540844898447176
 20
264.1584990358397818
 30
0.0
  9
$EXTMIN
 10
4484.4396648075198755
 20
262.9494268205717731
 30
-0.0000000349181948
  9
$EXTMAX
 10
4493.3247457051111269
 20
273.2398045985784165
 30
0.0000000814935746
  9
$LIMMIN
 10
0.0
 20
0.0
  9
$LIMMAX
 10
11.6929133858000007
 20
8.2677165353999982
  9
$ORTHOMODE
 70
     0
  9
$REGENMODE
 70
     1
  9
$FILLMODE
 70
     1
  9
$QTEXTMODE
 70
     0
  9
$MIRRTEXT
 70
     0
  9
$DRAGMODE
 70
     2
  9
$LTSCALE
 40
0.6431102362
  9
$OSMODE
 70
   563
  9
$ATTMODE
 70
     1
  9
$TEXTSIZE
 40
0.2
  9
$TRACEWID
 40
0.05
  9
$TEXTSTYLE
  7
STANDARD
  9
$CLAYER
  8
0
  9
$CELTYPE
  6
BYLAYER
  9
$CECOLOR
 62
   256
  9
$DIMSCALE
 40
1.0
  9
$DIMASZ
 40
0.1875
  9
$DIMEXO
 40
0.0625
  9
$DIMDLI
 40
0.4443307087
  9
$DIMRND
 40
0.0
  9
$DIMDLE
 40
0.0
  9
$DIMEXE
 40
0.125
  9
$DIMTP
 40
0.01
  9
$DIMTM
 40
0.01
  9
$DIMTXT
 40
2.0
  9
$DIMCEN
 40
0.1052362205
  9
$DIMTSZ
 40
0.0
  9
$DIMTOL
 70
     1
  9
$DIMLIM
 70
     0
  9
$DIMTIH
 70
     1
  9
$DIMTOH
 70
     1
  9
$DIMSE1
 70
     0
  9
$DIMSE2
 70
     0
  9
$DIMTAD
 70
     0
  9
$DIMZIN
 70
     0
  9
$DIMBLK
  1

  9
$DIMASO
 70
     1
  9
$DIMSHO
 70
     1
  9
$DIMPOST
  1
\X
  9
$DIMAPOST
  1

  9
$DIMALT
 70
     1
  9
$DIMALTD
 70
     2
  9
$DIMALTF
 40
25.3999999999999986
  9
$DIMLFAC
 40
1.0
  9
$DIMTOFL
 70
     0
  9
$DIMTVP
 40
0.0
  9
$DIMTIX
 70
     0
  9
$DIMSOXD
 70
     0
  9
$DIMSAH
 70
     0
  9
$DIMBLK1
  1

  9
$DIMBLK2
  1

  9
$DIMSTYLE
  2
STANDARD
  9
$DIMCLRD
 70
     0
  9
$DIMCLRE
 70
     0
  9
$DIMCLRT
 70
     0
  9
$DIMTFAC
 40
1.0
  9
$DIMGAP
 40
0.09
  9
$LUNITS
 70
     2
  9
$LUPREC
 70
     4
  9
$SKETCHINC
 40
0.1
  9
$FILLETRAD
 40
0.0
  9
$AUNITS
 70
     0
  9
$AUPREC
 70
     0
  9
$MENU
  1
.
  9
$ELEVATION
 40
0.0
  9
$PELEVATION
 40
0.0
  9
$THICKNESS
 40
0.0
  9
$LIMCHECK
 70
     0
  9
$BLIPMODE
 70
     0
  9
$CHAMFERA
 40
0.0
  9
$CHAMFERB
 40
0.0
  9
$SKPOLY
 70
     0
  9
$TDCREATE
 40
2458060.468368056230247
  9
$TDUPDATE
 40
2459208.6291666668839753
  9
$TDINDWG
 40
0.4635140046
  9
$TDUSRTIMER
 40
0.4635140046
  9
$USRTIMER
 70
     1
  9
$ANGBASE
 50
0.0
  9
$ANGDIR
 70
     0
  9
$PDMODE
 70
     0
  9
$PDSIZE
 40
0.3125
  9
$PLINEWID
 40
0.0
  9
$COORDS
 70
     1
  9
$SPLFRAME
 70
     0
  9
$SPLINETYPE
 70
     6
  9
$SPLINESEGS
 70
     8
  9
$ATTDIA
 70
     1
  9
$ATTREQ
 70
     1
  9
$HANDLING
 70
     1
  9
$HANDSEED
  5
1B511
  9
$SURFTAB1
 70
     6
  9
$SURFTAB2
 70
     6
  9
$SURFTYPE
 70
     6
  9
$SURFU
 70
     6
  9
$SURFV
 70
     6
  9
$UCSNAME
  2

  9
$UCSORG
 10
0.0
 20
0.0
 30
0.0
  9
$UCSXDIR
 10
1.0
 20
0.0
 30
0.0
  9
$UCSYDIR
 10
0.0
 20
1.0
 30
0.0
  9
$PUCSNAME
  2

  9
$PUCSORG
 10
0.0
 20
0.0
 30
0.0
  9
$PUCSXDIR
 10
1.0
 20
0.0
 30
0.0
  9
$PUCSYDIR
 10
0.0
 20
1.0
 30
0.0
  9
$USERI1
 70
     0
  9
$USERI2
 70
     0
  9
$USERI3
 70
     0
  9
$USERI4
 70
     0
  9
$USERI5
 70
     0
  9
$USERR1
 40
0.0
  9
$USERR2
 40
0.0
  9
$USERR3
 40
0.0
  9
$USERR4
 40
0.0
  9
$USERR5
 40
0.0
  9
$WORLDVIEW
 70
     1
  9
$SHADEDGE
 70
     3
  9
$SHADEDIF
 70
    70
  9
$TILEMODE
 70
     1
  9
$MAXACTVP
 70
    64
  9
$PLIMCHECK
 70
     0
  9
$PEXTMIN
 10
1.0000000000000000E+20
 20
1.0000000000000000E+20
 30
1.0000000000000000E+20
  9
$PEXTMAX
 10
-1.0000000000000000E+20
 20
-1.0000000000000000E+20
 30
-1.0000000000000000E+20
  9
$PLIMMIN
 10
0.0
 20
0.0
  9
$PLIMMAX
 10
12.0
 20
9.0
  9
$UNITMODE
 70
     0
  9
$VISRETAIN
 70
     1
  9
$PLINEGEN
 70
     0
  9
$PSLTSCALE
 70
     1
  0
ENDSEC
  0
SECTION
  2
TABLES
  0
TABLE
  2
VPORT
 70
     1
  0
VPORT
  2
*ACTIVE
 70
     0
 10
0.0
 20
0.0
 11
1.0
 21
1.0
 12
577.5168486098980338
 22
135.5150105729445045
 13
0.0
 23
0.0
 14
1.0
 24
1.0
 15
0.0
 25
0.0
 16
0.0
 26
0.0
 36
60.4960186965801583
 17
3911.3653564453120453
 27
132.5796051025390057
 37
0.0
 40
12.5340903785461109
 41
1.9002217294900221
 42
50.0
 43
0.0
 44
0.0
 50
0.0
 51
0.0
 71
     0
 72
   100
 73
     1
 74
     1
 75
     0
 76
     0
 77
     0
 78
     0
  0
ENDTAB
  0
TABLE
  2
LTYPE
 70
     2
  0
LTYPE
  2
CONTINUOUS
 70
     0
  3
Solid line
 72
    65
 73
     0
 40
0.0
  0
LTYPE
  2
PHANTOM2
 70
     0
  3
___ _ _ ___ _ _ ___ _ _ ___ _ _
 72
    65
 73
     6
 40
1.25
 49
0.625
 49
-0.125
 49
0.125
 49
-0.125
 49
0.125
 49
-0.125
  0
ENDTAB
  0
TABLE
  2
LAYER
 70
     2
  0
LAYER
  2
0
 70
     0
 62
   255
  6
CONTINUOUS
  0
LAYER
  2
DEFPOINTS
 70
     0
 62
     7
  6
CONTINUOUS
  0
ENDTAB
  0
TABLE
  2
STYLE
 70
     1
  0
STYLE
  2
STANDARD
 70
     0
 40
0.0
 41
0.8
 50
0.0
 71
     0
 42
0.2
  3
txt
  4

  0
ENDTAB
  0
TABLE
  2
VIEW
 70
     0
  0
ENDTAB
  0
TABLE
  2
UCS
 70
     0
  0
ENDTAB
  0
TABLE
  2
APPID
 70
    11
  0
APPID
  2
ACAD
 70
     0
  0
APPID
  2
ACAD_MLEADERVER
 70
     0
  0
APPID
  2
ACAD_EXEMPT_FROM_CAD_STANDARDS
 70
     0
  0
APPID
  2
ACAD_NAV_VCDISPLAY
 70
     0
  0
APPID
  2
ACAECLAYERSTANDARD
 70
     0
  0
APPID
  2
ACCMTRANSPARENCY
 70
     0
  0
APPID
  2
ACAD_DSTYLE_DIMJAG
 70
     0
  0
APPID
  2
ACAD_DSTYLE_DIMTALN
 70
     0
  0
APPID
  2
ACDBATTR
 70
     0
  0
APPID
  2
ACADANNOTATIVE
 70
     0
  0
APPID
  2
DCO15
 70
     0
  0
ENDTAB
  0
TABLE
  2
DIMSTYLE
 70
     1
  0
DIMSTYLE
  2
STANDARD
 70
     0
  3

  4

  5

  6

  7

 40
1.0
 41
0.1875
 42
0.0625
 43
0.38
 44
0.125
 45
0.0
 46
0.0
 47
0.01
 48
0.01
140
0.15625
141
0.09
142
0.0
143
25.3999999999999986
144
1.0
145
0.0
146
1.0
147
0.09
 71
     1
 72
     0
 73
     1
 74
     1
 75
     0
 76
     0
 77
     0
 78
     4
170
     0
171
     2
172
     0
173
     0
174
     0
175
     0
176
     0
177
     0
178
     0
  0
ENDTAB
  0
ENDSEC
  0
SECTION
  2
BLOCKS
  0
BLOCK
  8
0
  2
$MODEL_SPACE
 70
     0
 10
0.0
 20
0.0
 30
0.0
  3
$MODEL_SPACE
  1

  0
ENDBLK
  5
21
  8
0
  0
BLOCK
 67
     1
  8
0
  2
$PAPER_SPACE
 70
     0
 10
0.0
 20
0.0
 30
0.0
  3
$PAPER_SPACE
  1

  0
ENDBLK
  5
1D
 67
     1
  8
0
  0
ENDSEC
  0
SECTION
  2
ENTITIES
  0
LINE
  5
1B3E0
  8
0
 10
4489.4877216877957835
 20
263.1742158685398181
 30
0.0
 11
4493.1493420684955709
 21
263.1742470673398202
 31
0.0
  0
LINE
  5
1B3E1
  8
0
 10
4484.6997717930953513
 20
265.0836958862396955
 30
0.0
 11
4484.6997717930953513
 21
263.2333021854396975
 31
0.0
  0
LINE
  5
1B3E2
  8
0
 10
4484.7588269111947739
 20
265.1427510043398001
 30
0.0
 11
4488.0376549392940433
 21
265.1427510043398001
 31
0.0
  0
LINE
  5
1B3E3
  8
0
 10
4489.9001868411032774
 20
265.1427510043398001
 30
0.0
 11
4493.1493420684955709
 21
265.1427510043398001
 31
0.0
  0
LINE
  5
1B3E4
  8
0
 10
4488.5013285842951518
 20
272.7680935502398256
 30
0.0
 11
4488.5013285842951518
 21
267.7152684689987154
 31
0.0
  0
LINE
  5
1B3E5
  8
0
 10
4489.4068403953951929
 20
272.7680935502398256
 30
0.0
 11
4489.4068403953951929
 21
267.7243840357979821
 31
0.0
  0
LINE
  5
1B3E6
  8
0
 10
4493.2083971865949934
 20
265.0836958862396955
 30
0.0
 11
4493.2083971865949934
 21
263.2333021854396975
 31
0.0
  0
ARC
  5
1B3E7
  8
0
 10
4486.0013285842951518
 20
264.1584990358397818
 30
0.0
 40
1.190944881899999
 50
55.7353971052400823
 51
124.2646028947599035
  0
ARC
  5
1B3E8
  8
0
 10
4486.0013285842951518
 20
264.1584990358397818
 30
0.0
 40
1.190944881899999
 50
235.8435770116550998
 51
303.9039620940441182
  0
ARC
  5
1B3E9
  8
0
 10
4491.9068403953951929
 20
264.1584990358397818
 30
0.0
 40
1.190944881899999
 50
55.7353971052400823
 51
124.2646028947599035
  0
ARC
  5
1B3EA
  8
0
 10
4491.9068403953951929
 20
264.1584990358397818
 30
0.0
 40
1.190944881899999
 50
235.7367899331111971
 51
304.2641864430977989
  0
ARC
  5
1B3EB
  8
0
 10
4488.9540786539946566
 20
264.1585062971396951
 30
0.0
 40
0.9842519684999999
 50
168.0131102881034906
 51
327.1585379522076096
  0
CIRCLE
  5
1B3EC
  8
0
 10
4488.9540844898956493
 20
272.7680935502398256
 30
0.0
 40
0.4527559055
  0
ARC
  5
1B3ED
  8
0
 10
4493.1493420684955709
 20
263.2333021854396975
 30
0.0
 40
0.0590551181
 50
270.0
 51
0.0
  0
ARC
  5
1B3EE
  8
0
 10
4493.1493420684955709
 20
265.0836958862396955
 30
0.0
 40
0.0590551181
 50
0.0
 51
90.0
  0
ARC
  5
1B3EF
  8
0
 10
4484.7588269111947739
 20
265.0836958862396955
 30
0.0
 40
0.0590551181
 50
90.0
 51
180.0
  0
ARC
  5
1B3F0
  8
0
 10
4484.7588269111947739
 20
263.2333021854396975
 30
0.0
 40
0.0590551181
 50
180.0
 51
270.0
  0
LINE
  5
1B3F1
  8
0
 10
4484.7588269111947739
 20
263.1742470673398202
 30
0.0
 11
4488.7912329543951273
 21
263.165363110339797
 31
0.0
  0
ARC
  5
1B3F2
  8
0
 10
4489.504295280758015
 20
254.1937002159355927
 30
0.0
 40
8.9805309459214477
 50
90.1057395684786684
 51
92.8064761500055937
  0
ARC
  5
1B3F3
  8
0
 10
4488.953144989401153
 20
266.7891924487801134
 30
0.0
 40
3.627444635169609
 50
267.4417364406650108
 51
271.7604738950362275
  0
ARC
  5
1B3F4
  8
0
 10
4488.9651615890834364
 20
264.1792355565934258
 30
0.0
 40
0.9830409391621895
 50
187.7961103415686921
 51
270.1478514258623136
  0
ARC
  5
1B3F5
  8
0
 10
4488.8788638045916741
 20
264.1773282753148919
 30
0.0
 40
0.8973357770462999
 50
176.3835104763961965
 51
188.4229158832596056
  0
ARC
  5
1B3F6
  8
0
 10
4294.1898578244426972
 20
276.2772118995608821
 30
0.0
 40
194.1673110121973878
 50
356.4439306664378933
 51
357.0104212771274206
  0
ARC
  5
1B3F7
  8
0
 10
4509.2649973094739835
 20
265.3662949845593175
 30
0.0
 40
21.1866030334351017
 50
175.3008744261522907
 51
177.8786284673869886
  0
ARC
  5
1B3F8
  8
0
 10
4488.9501212783115989
 20
265.045756502982897
 30
0.0
 40
2.7212820533205488
 50
89.9165557362791361
 51
95.3047445013206556
  0
ARC
  5
1B3F9
  8
0
 10
4488.7752053458352748
 20
266.8736842621686947
 30
0.0
 40
0.8850268118520936
 50
94.9700873240179817
 51
108.0264430870663972
  0
ARC
  5
1B3FA
  8
0
 10
4488.6225483369462381
 20
267.2983536216307243
 30
0.0
 40
0.4341799378006954
 50
106.2120124343172023
 51
144.5019446310820115
  0
ARC
  5
1B3FB
  8
0
 10
4488.7590684658362079
 20
267.2250924655575091
 30
0.0
 40
0.5881943592694722
 50
146.414390067032997
 51
173.2758322748950093
  0
ARC
  5
1B3FC
  8
0
 10
4491.2079471710949292
 20
266.7964621041576265
 30
0.0
 40
3.0735584177411801
 50
170.684830216154694
 51
174.2954245737385008
  0
ARC
  5
1B3FD
  8
0
 10
4488.9653339856104139
 20
264.177939808928727
 30
0.0
 40
0.9817447654989292
 50
270.1379853355188061
 51
287.1177699594467754
  0
ARC
  5
1B3FE
  8
0
 10
4488.9642593252247025
 20
264.1941793049775242
 30
0.0
 40
0.9975882516182728
 50
286.902228554288115
 51
313.8069823284952804
  0
ARC
  5
1B3FF
  8
0
 10
4488.9960884468628137
 20
264.1548309263120018
 30
0.0
 40
0.9471679826865559
 50
314.0651534068013007
 51
325.9670899933734063
  0
ARC
  5
1B400
  8
0
 10
4488.9623866581114271
 20
264.1832455325952083
 30
0.0
 40
0.9910110547087343
 50
325.696177248586821
 51
2.7201851604120608
  0
ARC
  5
1B401
  8
0
 10
3353.5212241139038269
 20
199.8077906170279903
 30
0.0
 40
1138.2555969454990645
 50
3.2445349480446311
 51
3.38932793951443
  0
ARC
  5
1B402
  8
0
 10
4488.1775848384550045
 20
266.9889009093537879
 30
0.0
 40
1.6122336521315099
 50
4.0212043416246823
 51
14.3344673762562103
  0
ARC
  5
1B403
  8
0
 10
4489.314549355563031
 20
267.294243907895293
 30
0.0
 40
0.4353053104022928
 50
12.4460186290700303
 51
64.2748882284722498
  0
ARC
  5
1B404
  8
0
 10
4489.1925447191879357
 20
267.037034599105084
 30
0.0
 40
0.7199804754043948
 50
64.4125887046804024
 51
87.1043260604367049
  0
ARC
  5
1B405
  8
0
 10
4488.9454741650870346
 20
264.0930931992321007
 30
0.0
 40
3.6739525607560322
 50
85.5752845438262568
 51
89.8657207148879138
  0
ATTDEF
  5
1B407
  8
DEFPOINTS
 10
4488.9540687788548894
 20
264.1571560170912107
 30
0.0
 40
0.001
  1
K-20592IN-4
  3

  2
MODELNUMBER
 70
     0
1001
ACDBATTR
1070
     0
1070
     1
  0
ATTDEF
  5
1B408
  8
DEFPOINTS
 10
4488.9539429691976693
 20
264.1554891767120239
 30
0.0
 40
0.001
  1
 ALEO
  3

  2
TRADENAME
 70
     0
1001
ACDBATTR
1070
     0
1070
     1
  0
ATTDEF
  5
1B409
  8
DEFPOINTS
 10
4488.9540687788548894
 20
264.1538226837578236
 30
0.0
 40
0.001
  1
KITCHEN SINK FAUCET
  3

  2
PRODUCT
 70
     0
1001
ACDBATTR
1070
     0
1070
     1
  0
ENDSEC
  0
EOF
