  0
SECTION
  2
HEADER
  9
$ACADVER
  1
AC1009
  9
$INSBASE
 10
4912.8186200401833048
 20
-8.5178535863963418
 30
0.0
  9
$EXTMIN
 10
4908.2198181586491046
 20
-20.8223296488320813
 30
-0.0015258207003583
  9
$EXTMAX
 10
4917.2232423284149263
 20
-8.5118690928215752
 30
0.0000000349246037
  9
$LIMMIN
 10
0.0
 20
0.0
  9
$LIMMAX
 10
11.6929133858000007
 20
8.2677165353999982
  9
$ORTHOMODE
 70
     0
  9
$REGENMODE
 70
     1
  9
$FILLMODE
 70
     1
  9
$QTEXTMODE
 70
     0
  9
$MIRRTEXT
 70
     0
  9
$DRAGMODE
 70
     2
  9
$LTSCALE
 40
0.6431102362
  9
$OSMODE
 70
  3839
  9
$ATTMODE
 70
     1
  9
$TEXTSIZE
 40
0.2
  9
$TRACEWID
 40
0.05
  9
$TEXTSTYLE
  7
STANDARD
  9
$CLAYER
  8
0
  9
$CELTYPE
  6
BYLAYER
  9
$CECOLOR
 62
   256
  9
$DIMSCALE
 40
1.0
  9
$DIMASZ
 40
0.1875
  9
$DIMEXO
 40
0.0625
  9
$DIMDLI
 40
0.4443307087
  9
$DIMRND
 40
0.0
  9
$DIMDLE
 40
0.0
  9
$DIMEXE
 40
0.125
  9
$DIMTP
 40
0.01
  9
$DIMTM
 40
0.01
  9
$DIMTXT
 40
2.0
  9
$DIMCEN
 40
0.1052362205
  9
$DIMTSZ
 40
0.0
  9
$DIMTOL
 70
     1
  9
$DIMLIM
 70
     0
  9
$DIMTIH
 70
     1
  9
$DIMTOH
 70
     1
  9
$DIMSE1
 70
     0
  9
$DIMSE2
 70
     0
  9
$DIMTAD
 70
     0
  9
$DIMZIN
 70
     0
  9
$DIMBLK
  1

  9
$DIMASO
 70
     1
  9
$DIMSHO
 70
     1
  9
$DIMPOST
  1
\X
  9
$DIMAPOST
  1

  9
$DIMALT
 70
     1
  9
$DIMALTD
 70
     2
  9
$DIMALTF
 40
25.3999999999999986
  9
$DIMLFAC
 40
1.0
  9
$DIMTOFL
 70
     0
  9
$DIMTVP
 40
0.0
  9
$DIMTIX
 70
     0
  9
$DIMSOXD
 70
     0
  9
$DIMSAH
 70
     0
  9
$DIMBLK1
  1

  9
$DIMBLK2
  1

  9
$DIMSTYLE
  2
STANDARD
  9
$DIMCLRD
 70
     0
  9
$DIMCLRE
 70
     0
  9
$DIMCLRT
 70
     0
  9
$DIMTFAC
 40
1.0
  9
$DIMGAP
 40
0.09
  9
$LUNITS
 70
     2
  9
$LUPREC
 70
     4
  9
$SKETCHINC
 40
0.1
  9
$FILLETRAD
 40
0.0
  9
$AUNITS
 70
     0
  9
$AUPREC
 70
     0
  9
$MENU
  1
.
  9
$ELEVATION
 40
0.0
  9
$PELEVATION
 40
0.0
  9
$THICKNESS
 40
0.0
  9
$LIMCHECK
 70
     0
  9
$BLIPMODE
 70
     0
  9
$CHAMFERA
 40
0.0
  9
$CHAMFERB
 40
0.0
  9
$SKPOLY
 70
     0
  9
$TDCREATE
 40
2458060.468368056230247
  9
$TDUPDATE
 40
2460565.7389120371080935
  9
$TDINDWG
 40
0.5826806713
  9
$TDUSRTIMER
 40
0.5826806713
  9
$USRTIMER
 70
     1
  9
$ANGBASE
 50
0.0
  9
$ANGDIR
 70
     0
  9
$PDMODE
 70
     0
  9
$PDSIZE
 40
0.3125
  9
$PLINEWID
 40
0.0
  9
$COORDS
 70
     1
  9
$SPLFRAME
 70
     0
  9
$SPLINETYPE
 70
     6
  9
$SPLINESEGS
 70
     8
  9
$ATTDIA
 70
     1
  9
$ATTREQ
 70
     1
  9
$HANDLING
 70
     1
  9
$HANDSEED
  5
2644E
  9
$SURFTAB1
 70
     6
  9
$SURFTAB2
 70
     6
  9
$SURFTYPE
 70
     6
  9
$SURFU
 70
     6
  9
$SURFV
 70
     6
  9
$UCSNAME
  2

  9
$UCSORG
 10
0.0
 20
0.0
 30
0.0
  9
$UCSXDIR
 10
1.0
 20
0.0
 30
0.0
  9
$UCSYDIR
 10
0.0
 20
1.0
 30
0.0
  9
$PUCSNAME
  2

  9
$PUCSORG
 10
0.0
 20
0.0
 30
0.0
  9
$PUCSXDIR
 10
1.0
 20
0.0
 30
0.0
  9
$PUCSYDIR
 10
0.0
 20
1.0
 30
0.0
  9
$USERI1
 70
     0
  9
$USERI2
 70
     0
  9
$USERI3
 70
     0
  9
$USERI4
 70
     0
  9
$USERI5
 70
     0
  9
$USERR1
 40
0.0
  9
$USERR2
 40
0.0
  9
$USERR3
 40
0.0
  9
$USERR4
 40
0.0
  9
$USERR5
 40
0.0
  9
$WORLDVIEW
 70
     1
  9
$SHADEDGE
 70
     3
  9
$SHADEDIF
 70
    70
  9
$TILEMODE
 70
     1
  9
$MAXACTVP
 70
    64
  9
$PLIMCHECK
 70
     0
  9
$PEXTMIN
 10
1.0000000000000000E+20
 20
1.0000000000000000E+20
 30
1.0000000000000000E+20
  9
$PEXTMAX
 10
-1.0000000000000000E+20
 20
-1.0000000000000000E+20
 30
-1.0000000000000000E+20
  9
$PLIMMIN
 10
0.0
 20
0.0
  9
$PLIMMAX
 10
12.0
 20
9.0
  9
$UNITMODE
 70
     0
  9
$VISRETAIN
 70
     1
  9
$PLINEGEN
 70
     0
  9
$PSLTSCALE
 70
     1
  0
ENDSEC
  0
SECTION
  2
TABLES
  0
TABLE
  2
VPORT
 70
     1
  0
VPORT
  2
*ACTIVE
 70
     0
 10
0.0
 20
0.0
 11
1.0
 21
1.0
 12
1120.363620087281106
 22
-134.8477558039321877
 13
0.0
 23
0.0
 14
1.0
 24
1.0
 15
0.0
 25
0.0
 16
0.0
 26
0.0
 36
5.1040778033513332
 17
3792.35791015625
 27
120.1806564331053977
 37
0.0
 40
12.3994518371382796
 41
2.3051869722557292
 42
50.0
 43
0.0
 44
0.0
 50
0.0
 51
0.0
 71
     0
 72
   100
 73
     1
 74
     1
 75
     0
 76
     0
 77
     0
 78
     0
  0
ENDTAB
  0
TABLE
  2
LTYPE
 70
     2
  0
LTYPE
  2
CONTINUOUS
 70
     0
  3
Solid line
 72
    65
 73
     0
 40
0.0
  0
LTYPE
  2
PHANTOM2
 70
     0
  3
___ _ _ ___ _ _ ___ _ _ ___ _ _
 72
    65
 73
     6
 40
1.25
 49
0.625
 49
-0.125
 49
0.125
 49
-0.125
 49
0.125
 49
-0.125
  0
ENDTAB
  0
TABLE
  2
LAYER
 70
     2
  0
LAYER
  2
0
 70
     0
 62
   255
  6
CONTINUOUS
  0
LAYER
  2
DEFPOINTS
 70
     0
 62
     7
  6
CONTINUOUS
  0
ENDTAB
  0
TABLE
  2
STYLE
 70
     1
  0
STYLE
  2
STANDARD
 70
     0
 40
0.0
 41
0.8
 50
0.0
 71
     0
 42
0.2
  3
txt
  4

  0
ENDTAB
  0
TABLE
  2
VIEW
 70
     0
  0
ENDTAB
  0
TABLE
  2
UCS
 70
     0
  0
ENDTAB
  0
TABLE
  2
APPID
 70
     9
  0
APPID
  2
ACAD
 70
     0
  0
APPID
  2
ACAD_MLEADERVER
 70
     0
  0
APPID
  2
ACAD_EXEMPT_FROM_CAD_STANDARDS
 70
     0
  0
APPID
  2
ACAD_NAV_VCDISPLAY
 70
     0
  0
APPID
  2
ACAECLAYERSTANDARD
 70
     0
  0
APPID
  2
ACCMTRANSPARENCY
 70
     0
  0
APPID
  2
ACAD_DSTYLE_DIMJAG
 70
     0
  0
APPID
  2
ACAD_DSTYLE_DIMTALN
 70
     0
  0
APPID
  2
ACDBATTR
 70
     0
  0
ENDTAB
  0
TABLE
  2
DIMSTYLE
 70
     1
  0
DIMSTYLE
  2
STANDARD
 70
     0
  3

  4

  5

  6

  7

 40
1.0
 41
0.1875
 42
0.0625
 43
0.38
 44
0.125
 45
0.0
 46
0.0
 47
0.01
 48
0.01
140
0.15625
141
0.09
142
0.0
143
25.3999999999999986
144
1.0
145
0.0
146
1.0
147
0.09
 71
     1
 72
     0
 73
     1
 74
     1
 75
     0
 76
     0
 77
     0
 78
     4
170
     0
171
     2
172
     0
173
     0
174
     0
175
     0
176
     0
177
     0
178
     0
  0
ENDTAB
  0
ENDSEC
  0
SECTION
  2
BLOCKS
  0
BLOCK
  8
0
  2
$MODEL_SPACE
 70
     0
 10
0.0
 20
0.0
 30
0.0
  3
$MODEL_SPACE
  1

  0
ENDBLK
  5
21
  8
0
  0
BLOCK
 67
     1
  8
0
  2
$PAPER_SPACE
 70
     0
 10
0.0
 20
0.0
 30
0.0
  3
$PAPER_SPACE
  1

  0
ENDBLK
  5
1D
 67
     1
  8
0
  0
BLOCK
  8
0
  2
_FILLED
 70
     0
 10
0.0
 20
0.0
 30
0.0
  3
_FILLED
  1

  0
SOLID
  5
25CA2
  8
0
  6
BYBLOCK
 62
     0
 10
0.0
 20
0.0
 30
0.0
 11
-1.0
 21
0.1666666667
 31
0.0
 12
-1.0
 22
-0.1666666667
 32
0.0
 13
-1.0
 23
-0.1666666667
 33
0.0
  0
ENDBLK
  5
25CA3
  8
0
  6
BYBLOCK
 62
     0
  0
ENDSEC
  0
SECTION
  2
ENTITIES
  0
ATTDEF
  5
25D46
  8
DEFPOINTS
 10
4912.819462231763282
 20
-8.5139998261944942
 30
0.0
 40
0.001
  1
K-20593IN-4
  3

  2
MODELNUMBER
 70
     0
1001
ACDBATTR
1070
     0
1070
     1
  0
ATTDEF
  5
25D47
  8
DEFPOINTS
 10
4912.819462231763282
 20
-8.5156664928611594
 30
0.0
 40
0.001
  1
ALEO+
  3

  2
TRADENAME
 70
     0
1001
ACDBATTR
1070
     0
1070
     1
  0
ATTDEF
  5
25D48
  8
DEFPOINTS
 10
4912.819462231763282
 20
-8.5173331595278245
 30
0.0
 40
0.001
  1
KITCHEN MIXER
  3

  2
PRODUCT
 70
     0
1001
ACDBATTR
1070
     0
1070
     1
  0
LINE
  5
2628F
  8
0
 10
4911.0568090164815658
 20
-8.5178535863963418
 30
0.0
 11
4908.6749192527822743
 21
-8.5178535863963418
 31
0.0
  0
LINE
  5
26290
  8
0
 10
4908.6749192527822743
 20
-8.5178535863963418
 30
0.0
 11
4908.6849145485821282
 21
-9.0897503819963461
 31
0.0
  0
ARC
  5
26291
  8
0
 10
4908.7439619954184309
 20
-9.0887183833876861
 30
0.0
 40
0.0590564644974284
 50
181.0012819936702897
 51
269.9862978285173085
  0
LINE
  5
26292
  8
0
 10
4908.7439478721817068
 20
-9.1477748461963415
 30
0.0
 11
4910.9877803329181916
 21
-9.1477748461963415
 31
0.0
  0
ARC
  5
26293
  8
0
 10
4910.9877803970957757
 20
-9.0887197281314478
 30
0.0
 40
0.0590551180649286
 50
269.9999377330436232
 51
359.0000000560597755
  0
LINE
  5
26294
  8
0
 10
4911.0468265207828154
 20
-9.0897503819963461
 30
0.0
 11
4911.0568090164815658
 21
-8.5178535863963418
 31
0.0
  0
ARC
  5
26295
  8
0
 10
4909.0491476227962266
 20
-9.2068299642616882
 30
0.0
 40
0.059055118065352
 50
0.9999999443708505
 51
90.0000000137570737
  0
LINE
  5
26296
  8
0
 10
4909.1081937464823568
 20
-9.2057993103963405
 30
0.0
 11
4909.1178326380058934
 21
-9.7580110667063913
 31
0.0
  0
LINE
  5
26297
  8
0
 10
4909.1178326380058934
 20
-9.7580110667063913
 30
0.0
 11
4910.6138956306822365
 21
-9.7580110666963407
 31
0.0
  0
LINE
  5
26298
  8
0
 10
4910.6138956306822365
 20
-9.7580110666963407
 30
0.0
 11
4910.6235345227842117
 21
-9.2057993103691658
 31
0.0
  0
ARC
  5
26299
  8
0
 10
4910.6826968766872596
 20
-9.2068756487569807
 30
0.0
 40
0.0591721439850951
 50
92.813801842826507
 51
178.9577351077778928
  0
LINE
  5
2629A
  8
0
 10
4909.2753129535822154
 20
-9.7580110666963407
 30
0.0
 11
4909.2753129535822154
 21
-10.1713968934963397
 31
0.0
  0
LINE
  5
2629B
  8
0
 10
4909.2753129535822154
 20
-10.1713968934963397
 30
0.0
 11
4910.4564153157816691
 21
-10.1713968934963397
 31
0.0
  0
LINE
  5
2629C
  8
0
 10
4910.4564153157816691
 20
-10.1713968934963397
 30
0.0
 11
4910.4564153157816691
 21
-9.7580110666963407
 31
0.0
  0
LINE
  5
2629D
  8
0
 10
4909.4426357881820877
 20
-10.1713968934963397
 30
0.0
 11
4909.4426357881820877
 21
-10.2245464997963396
 31
0.0
  0
LINE
  5
2629E
  8
0
 10
4909.4426357881820877
 20
-10.2245464997963396
 30
0.0
 11
4909.4524783078832115
 21
-10.2343890193963407
 31
0.0
  0
LINE
  5
2629F
  8
0
 10
4909.4524783078832115
 20
-10.2343890193963407
 30
0.0
 11
4909.4524783078832115
 21
-10.2501370508963401
 31
0.0
  0
LINE
  5
262A0
  8
0
 10
4910.5545544834822067
 20
-10.2501370508963401
 30
0.0
 11
4909.1771769371816845
 21
-10.2501370508963401
 31
0.0
  0
LINE
  5
262A1
  8
0
 10
4909.1771769371816845
 20
-10.2501370508963401
 30
0.0
 11
4909.1769564784817703
 21
-10.3324312863963392
 31
0.0
  0
ARC
  5
262A2
  8
0
 10
4909.0782670597409378
 20
-10.3321669065059698
 30
0.0
 40
0.0986897728657254
 50
270.1144160578249966
 51
359.8465102352093936
  0
LINE
  5
262A3
  8
0
 10
4909.0784641368618395
 20
-10.4308564825963401
 30
0.0
 11
4908.6233624614833388
 21
-10.4308564825963401
 31
0.0
  0
ARC
  5
262A4
  8
0
 10
4908.6233624614833388
 20
-10.4899116006963595
 30
0.0
 40
0.059055118100023
 50
90.0
 51
179.9999999999791953
  0
LINE
  5
262A5
  8
0
 10
4908.5643073433820973
 20
-10.48991160069634
 30
0.0
 11
4908.5643073433820973
 21
-12.3403053014963398
 31
0.0
  0
ARC
  5
262A6
  8
0
 10
4908.6233624614833388
 20
-12.3403053014963504
 30
0.0
 40
0.0590551180999928
 50
179.9999999999930083
 51
270.0
  0
LINE
  5
262A7
  8
0
 10
4908.6233624614833388
 20
-12.3993604195963396
 30
0.0
 11
4911.5598098027821834
 21
-12.3993604195959808
 31
0.0
  0
ARC
  5
262A8
  8
0
 10
4911.5598103753845862
 20
-12.6739170429819907
 30
0.0
 40
0.2745566233866032
 50
0.3649674629774772
 51
90.0001194935008755
  0
LINE
  5
262A9
  8
0
 10
4911.8343614286659431
 20
-12.6721681609963408
 30
0.0
 11
4911.8343614286659431
 21
-13.3087680731963403
 31
0.0
  0
LINE
  5
262AA
  8
0
 10
4911.8343614286659431
 20
-13.3087680731963403
 30
0.0
 11
4912.3658641346819422
 21
-13.3087680732798308
 31
0.0
  0
ARC
  5
262AB
  8
0
 10
4912.8186200401833048
 20
-11.4142840498234293
 30
0.0
 40
0.4527566561087751
 50
359.8956693083611071
 51
180.1043306916388929
  0
LINE
  5
262AC
  8
0
 10
4912.3658641346819422
 20
-11.4151084803377501
 30
0.0
 11
4912.3658641346828517
 21
-20.8023919156963508
 31
0.0
  0
ARC
  5
262AD
  8
0
 10
4912.3855491740823709
 20
-20.8023919156963508
 30
0.0
 40
0.0196850394000006
 50
179.9999999999947136
 51
269.9999997089124122
  0
LINE
  5
262AE
  8
0
 10
4912.385549173983236
 20
-20.8220769550963389
 30
0.0
 11
4913.2516909062824197
 21
-20.822076959496421
 31
0.0
  0
ARC
  5
262AF
  8
0
 10
4912.4639280065202911
 20
-14.2807696968237696
 30
0.0
 40
0.49517810433916
 50
252.024083181319611
 51
258.5777747303287128
  0
ARC
  5
262B0
  8
0
 10
4912.3180683178179606
 20
-14.7303225307083192
 30
0.0
 40
0.022554787900069
 50
182.9821755232356111
 51
252.024083181319611
  0
LINE
  5
262B1
  8
0
 10
4912.2955440743353392
 20
-14.7314959499601201
 30
0.0
 11
4912.2800057341810316
 21
-13.8417052134963399
 31
0.0
  0
LINE
  5
262B2
  8
0
 10
4912.2800057341810316
 20
-13.8417052134963399
 30
0.0
 11
4912.3658641346819422
 21
-13.8417052134963399
 31
0.0
  0
LINE
  5
262B3
  8
0
 10
4912.3658641346819422
 20
-13.3166420889963408
 30
0.0
 11
4911.8542592731828336
 21
-13.3166420889963408
 31
0.0
  0
LINE
  5
262B4
  8
0
 10
4911.8542592731828336
 20
-13.3166420889963408
 30
0.0
 11
4911.8550300810820772
 21
-13.3570071233963397
 31
0.0
  0
ARC
  5
262B5
  8
0
 10
4911.9140490753006816
 20
-13.3539964390673305
 30
0.0
 40
0.0590957350291619
 50
182.9202481806975129
 51
259.5864838461275212
  0
ARC
  5
262B6
  8
0
 10
4911.7747309611140736
 20
-14.2639698802757504
 30
0.0
 40
0.8615089146396627
 50
61.8732425494766574
 51
81.4127487537257082
  0
ARC
  5
262B7
  8
0
 10
4912.0120207335558007
 20
-13.8151702563427108
 30
0.0
 40
0.3538529517968524
 50
0.4209632112904611
 51
61.4996337649808993
  0
LINE
  5
262B8
  8
0
 10
4911.9187188318719564
 20
-13.4150450949809308
 30
0.0
 11
4912.3658641346819422
 21
-13.4150450949809308
 31
0.0
  0
LINE
  5
262B9
  8
0
 10
4912.296994030382848
 20
-13.8417285070963398
 30
0.0
 11
4912.3174695242960297
 21
-14.4797681135762897
 31
0.0
  0
ARC
  5
262BA
  8
0
 10
4914.0843784724993384
 20
-14.4230657818597496
 30
0.0
 40
1.7678185386690739
 50
181.8380628660532921
 51
184.6177789075383942
  0
ARC
  5
262BB
  8
0
 10
4916.651559065575384
 20
-14.2157135614709507
 30
0.0
 40
4.3433594800567112
 50
184.6177789075383942
 51
185.942437806740088
  0
ARC
  5
262BC
  8
0
 10
4912.510659999523341
 20
-14.6467339235885294
 30
0.0
 40
0.1800886952312095
 50
185.9424378067407133
 51
195.3322100273452975
  0
ARC
  5
262BD
  8
0
 10
4912.3794323603142402
 20
-14.6827130489814994
 30
0.0
 40
0.0440181592700726
 50
195.3322100273454112
 51
209.2984413086456073
  0
ARC
  5
262BE
  8
0
 10
4912.3470763070226894
 20
-14.7008692618579904
 30
0.0
 40
0.0069161074319847
 50
209.2984413086533948
 51
280.8923649642874238
  0
ARC
  5
262BF
  8
0
 10
4912.3090264624061092
 20
-14.5863263368639693
 30
0.0
 40
0.1275578201597072
 50
287.9712917108075203
 51
296.4606831511334804
  0
LINE
  5
262C0
  8
0
 10
4914.9839759457127002
 20
-10.4308564825963401
 30
0.0
 11
4910.6532672844823537
 21
-10.4308564825963401
 31
0.0
  0
ARC
  5
262C1
  8
0
 10
4910.6532672844823537
 20
-10.3324312863952805
 30
0.0
 40
0.0984251962010525
 50
179.9997348426201995
 51
270.0
  0
LINE
  5
262C2
  8
0
 10
4910.5548420882823848
 20
-10.3324308308963406
 30
0.0
 11
4910.5545544834822067
 21
-10.2501370508963401
 31
0.0
  0
LINE
  5
262C3
  8
0
 10
4910.2890924810817523
 20
-10.1713968934963397
 30
0.0
 11
4910.2890924810817523
 21
-10.2245464997963396
 31
0.0
  0
LINE
  5
262C4
  8
0
 10
4910.2890924810817523
 20
-10.2245464997963396
 30
0.0
 11
4910.279249961383357
 21
-10.2343890193963407
 31
0.0
  0
LINE
  5
262C5
  8
0
 10
4910.279249961383357
 20
-10.2343890193963407
 30
0.0
 11
4910.279249961383357
 21
-10.2501370508963401
 31
0.0
  0
LINE
  5
262C6
  8
0
 10
4910.279249961383357
 20
-10.2343890193963407
 30
0.0
 11
4909.4524783078832115
 21
-10.2343890193963407
 31
0.0
  0
LINE
  5
262C7
  8
0
 10
4910.2890924810817523
 20
-10.2245464997963396
 30
0.0
 11
4909.4426357881820877
 21
-10.2245464997963396
 31
0.0
  0
ARC
  5
262C8
  8
0
 10
4911.2846780295167264
 20
-7.770878893273486
 30
0.0
 40
3.3172762202473831
 50
230.5505346211000131
 51
235.5616271189740019
  0
ARC
  5
262C9
  8
0
 10
4910.0237901317423166
 20
-9.6097161606213852
 30
0.0
 40
1.0876662125235881
 50
235.5616271189738882
 51
246.6580652741145911
  0
ARC
  5
262CA
  8
0
 10
4909.8658430424557082
 20
-10.0546383288282009
 30
0.0
 40
0.6173687702442364
 50
243.7551541736663978
 51
296.2061204824153151
  0
ARC
  5
262CB
  8
0
 10
4909.6907052934466265
 20
-9.5690011656619092
 30
0.0
 40
1.131881447176988
 50
293.3032093819824127
 51
306.3160663050541075
  0
ARC
  5
262CC
  8
0
 10
4906.8025504992829156
 20
-5.6395647124901203
 30
0.0
 40
6.0085513103695121
 50
306.3160663050541075
 51
308.6449035469689761
  0
LINE
  5
262CD
  8
0
 10
4914.5804310638823154
 20
-8.5178535863963418
 30
0.0
 11
4916.9623208275816069
 21
-8.5178535863963418
 31
0.0
  0
LINE
  5
262CE
  8
0
 10
4916.9623208275816069
 20
-8.5178535863963418
 30
0.0
 11
4916.9523255317826624
 21
-9.0897503819963461
 31
0.0
  0
ARC
  5
262CF
  8
0
 10
4916.8932780849472692
 20
-9.0887183833876861
 30
0.0
 40
0.0590564644974284
 50
270.0137021714826915
 51
358.9987180063296819
  0
LINE
  5
262D0
  8
0
 10
4916.8932922081821744
 20
-9.1477748461963415
 30
0.0
 11
4914.6494597474465991
 21
-9.1477748461963415
 31
0.0
  0
ARC
  5
262D1
  8
0
 10
4914.6494596832681054
 20
-9.0887197281314478
 30
0.0
 40
0.0590551180649286
 50
180.9999999439401961
 51
270.0000622669563768
  0
LINE
  5
262D2
  8
0
 10
4914.5904135595819753
 20
-9.0897503819963461
 30
0.0
 11
4914.5804310638823154
 21
-8.5178535863963418
 31
0.0
  0
ARC
  5
262D3
  8
0
 10
4916.588092457568564
 20
-9.2068299642616882
 30
0.0
 40
0.059055118065352
 50
89.9999999862428837
 51
179.0000000556291013
  0
LINE
  5
262D4
  8
0
 10
4916.5290463338833433
 20
-9.2057993103963405
 30
0.0
 11
4916.5194074423579877
 21
-9.7580110667063913
 31
0.0
  0
LINE
  5
262D5
  8
0
 10
4916.5194074423579877
 20
-9.7580110667063913
 30
0.0
 11
4915.0233444496816446
 21
-9.7580110666963407
 31
0.0
  0
LINE
  5
262D6
  8
0
 10
4915.0233444496816446
 20
-9.7580110666963407
 30
0.0
 11
4915.0137055575823979
 21
-9.2057993103691658
 31
0.0
  0
ARC
  5
262D7
  8
0
 10
4914.9545432036766215
 20
-9.2068756487569807
 30
0.0
 40
0.0591721439850951
 50
1.042264892222071
 51
87.1861981571734646
  0
LINE
  5
262D8
  8
0
 10
4916.3619271267816657
 20
-9.7580110666963407
 30
0.0
 11
4916.3619271267816657
 21
-10.1713968934963397
 31
0.0
  0
LINE
  5
262D9
  8
0
 10
4916.3619271267816657
 20
-10.1713968934963397
 30
0.0
 11
4915.1808247645831216
 21
-10.1713968934963397
 31
0.0
  0
LINE
  5
262DA
  8
0
 10
4915.1808247645831216
 20
-10.1713968934963397
 30
0.0
 11
4915.1808247645831216
 21
-9.7580110666963407
 31
0.0
  0
LINE
  5
262DB
  8
0
 10
4916.1946042921827029
 20
-10.1713968934963397
 30
0.0
 11
4916.1946042921827029
 21
-10.2245464997963396
 31
0.0
  0
LINE
  5
262DC
  8
0
 10
4916.1946042921827029
 20
-10.2245464997963396
 30
0.0
 11
4916.1847617724815791
 21
-10.2343890193963407
 31
0.0
  0
LINE
  5
262DD
  8
0
 10
4916.1847617724815791
 20
-10.2343890193963407
 30
0.0
 11
4916.1847617724815791
 21
-10.2501370508963401
 31
0.0
  0
LINE
  5
262DE
  8
0
 10
4915.0826855968825839
 20
-10.2501370508963401
 30
0.0
 11
4916.4600631431821967
 21
-10.2501370508963401
 31
0.0
  0
LINE
  5
262DF
  8
0
 10
4916.4600631431821967
 20
-10.2501370508963401
 30
0.0
 11
4916.4602836018821108
 21
-10.3324312863963392
 31
0.0
  0
ARC
  5
262E0
  8
0
 10
4916.5589730206238528
 20
-10.3321669065059698
 30
0.0
 40
0.0986897728657254
 50
180.1534897647904927
 51
269.8855839421750034
  0
LINE
  5
262E1
  8
0
 10
4916.5587759435029511
 20
-10.4308564825963401
 30
0.0
 11
4917.0138776188823613
 21
-10.4308564825963401
 31
0.0
  0
ARC
  5
262E2
  8
0
 10
4917.0138776188823613
 20
-10.4899116006963595
 30
0.0
 40
0.059055118100023
 50
0.0000000000207627
 51
90.0
  0
LINE
  5
262E3
  8
0
 10
4917.0729327369817838
 20
-10.48991160069634
 30
0.0
 11
4917.0729327369817838
 21
-12.3403053014963398
 31
0.0
  0
ARC
  5
262E4
  8
0
 10
4917.0138776188823613
 20
-12.3403053014963504
 30
0.0
 40
0.0590551180999928
 50
270.0
 51
0.0000000000069209
  0
LINE
  5
262E5
  8
0
 10
4917.0138776188823613
 20
-12.3993604195963396
 30
0.0
 11
4914.0774302775826072
 21
-12.3993604195959808
 31
0.0
  0
ARC
  5
262E6
  8
0
 10
4914.0774297049792949
 20
-12.6739170429819907
 30
0.0
 40
0.2745566233866032
 50
89.9998805064991387
 51
179.6350325370225107
  0
LINE
  5
262E7
  8
0
 10
4913.8028786516988475
 20
-12.6721681609963408
 30
0.0
 11
4913.8028786516988475
 21
-13.3087680731963403
 31
0.0
  0
LINE
  5
262E8
  8
0
 10
4913.8028786516988475
 20
-13.3087680731963403
 30
0.0
 11
4913.2713759456828484
 21
-13.3087680732798308
 31
0.0
  0
LINE
  5
262E9
  8
0
 10
4913.2713759456828484
 20
-11.4151084803377501
 30
0.0
 11
4913.2713759456819389
 21
-20.8023919156963508
 31
0.0
  0
ARC
  5
262EA
  8
0
 10
4913.2516909062824197
 20
-20.8023919156963508
 30
0.0
 40
0.0196850394000006
 50
270.0000002910877015
 51
0.0000000000052924
  0
ARC
  5
262EB
  8
0
 10
4913.173312073845409
 20
-14.2807696968237696
 30
0.0
 40
0.49517810433916
 50
281.4222252696712872
 51
287.975916818680389
  0
ARC
  5
262EC
  8
0
 10
4913.31917176254683
 20
-14.7303225307083192
 30
0.0
 40
0.022554787900069
 50
287.9759168186802754
 51
357.0178244767644173
  0
LINE
  5
262ED
  8
0
 10
4913.3416960060303609
 20
-14.7314959499601201
 30
0.0
 11
4913.3572343461819401
 21
-13.8417052134963399
 31
0.0
  0
LINE
  5
262EE
  8
0
 10
4913.3572343461819401
 20
-13.8417052134963399
 30
0.0
 11
4913.2713759456828484
 21
-13.8417052134963399
 31
0.0
  0
LINE
  5
262EF
  8
0
 10
4913.2713759456828484
 20
-13.3166420889963408
 30
0.0
 11
4913.7829808071819571
 21
-13.3166420889963408
 31
0.0
  0
LINE
  5
262F0
  8
0
 10
4913.7829808071819571
 20
-13.3166420889963408
 30
0.0
 11
4913.7822099992827134
 21
-13.3570071233963397
 31
0.0
  0
ARC
  5
262F1
  8
0
 10
4913.7231910050650185
 20
-13.3539964390673305
 30
0.0
 40
0.0590957350291619
 50
280.4135161538724788
 51
357.0797518193023734
  0
ARC
  5
262F2
  8
0
 10
4913.862509119250717
 20
-14.2639698802757504
 30
0.0
 40
0.8615089146396627
 50
98.5872512462742634
 51
118.1267574505233
  0
ARC
  5
262F3
  8
0
 10
4913.6252193468080804
 20
-13.8151702563427108
 30
0.0
 40
0.3538529517968524
 50
118.5003662350191007
 51
179.5790367887094874
  0
LINE
  5
262F4
  8
0
 10
4913.7185212484928343
 20
-13.4150450949809308
 30
0.0
 11
4913.2713759456828484
 21
-13.4150450949809308
 31
0.0
  0
LINE
  5
262F5
  8
0
 10
4913.3402460499819426
 20
-13.8417285070963398
 30
0.0
 11
4913.3197705560687609
 21
-14.4797681135762897
 31
0.0
  0
ARC
  5
262F6
  8
0
 10
4911.5528616078663617
 20
-14.4230657818597496
 30
0.0
 40
1.7678185386690739
 50
355.3822210924615774
 51
358.1619371339467079
  0
ARC
  5
262F7
  8
0
 10
4908.9856810147903161
 20
-14.2157135614709507
 30
0.0
 40
4.3433594800567112
 50
354.057562193259912
 51
355.3822210924615774
  0
ARC
  5
262F8
  8
0
 10
4913.1265800808423592
 20
-14.6467339235885294
 30
0.0
 40
0.1800886952312095
 50
344.6677899726547025
 51
354.0575621932591162
  0
ARC
  5
262F9
  8
0
 10
4913.2578077200505504
 20
-14.6827130489814994
 30
0.0
 40
0.0440181592700726
 50
330.7015586913544212
 51
344.6677899726544752
  0
ARC
  5
262FA
  8
0
 10
4913.2901637733430107
 20
-14.7008692618579904
 30
0.0
 40
0.0069161074319847
 50
259.1076350357125762
 51
330.7015586913465768
  0
ARC
  5
262FB
  8
0
 10
4913.3282136179586814
 20
-14.5863263368639693
 30
0.0
 40
0.1275578201597072
 50
243.5393168488664912
 51
252.0287082891925081
  0
ARC
  5
262FC
  8
0
 10
4914.9839727958833464
 20
-10.3324312863952805
 30
0.0
 40
0.0984251962010525
 50
270.0
 51
0.0002651573797543
  0
LINE
  5
262FD
  8
0
 10
4915.0823979920824058
 20
-10.3324308308963406
 30
0.0
 11
4915.0826855968825839
 21
-10.2501370508963401
 31
0.0
  0
LINE
  5
262FE
  8
0
 10
4915.3481475992812193
 20
-10.1713968934963397
 30
0.0
 11
4915.3481475992812193
 21
-10.2245464997963396
 31
0.0
  0
LINE
  5
262FF
  8
0
 10
4915.3481475992812193
 20
-10.2245464997963396
 30
0.0
 11
4915.3579901189823431
 21
-10.2343890193963407
 31
0.0
  0
LINE
  5
26300
  8
0
 10
4915.3579901189823431
 20
-10.2343890193963407
 30
0.0
 11
4915.3579901189823431
 21
-10.2501370508963401
 31
0.0
  0
LINE
  5
26301
  8
0
 10
4915.3579901189823431
 20
-10.2343890193963407
 30
0.0
 11
4916.1847617724815791
 21
-10.2343890193963407
 31
0.0
  0
LINE
  5
26302
  8
0
 10
4915.3481475992812193
 20
-10.2245464997963396
 30
0.0
 11
4916.1946042921827029
 21
-10.2245464997963396
 31
0.0
  0
ARC
  5
26303
  8
0
 10
4914.3525620508480642
 20
-7.770878893273486
 30
0.0
 40
3.3172762202473831
 50
304.4383728810259981
 51
309.4494653789000154
  0
ARC
  5
26304
  8
0
 10
4915.6134499486215645
 20
-9.6097161606213852
 30
0.0
 40
1.0876662125235881
 50
293.3419347258853804
 51
304.4383728810259981
  0
ARC
  5
26305
  8
0
 10
4915.7713970379090824
 20
-10.0546383288282009
 30
0.0
 40
0.6173687702442364
 50
243.7938795175847133
 51
296.2448458263335738
  0
ARC
  5
26306
  8
0
 10
4915.9465347869172547
 20
-9.5690011656619092
 30
0.0
 40
1.131881447176988
 50
233.6839336949458925
 51
246.6967906180175873
  0
ARC
  5
26307
  8
0
 10
4918.8346895810818751
 20
-5.6395647124901203
 30
0.0
 40
6.0085513103695121
 50
231.3550964530309102
 51
233.6839336949458925
  0
ENDSEC
  0
EOF
