  0
SECTION
  2
HEADER
  9
$ACADVER
  1
AC1009
  9
$INSBASE
 10
4931.6379148601608904
 20
-8.5176831333010892
 30
0.0
  9
$EXTMIN
 10
4919.3113651511475837
 20
-9.7094405827799193
 30
-0.0000000000112498
  9
$EXTMAX
 10
4931.7285417213579422
 20
0.5447234880395015
 30
0.0000000000002956
  9
$LIMMIN
 10
0.0
 20
0.0
  9
$LIMMAX
 10
11.6929133858000007
 20
8.2677165353999982
  9
$ORTHOMODE
 70
     0
  9
$REGENMODE
 70
     1
  9
$FILLMODE
 70
     1
  9
$QTEXTMODE
 70
     0
  9
$MIRRTEXT
 70
     0
  9
$DRAGMODE
 70
     2
  9
$LTSCALE
 40
0.6431102362
  9
$OSMODE
 70
  3839
  9
$ATTMODE
 70
     1
  9
$TEXTSIZE
 40
0.2
  9
$TRACEWID
 40
0.05
  9
$TEXTSTYLE
  7
STANDARD
  9
$CLAYER
  8
0
  9
$CELTYPE
  6
BYLAYER
  9
$CECOLOR
 62
   256
  9
$DIMSCALE
 40
1.0
  9
$DIMASZ
 40
0.1875
  9
$DIMEXO
 40
0.0625
  9
$DIMDLI
 40
0.4443307087
  9
$DIMRND
 40
0.0
  9
$DIMDLE
 40
0.0
  9
$DIMEXE
 40
0.125
  9
$DIMTP
 40
0.01
  9
$DIMTM
 40
0.01
  9
$DIMTXT
 40
2.0
  9
$DIMCEN
 40
0.1052362205
  9
$DIMTSZ
 40
0.0
  9
$DIMTOL
 70
     1
  9
$DIMLIM
 70
     0
  9
$DIMTIH
 70
     1
  9
$DIMTOH
 70
     1
  9
$DIMSE1
 70
     0
  9
$DIMSE2
 70
     0
  9
$DIMTAD
 70
     0
  9
$DIMZIN
 70
     0
  9
$DIMBLK
  1

  9
$DIMASO
 70
     1
  9
$DIMSHO
 70
     1
  9
$DIMPOST
  1
\X
  9
$DIMAPOST
  1

  9
$DIMALT
 70
     1
  9
$DIMALTD
 70
     2
  9
$DIMALTF
 40
25.3999999999999986
  9
$DIMLFAC
 40
1.0
  9
$DIMTOFL
 70
     0
  9
$DIMTVP
 40
0.0
  9
$DIMTIX
 70
     0
  9
$DIMSOXD
 70
     0
  9
$DIMSAH
 70
     0
  9
$DIMBLK1
  1

  9
$DIMBLK2
  1

  9
$DIMSTYLE
  2
STANDARD
  9
$DIMCLRD
 70
     0
  9
$DIMCLRE
 70
     0
  9
$DIMCLRT
 70
     0
  9
$DIMTFAC
 40
1.0
  9
$DIMGAP
 40
0.09
  9
$LUNITS
 70
     2
  9
$LUPREC
 70
     4
  9
$SKETCHINC
 40
0.1
  9
$FILLETRAD
 40
0.0
  9
$AUNITS
 70
     0
  9
$AUPREC
 70
     0
  9
$MENU
  1
.
  9
$ELEVATION
 40
0.0
  9
$PELEVATION
 40
0.0
  9
$THICKNESS
 40
0.0
  9
$LIMCHECK
 70
     0
  9
$BLIPMODE
 70
     0
  9
$CHAMFERA
 40
0.0
  9
$CHAMFERB
 40
0.0
  9
$SKPOLY
 70
     0
  9
$TDCREATE
 40
2458060.468368056230247
  9
$TDUPDATE
 40
2460565.7383680557832122
  9
$TDINDWG
 40
0.5818936343
  9
$TDUSRTIMER
 40
0.5818936343
  9
$USRTIMER
 70
     1
  9
$ANGBASE
 50
0.0
  9
$ANGDIR
 70
     0
  9
$PDMODE
 70
     0
  9
$PDSIZE
 40
0.3125
  9
$PLINEWID
 40
0.0
  9
$COORDS
 70
     1
  9
$SPLFRAME
 70
     0
  9
$SPLINETYPE
 70
     6
  9
$SPLINESEGS
 70
     8
  9
$ATTDIA
 70
     1
  9
$ATTREQ
 70
     1
  9
$HANDLING
 70
     1
  9
$HANDSEED
  5
26311
  9
$SURFTAB1
 70
     6
  9
$SURFTAB2
 70
     6
  9
$SURFTYPE
 70
     6
  9
$SURFU
 70
     6
  9
$SURFV
 70
     6
  9
$UCSNAME
  2

  9
$UCSORG
 10
0.0
 20
0.0
 30
0.0
  9
$UCSXDIR
 10
1.0
 20
0.0
 30
0.0
  9
$UCSYDIR
 10
0.0
 20
1.0
 30
0.0
  9
$PUCSNAME
  2

  9
$PUCSORG
 10
0.0
 20
0.0
 30
0.0
  9
$PUCSXDIR
 10
1.0
 20
0.0
 30
0.0
  9
$PUCSYDIR
 10
0.0
 20
1.0
 30
0.0
  9
$USERI1
 70
     0
  9
$USERI2
 70
     0
  9
$USERI3
 70
     0
  9
$USERI4
 70
     0
  9
$USERI5
 70
     0
  9
$USERR1
 40
0.0
  9
$USERR2
 40
0.0
  9
$USERR3
 40
0.0
  9
$USERR4
 40
0.0
  9
$USERR5
 40
0.0
  9
$WORLDVIEW
 70
     1
  9
$SHADEDGE
 70
     3
  9
$SHADEDIF
 70
    70
  9
$TILEMODE
 70
     1
  9
$MAXACTVP
 70
    64
  9
$PLIMCHECK
 70
     0
  9
$PEXTMIN
 10
1.0000000000000000E+20
 20
1.0000000000000000E+20
 30
1.0000000000000000E+20
  9
$PEXTMAX
 10
-1.0000000000000000E+20
 20
-1.0000000000000000E+20
 30
-1.0000000000000000E+20
  9
$PLIMMIN
 10
0.0
 20
0.0
  9
$PLIMMAX
 10
12.0
 20
9.0
  9
$UNITMODE
 70
     0
  9
$VISRETAIN
 70
     1
  9
$PLINEGEN
 70
     0
  9
$PSLTSCALE
 70
     1
  0
ENDSEC
  0
SECTION
  2
TABLES
  0
TABLE
  2
VPORT
 70
     1
  0
VPORT
  2
*ACTIVE
 70
     0
 10
0.0
 20
0.0
 11
1.0
 21
1.0
 12
1133.1620432800038998
 22
-124.7630149804757025
 13
0.0
 23
0.0
 14
1.0
 24
1.0
 15
0.0
 25
0.0
 16
0.0
 26
0.0
 36
5.1040778033513332
 17
3792.35791015625
 27
120.1806564331053977
 37
0.0
 40
10.3282905580783204
 41
2.3051869722557292
 42
50.0
 43
0.0
 44
0.0
 50
0.0
 51
0.0
 71
     0
 72
   100
 73
     1
 74
     1
 75
     0
 76
     0
 77
     0
 78
     0
  0
ENDTAB
  0
TABLE
  2
LTYPE
 70
     2
  0
LTYPE
  2
CONTINUOUS
 70
     0
  3
Solid line
 72
    65
 73
     0
 40
0.0
  0
LTYPE
  2
PHANTOM2
 70
     0
  3
___ _ _ ___ _ _ ___ _ _ ___ _ _
 72
    65
 73
     6
 40
1.25
 49
0.625
 49
-0.125
 49
0.125
 49
-0.125
 49
0.125
 49
-0.125
  0
ENDTAB
  0
TABLE
  2
LAYER
 70
     2
  0
LAYER
  2
0
 70
     0
 62
   255
  6
CONTINUOUS
  0
LAYER
  2
DEFPOINTS
 70
     0
 62
     7
  6
CONTINUOUS
  0
ENDTAB
  0
TABLE
  2
STYLE
 70
     1
  0
STYLE
  2
STANDARD
 70
     0
 40
0.0
 41
0.8
 50
0.0
 71
     0
 42
0.2
  3
txt
  4

  0
ENDTAB
  0
TABLE
  2
VIEW
 70
     0
  0
ENDTAB
  0
TABLE
  2
UCS
 70
     0
  0
ENDTAB
  0
TABLE
  2
APPID
 70
     9
  0
APPID
  2
ACAD
 70
     0
  0
APPID
  2
ACAD_MLEADERVER
 70
     0
  0
APPID
  2
ACAD_EXEMPT_FROM_CAD_STANDARDS
 70
     0
  0
APPID
  2
ACAD_NAV_VCDISPLAY
 70
     0
  0
APPID
  2
ACAECLAYERSTANDARD
 70
     0
  0
APPID
  2
ACCMTRANSPARENCY
 70
     0
  0
APPID
  2
ACAD_DSTYLE_DIMJAG
 70
     0
  0
APPID
  2
ACAD_DSTYLE_DIMTALN
 70
     0
  0
APPID
  2
ACDBATTR
 70
     0
  0
ENDTAB
  0
TABLE
  2
DIMSTYLE
 70
     1
  0
DIMSTYLE
  2
STANDARD
 70
     0
  3

  4

  5

  6

  7

 40
1.0
 41
0.1875
 42
0.0625
 43
0.38
 44
0.125
 45
0.0
 46
0.0
 47
0.01
 48
0.01
140
0.15625
141
0.09
142
0.0
143
25.3999999999999986
144
1.0
145
0.0
146
1.0
147
0.09
 71
     1
 72
     0
 73
     1
 74
     1
 75
     0
 76
     0
 77
     0
 78
     4
170
     0
171
     2
172
     0
173
     0
174
     0
175
     0
176
     0
177
     0
178
     0
  0
ENDTAB
  0
ENDSEC
  0
SECTION
  2
BLOCKS
  0
BLOCK
  8
0
  2
$MODEL_SPACE
 70
     0
 10
0.0
 20
0.0
 30
0.0
  3
$MODEL_SPACE
  1

  0
ENDBLK
  5
21
  8
0
  0
BLOCK
 67
     1
  8
0
  2
$PAPER_SPACE
 70
     0
 10
0.0
 20
0.0
 30
0.0
  3
$PAPER_SPACE
  1

  0
ENDBLK
  5
1D
 67
     1
  8
0
  0
BLOCK
  8
0
  2
_FILLED
 70
     0
 10
0.0
 20
0.0
 30
0.0
  3
_FILLED
  1

  0
SOLID
  5
25CA2
  8
0
  6
BYBLOCK
 62
     0
 10
0.0
 20
0.0
 30
0.0
 11
-1.0
 21
0.1666666667
 31
0.0
 12
-1.0
 22
-0.1666666667
 32
0.0
 13
-1.0
 23
-0.1666666667
 33
0.0
  0
ENDBLK
  5
25CA3
  8
0
  6
BYBLOCK
 62
     0
  0
ENDSEC
  0
SECTION
  2
ENTITIES
  0
ARC
  5
26028
  8
0
 10
4919.3533765175079679
 20
0.5249822534236124
 30
0.0
 40
0.0196850331753008
 50
89.9999611347478634
 51
180.0487594752987945
  0
LINE
  5
26029
  8
0
 10
4919.3533765308602597
 20
0.5446672865989087
 30
0.0
 11
4927.240355671209727
 21
0.5446672865989087
 31
0.0
  0
ARC
  5
2602A
  8
0
 10
4927.244576896729086
 20
-1.4041671459579721
 30
0.0
 40
1.9488390041930581
 50
0.0004567270371183
 51
90.1241039384336062
  0
LINE
  5
2602B
  8
0
 10
4929.1934159008606002
 20
-1.404151611001091
 30
0.0
 11
4929.1934570131506916
 21
-6.5616319258372293
 31
0.0
  0
LINE
  5
2602C
  8
0
 10
4929.1934570131506916
 20
-6.5616319258372293
 30
0.0
 11
4928.2879040898596941
 21
-6.5616319258372293
 31
0.0
  0
LINE
  5
2602D
  8
0
 10
4928.2879040898596941
 20
-6.5616319258372293
 30
0.0
 11
4928.2879040898596941
 21
-1.404151611001091
 31
0.0
  0
ARC
  5
2602E
  8
0
 10
4927.2445970032613332
 20
-1.4041516110010921
 30
0.0
 40
1.043307086599998
 50
0.0000000000001018
 51
90.0
  0
LINE
  5
2602F
  8
0
 10
4927.2445970032613332
 20
-0.3608445244010916
 30
0.0
 11
4920.2076457143602966
 21
-0.3608445244010916
 31
0.0
  0
ARC
  5
26030
  8
0
 10
4919.6581042325642557
 20
-1.0600141488254671
 30
0.0
 40
0.8892884818398868
 50
51.832949139853099
 51
63.829167341325352
  0
ARC
  5
26031
  8
0
 10
4919.888611602011224
 20
-0.5946364454027107
 30
0.0
 40
0.3699584040430494
 50
64.0803783063364136
 51
120.908789665338503
  0
ARC
  5
26032
  8
0
 10
4920.2470101219369099
 20
-1.366178804164262
 30
0.0
 40
1.2192700255526021
 50
116.7312980856968068
 51
124.4583361241881931
  0
LINE
  5
26033
  8
0
 10
4919.5571388432608728
 20
-0.3608445244010916
 30
0.0
 11
4919.3533765308602597
 21
-0.3608445244010916
 31
0.0
  0
ARC
  5
26034
  8
0
 10
4919.3533765308602597
 20
-0.3411594850010893
 30
0.0
 40
0.0196850394000023
 50
180.0000000000050875
 51
270.0
  0
LINE
  5
26035
  8
0
 10
4919.3336914914607405
 20
-0.3411594850010893
 30
0.0
 11
4919.3336914914607405
 21
0.5249655011989099
 31
0.0
  0
LINE
  5
26036
  8
0
 10
4919.3587702315608112
 20
0.5446672865989087
 30
0.0
 11
4919.3587702315608112
 21
-0.360844524401088
 31
0.0
  0
LINE
  5
26037
  8
0
 10
4931.6379148601608904
 20
-7.3267382514010899
 30
0.0
 11
4931.6379148601608904
 21
-9.7086280152010911
 31
0.0
  0
LINE
  5
26038
  8
0
 10
4931.6379148601608904
 20
-9.7086280152010911
 30
0.0
 11
4931.0660180644608772
 21
-9.6986455194209711
 31
0.0
  0
ARC
  5
26039
  8
0
 10
4931.0670487183815567
 20
-9.6395993956799781
 30
0.0
 40
0.0590551181214828
 50
180.0000000204817923
 51
269.0000000021090045
  0
LINE
  5
2603A
  8
0
 10
4931.0079936002603063
 20
-9.6395993957010901
 30
0.0
 11
4931.0079935994572224
 21
-7.39576687080109
 31
0.0
  0
ARC
  5
2603B
  8
0
 10
4931.0670487175220842
 20
-7.3957668707799789
 30
0.0
 40
0.059055118064272
 50
90.9999991649909248
 51
180.0000000204834123
  0
LINE
  5
2603C
  8
0
 10
4931.0660180644608772
 20
-7.3367207470812099
 30
0.0
 11
4931.6379148601608904
 21
-7.3267382514010899
 31
0.0
  0
ARC
  5
2603D
  8
0
 10
4930.9489384821890781
 20
-7.7009666214091466
 30
0.0
 40
0.0590551180715728
 50
270.9999999768352836
 51
0.000000007816633
  0
LINE
  5
2603E
  8
0
 10
4930.9499691360879297
 20
-7.760012745100612
 30
0.0
 11
4930.3977573798547382
 21
-7.7696516369366151
 31
0.0
  0
LINE
  5
2603F
  8
0
 10
4930.3977573798547382
 20
-7.7696516369366151
 30
0.0
 11
4930.3977573798611047
 21
-9.2657146293010904
 31
0.0
  0
LINE
  5
26040
  8
0
 10
4930.3977573798611047
 20
-9.2657146293010904
 30
0.0
 11
4930.9499691360606448
 21
-9.2753535214010903
 31
0.0
  0
ARC
  5
26041
  8
0
 10
4930.9489384821317799
 20
-9.3343996451486841
 30
0.0
 40
0.0590551181282035
 50
0.0000000461774811
 51
88.9999999956984738
  0
LINE
  5
26042
  8
0
 10
4930.3977573798611047
 20
-9.1574469128010918
 30
0.0
 11
4930.0040567068599557
 21
-9.1574469128010918
 31
0.0
  0
LINE
  5
26043
  8
0
 10
4930.0040567068599557
 20
-9.1574469128010918
 30
0.0
 11
4929.984371553060555
 21
-9.1377617625010892
 31
0.0
  0
LINE
  5
26044
  8
0
 10
4929.984371553060555
 20
-9.1377617625010892
 30
0.0
 11
4929.984371553060555
 21
-7.89760450400109
 31
0.0
  0
LINE
  5
26045
  8
0
 10
4929.984371553060555
 20
-7.89760450400109
 30
0.0
 11
4930.0040567068599557
 21
-7.8779193537010901
 31
0.0
  0
LINE
  5
26046
  8
0
 10
4930.0040567068599557
 20
-7.8779193537010901
 30
0.0
 11
4930.3977573798611047
 21
-7.8779193537010901
 31
0.0
  0
LINE
  5
26047
  8
0
 10
4930.0040567068599557
 20
-9.1574469128010918
 30
0.0
 11
4930.0040567068599557
 21
-8.7637461254010915
 31
0.0
  0
LINE
  5
26048
  8
0
 10
4930.0040567068599557
 20
-8.7637461254010915
 30
0.0
 11
4930.3977573798592857
 21
-8.7637461254010915
 31
0.0
  0
LINE
  5
26049
  8
0
 10
4930.0040567068599557
 20
-8.7637461254010915
 30
0.0
 11
4929.9843715530241752
 21
-8.7067630151016004
 31
0.0
  0
LINE
  5
2604A
  8
0
 10
4930.0040567068599557
 20
-7.8779193537010901
 30
0.0
 11
4930.0040605149597468
 21
-8.2716201411010903
 31
0.0
  0
LINE
  5
2604B
  8
0
 10
4930.0040605149597468
 20
-8.2716201411010903
 30
0.0
 11
4930.3977573798565572
 21
-8.2716201411010903
 31
0.0
  0
LINE
  5
2604C
  8
0
 10
4930.0040605149597468
 20
-8.2716201411010903
 30
0.0
 11
4929.9843715530123518
 21
-8.3286179383169063
 31
0.0
  0
LINE
  5
2604D
  8
0
 10
4929.9056313955607038
 20
-7.8286453615010911
 30
0.0
 11
4929.9056313955607038
 21
-9.2065106485010908
 31
0.0
  0
LINE
  5
2604E
  8
0
 10
4929.9056313955607038
 20
-9.2065106485010908
 30
0.0
 11
4929.4840120148601272
 21
-9.2067324086010913
 31
0.0
  0
ARC
  5
2604F
  8
0
 10
4929.4840642990302513
 20
-9.3061372119812127
 30
0.0
 40
0.099404817130132
 50
90.0301359880807013
 51
133.0592553339735957
  0
CIRCLE
  5
26050
  8
0
 10
4928.7406599953601471
 20
-8.5176831333010892
 30
0.0
 40
0.9842519685000006
  0
ARC
  5
26051
  8
0
 10
4928.6016881754540009
 20
-7.7461848914283813
 30
0.0
 40
1.768150878773135
 50
270.097233470405115
 51
279.9375612967753
  0
LINE
  5
26052
  8
0
 10
4928.6046888042101273
 20
-9.5143332241010903
 30
0.0
 11
4926.8470003732600162
 21
-9.5019278405010912
 31
0.0
  0
LINE
  5
26053
  8
0
 10
4926.8470003732600162
 20
-9.5019278405010912
 30
0.0
 11
4926.8470003732600162
 21
-7.5334239035010899
 31
0.0
  0
LINE
  5
26054
  8
0
 10
4926.8470003732600162
 20
-7.5334239035010899
 30
0.0
 11
4928.0986169967445676
 21
-7.5314488785359757
 31
0.0
  0
ARC
  5
26055
  8
0
 10
4928.0983176100089622
 20
-7.3417209396808421
 30
0.0
 40
0.1897281750680051
 50
270.0904114717820903
 51
2.236423106970268
  0
LINE
  5
26056
  8
0
 10
4928.2879012712610347
 20
-7.3343171703010901
 30
0.0
 11
4928.287904089960648
 21
-6.5695059417010899
 31
0.0
  0
LINE
  5
26057
  8
0
 10
4928.287904089960648
 20
-6.5695059417010899
 30
0.0
 11
4929.1934159008606002
 21
-6.5695059417010899
 31
0.0
  0
LINE
  5
26058
  8
0
 10
4929.1934159008606002
 20
-6.5695059417010899
 30
0.0
 11
4929.1934159008606002
 21
-7.329725156501091
 31
0.0
  0
ARC
  5
26059
  8
0
 10
4929.8157533291687287
 20
-7.3674846531268701
 30
0.0
 40
0.6234818796550657
 50
176.5279111204469018
 51
203.3414988302502877
  0
ARC
  5
2605A
  8
0
 10
4929.6305723768209646
 20
-7.4057373785541571
 30
0.0
 40
0.4399657926768692
 50
208.3288193556766998
 51
231.6520593730081998
  0
ARC
  5
2605B
  8
0
 10
4929.4868169037763437
 20
-7.7235176055142007
 30
0.0
 40
0.1057179162871715
 50
230.6669107163218086
 51
250.5803819593172079
  0
ARC
  5
2605C
  8
0
 10
4929.4837630097335932
 20
-7.7321801394812786
 30
0.0
 40
0.0965328325343943
 50
250.580381959317009
 51
269.9990041199928896
  0
LINE
  5
2605D
  8
0
 10
4929.4837613318595686
 20
-7.8287129720010906
 30
0.0
 11
4929.9056313955607038
 21
-7.8286453615010911
 31
0.0
  0
LINE
  5
2605E
  8
0
 10
4929.984371553060555
 20
-8.0944547868010908
 30
0.0
 11
4929.9312219467601608
 21
-8.0944547868010908
 31
0.0
  0
LINE
  5
2605F
  8
0
 10
4929.9312219467601608
 20
-8.0944547868010908
 30
0.0
 11
4929.9213794270599465
 21
-8.1042973065010901
 31
0.0
  0
LINE
  5
26060
  8
0
 10
4929.9213794270599465
 20
-8.1042973065010901
 30
0.0
 11
4929.9056313955607038
 21
-8.1042973065010901
 31
0.0
  0
LINE
  5
26061
  8
0
 10
4929.9312219467601608
 20
-8.0944547868010908
 30
0.0
 11
4929.9312219467601608
 21
-8.9409114797010911
 31
0.0
  0
LINE
  5
26062
  8
0
 10
4929.9213794270599465
 20
-8.1042973065010901
 30
0.0
 11
4929.9213794270599465
 21
-8.9310689600010917
 31
0.0
  0
LINE
  5
26063
  8
0
 10
4929.9056313955607038
 20
-8.9310689600010917
 30
0.0
 11
4929.9213794270599465
 21
-8.9310689600010882
 31
0.0
  0
LINE
  5
26064
  8
0
 10
4929.9213794270599465
 20
-8.9310689600010882
 30
0.0
 11
4929.9312219467601608
 21
-8.9409114797010911
 31
0.0
  0
LINE
  5
26065
  8
0
 10
4929.9312219467601608
 20
-8.9409114797010911
 30
0.0
 11
4929.984371553060555
 21
-8.9409114797010911
 31
0.0
  0
LINE
  5
26066
  8
0
 10
4926.8391263575613266
 20
-7.5533223663010904
 30
0.0
 11
4926.8391263575613266
 21
-9.4820439002010914
 31
0.0
  0
LINE
  5
26067
  8
0
 10
4926.8391263575613266
 20
-9.4820439002010914
 30
0.0
 11
4926.7780141396597173
 21
-9.4809771825010891
 31
0.0
  0
ARC
  5
26068
  8
0
 10
4926.7790445608452501
 20
-9.4219443906154794
 30
0.0
 40
0.0590417842347982
 50
223.0122448043435099
 51
269.0000000293667881
  0
ARC
  5
26069
  8
0
 10
4926.5628485659372018
 20
-9.6236368163871902
 30
0.0
 40
0.2366278672821059
 50
43.0122448043432968
 51
67.8378587186788735
  0
ARC
  5
2606A
  8
0
 10
4926.3167165078311882
 20
-10.3101730073060196
 30
0.0
 40
0.9657896513522402
 50
69.6792466754527169
 51
90.1587809541774874
  0
LINE
  5
2606B
  8
0
 10
4926.3140397431607198
 20
-9.4377715651010892
 30
0.0
 11
4926.3140397431607198
 21
-7.5576190889010899
 31
0.0
  0
LINE
  5
2606C
  8
0
 10
4926.3140397431607198
 20
-7.5576190889010899
 30
0.0
 11
4926.1929758885607953
 21
-7.5543187590010898
 31
0.0
  0
ARC
  5
2606D
  8
0
 10
4926.1866815500779921
 20
-6.4974970184578877
 30
0.0
 40
1.0568404846435859
 50
254.9065576944558131
 51
270.3412446506741276
  0
ARC
  5
2606E
  8
0
 10
4926.052060549331145
 20
-7.1008541425744029
 30
0.0
 40
0.4400804829869935
 50
225.2407468420433929
 51
251.3716777919715071
  0
ARC
  5
2606F
  8
0
 10
4926.1901066469681609
 20
-6.9821354020279482
 30
0.0
 40
0.6217490708301066
 50
190.8359807171977991
 51
223.9109333615533899
  0
ARC
  5
26070
  8
0
 10
4931.974082096337952
 20
-6.2580281236485797
 30
0.0
 40
6.4497032605041831
 50
179.1505521167055122
 51
187.4922920030680871
  0
ARC
  5
26071
  8
0
 10
4981.2222660690658813
 20
-5.1745873666844231
 30
0.0
 40
55.7059375545369306
 50
180.2045883399111119
 51
181.0160687673007089
  0
ARC
  5
26072
  8
0
 10
4920.8882685405505981
 20
-5.3199702352331162
 30
0.0
 40
4.6287246231892381
 50
359.3373974689973238
 51
6.1640697477256357
  0
ARC
  5
26073
  8
0
 10
4924.972386533469944
 20
-4.8911753990396729
 30
0.0
 40
0.5223197158842742
 50
7.50467331881757
 51
19.2663022245598299
  0
ARC
  5
26074
  8
0
 10
4925.4281171070160781
 20
-4.7317579443565698
 30
0.0
 40
0.0395111614756479
 50
19.0969437408896709
 51
89.7544591387699029
  0
LINE
  5
26075
  8
0
 10
4925.428286431440938
 20
-4.6922471457010912
 30
0.0
 11
4925.3883910103040762
 21
-4.6929387284609394
 31
0.0
  0
ARC
  5
26076
  8
0
 10
4925.3893859123600123
 20
-4.7125986106010878
 30
0.0
 40
0.0196850398999972
 50
92.8970215634422658
 51
180.4999800429071968
  0
LINE
  5
26077
  8
0
 10
4925.3697016219466605
 20
-4.7127703859441903
 30
0.0
 11
4925.4106295171432066
 21
-9.402829858557169
 31
0.0
  0
ARC
  5
26078
  8
0
 10
4925.4303137561009862
 20
-9.4026580836630984
 30
0.0
 40
0.0196849884421372
 50
180.4999800429048946
 51
269.0049010217915111
  0
LINE
  5
26079
  8
0
 10
4925.4299718892607416
 20
-9.4223401033010905
 30
0.0
 11
4926.3140397431607198
 21
-9.4377715651010892
 31
0.0
  0
ARC
  5
2607A
  8
0
 10
4924.2911442992135562
 20
-4.5602315081313494
 30
0.0
 40
3.9061645144799431
 50
301.1896553817315976
 51
301.6099595525141126
  0
ARC
  5
2607B
  8
0
 10
4925.1210688306373413
 20
-5.9087292967755687
 30
0.0
 40
2.3227438458534069
 50
301.6099595525141126
 51
307.8358563503513778
  0
ARC
  5
2607C
  8
0
 10
4925.2698025856716413
 20
-6.1002281195072028
 30
0.0
 40
2.0802700761490942
 50
307.8358563503513778
 51
314.9880762533177858
  0
ARC
  5
2607D
  8
0
 10
4926.7819536201595838
 20
-7.6130086683980887
 30
0.0
 40
0.0586796054011312
 50
90.8520406053600311
 51
134.9880762533177005
  0
LINE
  5
2607E
  8
0
 10
4926.7810810329592641
 20
-7.554335551201091
 30
0.0
 11
4926.8391263575613266
 21
-7.5533223663010904
 31
0.0
  0
ATTDEF
  5
26080
  8
DEFPOINTS
 10
4931.6385195363236562
 20
-8.5194918961365165
 30
0.0
 40
0.001
  1
K-20593IN-4
  3

  2
MODELNUMBER
 70
     0
1001
ACDBATTR
1070
     0
1070
     1
  0
ATTDEF
  5
26081
  8
DEFPOINTS
 10
4931.6385195363236562
 20
-8.5211585628031816
 30
0.0
 40
0.001
  1
ALEO+
  3

  2
TRADENAME
 70
     0
1001
ACDBATTR
1070
     0
1070
     1
  0
ATTDEF
  5
26082
  8
DEFPOINTS
 10
4931.6385195363236562
 20
-8.5228252294698468
 30
0.0
 40
0.001
  1
KITCHEN MIXER
  3

  2
PRODUCT
 70
     0
1001
ACDBATTR
1070
     0
1070
     1
  0
ENDSEC
  0
EOF
