  0
SECTION
  2
HEADER
  9
$ACADVER
  1
AC1009
  9
$INSBASE
 10
3774.7590770806477849
 20
133.24655258594521
 30
0.0
  9
$EXTMIN
 10
3764.123124810454101
 20
126.313803929066296
 30
-0.0000000000000058
  9
$EXTMAX
 10
3785.20562926293087
 20
140.1732884647528863
 30
0.0000000000000104
  9
$LIMMIN
 10
0.0
 20
0.0
  9
$LIMMAX
 10
11.6929133858000007
 20
8.2677165353999982
  9
$ORTHOMODE
 70
     0
  9
$REGENMODE
 70
     1
  9
$FILLMODE
 70
     1
  9
$QTEXTMODE
 70
     0
  9
$MIRRTEXT
 70
     0
  9
$DRAGMODE
 70
     2
  9
$LTSCALE
 40
0.6431102362
  9
$OSMODE
 70
  4095
  9
$ATTMODE
 70
     1
  9
$TEXTSIZE
 40
0.2
  9
$TRACEWID
 40
0.05
  9
$TEXTSTYLE
  7
STANDARD
  9
$CLAYER
  8
0
  9
$CELTYPE
  6
BYLAYER
  9
$CECOLOR
 62
   256
  9
$DIMSCALE
 40
1.0
  9
$DIMASZ
 40
0.1875
  9
$DIMEXO
 40
0.0625
  9
$DIMDLI
 40
0.4443307087
  9
$DIMRND
 40
0.0
  9
$DIMDLE
 40
0.0
  9
$DIMEXE
 40
0.125
  9
$DIMTP
 40
0.01
  9
$DIMTM
 40
0.01
  9
$DIMTXT
 40
2.0
  9
$DIMCEN
 40
0.1052362205
  9
$DIMTSZ
 40
0.0
  9
$DIMTOL
 70
     1
  9
$DIMLIM
 70
     0
  9
$DIMTIH
 70
     1
  9
$DIMTOH
 70
     1
  9
$DIMSE1
 70
     0
  9
$DIMSE2
 70
     0
  9
$DIMTAD
 70
     0
  9
$DIMZIN
 70
     0
  9
$DIMBLK
  1

  9
$DIMASO
 70
     1
  9
$DIMSHO
 70
     1
  9
$DIMPOST
  1
\X
  9
$DIMAPOST
  1

  9
$DIMALT
 70
     1
  9
$DIMALTD
 70
     2
  9
$DIMALTF
 40
25.3999999999999986
  9
$DIMLFAC
 40
1.0
  9
$DIMTOFL
 70
     0
  9
$DIMTVP
 40
0.0
  9
$DIMTIX
 70
     0
  9
$DIMSOXD
 70
     0
  9
$DIMSAH
 70
     0
  9
$DIMBLK1
  1

  9
$DIMBLK2
  1

  9
$DIMSTYLE
  2
STANDARD
  9
$DIMCLRD
 70
     0
  9
$DIMCLRE
 70
     0
  9
$DIMCLRT
 70
     0
  9
$DIMTFAC
 40
1.0
  9
$DIMGAP
 40
0.09
  9
$LUNITS
 70
     2
  9
$LUPREC
 70
     4
  9
$SKETCHINC
 40
0.1
  9
$FILLETRAD
 40
0.0
  9
$AUNITS
 70
     0
  9
$AUPREC
 70
     0
  9
$MENU
  1
.
  9
$ELEVATION
 40
0.0
  9
$PELEVATION
 40
0.0
  9
$THICKNESS
 40
0.0
  9
$LIMCHECK
 70
     0
  9
$BLIPMODE
 70
     0
  9
$CHAMFERA
 40
0.0
  9
$CHAMFERB
 40
0.0
  9
$SKPOLY
 70
     0
  9
$TDCREATE
 40
2458060.468368056230247
  9
$TDUPDATE
 40
2460642.6321064820513129
  9
$TDINDWG
 40
0.3277269676
  9
$TDUSRTIMER
 40
0.3277269676
  9
$USRTIMER
 70
     1
  9
$ANGBASE
 50
0.0
  9
$ANGDIR
 70
     0
  9
$PDMODE
 70
     0
  9
$PDSIZE
 40
0.3125
  9
$PLINEWID
 40
0.0
  9
$COORDS
 70
     1
  9
$SPLFRAME
 70
     0
  9
$SPLINETYPE
 70
     6
  9
$SPLINESEGS
 70
     8
  9
$ATTDIA
 70
     1
  9
$ATTREQ
 70
     1
  9
$HANDLING
 70
     1
  9
$HANDSEED
  5
12192
  9
$SURFTAB1
 70
     6
  9
$SURFTAB2
 70
     6
  9
$SURFTYPE
 70
     6
  9
$SURFU
 70
     6
  9
$SURFV
 70
     6
  9
$UCSNAME
  2

  9
$UCSORG
 10
0.0
 20
0.0
 30
0.0
  9
$UCSXDIR
 10
1.0
 20
0.0
 30
0.0
  9
$UCSYDIR
 10
0.0
 20
1.0
 30
0.0
  9
$PUCSNAME
  2

  9
$PUCSORG
 10
0.0
 20
0.0
 30
0.0
  9
$PUCSXDIR
 10
1.0
 20
0.0
 30
0.0
  9
$PUCSYDIR
 10
0.0
 20
1.0
 30
0.0
  9
$USERI1
 70
     0
  9
$USERI2
 70
     0
  9
$USERI3
 70
     0
  9
$USERI4
 70
     0
  9
$USERI5
 70
     0
  9
$USERR1
 40
0.0
  9
$USERR2
 40
0.0
  9
$USERR3
 40
0.0
  9
$USERR4
 40
0.0
  9
$USERR5
 40
0.0
  9
$WORLDVIEW
 70
     1
  9
$SHADEDGE
 70
     3
  9
$SHADEDIF
 70
    70
  9
$TILEMODE
 70
     1
  9
$MAXACTVP
 70
    64
  9
$PLIMCHECK
 70
     0
  9
$PEXTMIN
 10
1.0000000000000000E+20
 20
1.0000000000000000E+20
 30
1.0000000000000000E+20
  9
$PEXTMAX
 10
-1.0000000000000000E+20
 20
-1.0000000000000000E+20
 30
-1.0000000000000000E+20
  9
$PLIMMIN
 10
0.0
 20
0.0
  9
$PLIMMAX
 10
12.0
 20
9.0
  9
$UNITMODE
 70
     0
  9
$VISRETAIN
 70
     1
  9
$PLINEGEN
 70
     0
  9
$PSLTSCALE
 70
     1
  0
ENDSEC
  0
SECTION
  2
TABLES
  0
TABLE
  2
VPORT
 70
     1
  0
VPORT
  2
*ACTIVE
 70
     0
 10
0.0
 20
0.0
 11
1.0
 21
1.0
 12
-28.8796903461197907
 22
7.2482840001596989
 13
0.0
 23
0.0
 14
1.0
 24
1.0
 15
0.0
 25
0.0
 16
0.0
 26
0.0
 36
17.1152628219792007
 17
3803.5440673828129547
 27
125.9952621967499056
 37
0.0
 40
13.9419222058247492
 41
2.3631889763779519
 42
50.0
 43
0.0
 44
0.0
 50
0.0
 51
0.0
 71
     0
 72
   100
 73
     1
 74
     1
 75
     0
 76
     0
 77
     0
 78
     0
  0
ENDTAB
  0
TABLE
  2
LTYPE
 70
     2
  0
LTYPE
  2
CONTINUOUS
 70
     0
  3
Solid line
 72
    65
 73
     0
 40
0.0
  0
LTYPE
  2
PHANTOM2
 70
     0
  3
___ _ _ ___ _ _ ___ _ _ ___ _ _
 72
    65
 73
     6
 40
1.25
 49
0.625
 49
-0.125
 49
0.125
 49
-0.125
 49
0.125
 49
-0.125
  0
ENDTAB
  0
TABLE
  2
LAYER
 70
     2
  0
LAYER
  2
0
 70
     0
 62
   255
  6
CONTINUOUS
  0
LAYER
  2
DEFPOINTS
 70
     0
 62
     7
  6
CONTINUOUS
  0
ENDTAB
  0
TABLE
  2
STYLE
 70
     1
  0
STYLE
  2
STANDARD
 70
     0
 40
0.0
 41
0.8
 50
0.0
 71
     0
 42
0.2
  3
txt
  4

  0
ENDTAB
  0
TABLE
  2
VIEW
 70
     0
  0
ENDTAB
  0
TABLE
  2
UCS
 70
     0
  0
ENDTAB
  0
TABLE
  2
APPID
 70
     9
  0
APPID
  2
ACAD
 70
     0
  0
APPID
  2
ACAD_MLEADERVER
 70
     0
  0
APPID
  2
ACAD_EXEMPT_FROM_CAD_STANDARDS
 70
     0
  0
APPID
  2
ACAD_NAV_VCDISPLAY
 70
     0
  0
APPID
  2
ACAECLAYERSTANDARD
 70
     0
  0
APPID
  2
ACCMTRANSPARENCY
 70
     0
  0
APPID
  2
ACAD_DSTYLE_DIMJAG
 70
     0
  0
APPID
  2
ACAD_DSTYLE_DIMTALN
 70
     0
  0
APPID
  2
ACDBATTR
 70
     0
  0
ENDTAB
  0
TABLE
  2
DIMSTYLE
 70
     1
  0
DIMSTYLE
  2
STANDARD
 70
     0
  3

  4

  5

  6

  7

 40
1.0
 41
0.1875
 42
0.0625
 43
0.38
 44
0.125
 45
0.0
 46
0.0
 47
0.01
 48
0.01
140
0.15625
141
0.09
142
0.0
143
25.3999999999999986
144
1.0
145
0.0
146
1.0
147
0.09
 71
     1
 72
     0
 73
     1
 74
     1
 75
     0
 76
     0
 77
     0
 78
     4
170
     0
171
     2
172
     0
173
     0
174
     0
175
     0
176
     0
177
     0
178
     0
  0
ENDTAB
  0
ENDSEC
  0
SECTION
  2
BLOCKS
  0
BLOCK
  8
0
  2
$MODEL_SPACE
 70
     0
 10
0.0
 20
0.0
 30
0.0
  3
$MODEL_SPACE
  1

  0
ENDBLK
  5
21
  8
0
  0
BLOCK
 67
     1
  8
0
  2
$PAPER_SPACE
 70
     0
 10
0.0
 20
0.0
 30
0.0
  3
$PAPER_SPACE
  1

  0
ENDBLK
  5
1D
 67
     1
  8
0
  0
ENDSEC
  0
SECTION
  2
ENTITIES
  0
ATTDEF
  5
11999
  8
DEFPOINTS
 10
3774.7536016957528773
 20
133.2451352035324135
 30
0.0
 40
0.001
  1
K-20704
  3

  2
MODELNUMBER
 70
     0
1001
ACDBATTR
1070
     0
1070
     1
  0
ATTDEF
  5
1199A
  8
DEFPOINTS
 10
3774.7536016957528773
 20
133.2434685368658052
 30
0.0
 40
0.001
  1
VEIL
  3

  2
TRADENAME
 70
     0
1001
ACDBATTR
1070
     0
1070
     1
  0
ATTDEF
  5
1199B
  8
DEFPOINTS
 10
3774.7536016957528773
 20
133.2418018701991116
 30
0.0
 40
0.001
  1
BATHROOM SINK
  3

  2
PRODUCT
 70
     0
1001
ACDBATTR
1070
     0
1070
     1
  0
ARC
  5
120A8
  8
0
 10
3767.8009673811748144
 20
135.3231646451540087
 30
0.0
 40
3.4550398111827061
 50
117.5059922190264956
 51
165.4068292314653092
  0
ARC
  5
120A9
  8
0
 10
3771.8501416360631993
 20
128.1226468132634864
 30
0.0
 40
11.7147252312028201
 50
100.1419961719755065
 51
118.8069359877664937
  0
ARC
  5
120AA
  8
0
 10
3775.0780064817299717
 20
112.2781204786881943
 30
0.0
 40
27.8827514368456484
 50
90.6560400769839561
 51
100.9380665823450016
  0
ARC
  5
120AB
  8
0
 10
3775.3089673404638233
 20
110.985420091660103
 30
0.0
 40
29.1788121091431414
 50
77.6935611330195144
 51
91.0804673455470351
  0
ARC
  5
120AC
  8
0
 10
3780.5521602791682199
 20
134.1108563232276083
 30
0.0
 40
5.4706577757119472
 50
48.9753547462839194
 51
79.7232183228755673
  0
ARC
  5
120AD
  8
0
 10
3781.9235244186620548
 20
135.8702638511664986
 30
0.0
 40
3.2454003577081738
 50
2.0726216913917339
 51
46.8518905368910694
  0
ARC
  5
120AE
  8
0
 10
3780.1618448343988348
 20
136.0527835279050066
 30
0.0
 40
5.0053807281922333
 50
336.2952190280059881
 51
359.2542640655133823
  0
ARC
  5
120AF
  8
0
 10
3773.6366467540360645
 20
138.9752740952361876
 30
0.0
 40
12.1550674675579096
 50
328.299028959274608
 51
336.0471350578595207
  0
ARC
  5
120B0
  8
0
 10
3770.400474804462192
 20
141.7195172913189083
 30
0.0
 40
16.3627680183584694
 50
310.8117868648171793
 51
326.077604043839699
  0
ARC
  5
120B1
  8
0
 10
3771.3163080961057858
 20
140.2782393194698045
 30
0.0
 40
14.67546415082853
 50
298.6550323872122021
 51
311.7833009488867901
  0
ARC
  5
120B2
  8
0
 10
3773.8158711238370415
 20
135.8748094967006921
 30
0.0
 40
9.6130745829925885
 50
281.9021053188287169
 51
298.1673332408121269
  0
ARC
  5
120B3
  8
0
 10
3774.3286700834059957
 20
133.7634656541287086
 30
0.0
 40
7.441657554407171
 50
273.5136641193986975
 51
281.3913969467038783
  0
ARC
  5
120B4
  8
0
 10
3774.3285541936052141
 20
135.3268796047516958
 30
0.0
 40
9.0026483953401737
 50
253.3412276940582046
 51
272.9045828244828726
  0
ARC
  5
120B5
  8
0
 10
3774.5933684278397777
 20
136.3389319047259107
 30
0.0
 40
10.0482045186081397
 50
243.9272694016432013
 51
253.5489357322965134
  0
ARC
  5
120B6
  8
0
 10
3775.0948190460289879
 20
137.4315732298412911
 30
0.0
 40
11.2500881376272606
 50
219.8257131616286983
 51
244.0790753718333974
  0
ARC
  5
120B7
  8
0
 10
3773.9697082532788954
 20
136.6113218740306934
 30
0.0
 40
9.8610902432793779
 50
202.3800695072382041
 51
220.3523202674797119
  0
ARC
  5
120B8
  8
0
 10
3771.615454046278046
 20
135.6202419485238977
 30
0.0
 40
7.3068369855594497
 50
187.1813435530544041
 51
202.2228416028856088
  0
ARC
  5
120B9
  8
0
 10
3772.11323787602214
 20
134.756486694151107
 30
0.0
 40
7.7895777094799401
 50
169.3679274206012053
 51
176.4615591152171135
  0
ARC
  5
120BA
  8
0
 10
3769.4470629905790702
 20
135.2354553023621975
 30
0.0
 40
5.1085532042695574
 50
179.9799232698971139
 51
185.9397043478408023
  0
CIRCLE
  5
120BB
  8
0
 10
3774.7590798241981247
 20
133.4269999785387029
 30
0.0
 40
1.4242143575281909
  0
CIRCLE
  5
120BC
  8
0
 10
3774.7590798241981247
 20
133.4269999785387029
 30
0.0
 40
1.1253546350161421
  0
ARC
  5
120BE
  8
0
 10
3774.7621837595420402
 20
137.7420337028773929
 30
0.0
 40
0.6009945865559559
 50
90.2961763477155728
 51
129.3849571579465021
  0
ARC
  5
120BF
  8
0
 10
3774.5143654655171304
 20
138.0640370356107098
 30
0.0
 40
0.1952892956233038
 50
133.1375055506698004
 51
180.3505108502297105
  0
ARC
  5
120C0
  8
0
 10
3774.5274466687587847
 20
138.0641170617645912
 30
0.0
 40
0.2083707436493446
 50
180.3505108502297105
 51
223.7298691766297907
  0
ARC
  5
120C1
  8
0
 10
3774.7108343447612242
 20
138.2395491310630007
 30
0.0
 40
0.4621569738662109
 50
223.7298691766297907
 51
253.7056119998800909
  0
ARC
  5
120C2
  8
0
 10
3774.7716571900969029
 20
138.4476226628073903
 30
0.0
 40
0.6789379996211259
 50
253.7056112657579945
 51
268.93830006808588
  0
ARC
  5
120C3
  8
0
 10
3774.7668661595062076
 20
138.6526754612505101
 30
0.0
 40
0.5899608419131056
 50
229.1310073314868987
 51
269.2435187566842956
  0
ARC
  5
120C4
  8
0
 10
3774.7559704017539843
 20
137.7420337028773929
 30
0.0
 40
0.6009945865559557
 50
50.6150428420534482
 51
89.7038236522844272
  0
ARC
  5
120C5
  8
0
 10
3775.0037886957788942
 20
138.0640370356107098
 30
0.0
 40
0.1952892956233038
 50
359.6494891497702042
 51
46.8624944493301427
  0
ARC
  5
120C6
  8
0
 10
3774.9907074925367851
 20
138.0641170617645912
 30
0.0
 40
0.2083707436493446
 50
316.2701308233702093
 51
359.6494891497702042
  0
ARC
  5
120C7
  8
0
 10
3774.8073198165348003
 20
138.2395491310630007
 30
0.0
 40
0.4621569738662109
 50
286.2943880001199091
 51
316.2701308233702093
  0
ARC
  5
120C8
  8
0
 10
3774.7464969711991216
 20
138.447622662807504
 30
0.0
 40
0.6789379996211475
 50
271.06169993191412
 51
286.2943887342419771
  0
ARC
  5
120C9
  8
0
 10
3774.738154143778047
 20
138.6872274465169141
 30
0.0
 40
0.6248118256526238
 50
271.9190099953610797
 51
309.7064639164585742
  0
ENDSEC
  0
EOF
