  0
SECTION
  2
HEADER
  9
$ACADVER
  1
AC1009
  9
$INSBASE
 10
3497.8245356400771016
 20
186.7359361216294076
 30
0.0
  9
$EXTMIN
 10
3489.6597434042910209
 20
180.3849366010609003
 30
0.0
  9
$EXTMAX
 10
3505.9893278638560332
 20
188.6359359219561895
 30
0.0
  9
$LIMMIN
 10
0.0
 20
0.0
  9
$LIMMAX
 10
11.6929133858000007
 20
8.2677165353999982
  9
$ORTHOMODE
 70
     0
  9
$REGENMODE
 70
     1
  9
$FILLMODE
 70
     1
  9
$QTEXTMODE
 70
     0
  9
$MIRRTEXT
 70
     0
  9
$DRAGMODE
 70
     2
  9
$LTSCALE
 40
0.6431102362
  9
$OSMODE
 70
  3839
  9
$ATTMODE
 70
     1
  9
$TEXTSIZE
 40
0.2
  9
$TRACEWID
 40
0.05
  9
$TEXTSTYLE
  7
STANDARD
  9
$CLAYER
  8
0
  9
$CELTYPE
  6
BYLAYER
  9
$CECOLOR
 62
   256
  9
$DIMSCALE
 40
1.0
  9
$DIMASZ
 40
0.1875
  9
$DIMEXO
 40
0.0625
  9
$DIMDLI
 40
0.4443307087
  9
$DIMRND
 40
0.0
  9
$DIMDLE
 40
0.0
  9
$DIMEXE
 40
0.125
  9
$DIMTP
 40
0.01
  9
$DIMTM
 40
0.01
  9
$DIMTXT
 40
2.0
  9
$DIMCEN
 40
0.1052362205
  9
$DIMTSZ
 40
0.0
  9
$DIMTOL
 70
     1
  9
$DIMLIM
 70
     0
  9
$DIMTIH
 70
     1
  9
$DIMTOH
 70
     1
  9
$DIMSE1
 70
     0
  9
$DIMSE2
 70
     0
  9
$DIMTAD
 70
     0
  9
$DIMZIN
 70
     0
  9
$DIMBLK
  1

  9
$DIMASO
 70
     1
  9
$DIMSHO
 70
     1
  9
$DIMPOST
  1
\X
  9
$DIMAPOST
  1

  9
$DIMALT
 70
     1
  9
$DIMALTD
 70
     2
  9
$DIMALTF
 40
25.3999999999999986
  9
$DIMLFAC
 40
1.0
  9
$DIMTOFL
 70
     0
  9
$DIMTVP
 40
0.0
  9
$DIMTIX
 70
     0
  9
$DIMSOXD
 70
     0
  9
$DIMSAH
 70
     0
  9
$DIMBLK1
  1

  9
$DIMBLK2
  1

  9
$DIMSTYLE
  2
STANDARD
  9
$DIMCLRD
 70
     0
  9
$DIMCLRE
 70
     0
  9
$DIMCLRT
 70
     0
  9
$DIMTFAC
 40
1.0
  9
$DIMGAP
 40
0.09
  9
$LUNITS
 70
     2
  9
$LUPREC
 70
     4
  9
$SKETCHINC
 40
0.1
  9
$FILLETRAD
 40
0.0
  9
$AUNITS
 70
     0
  9
$AUPREC
 70
     0
  9
$MENU
  1
.
  9
$ELEVATION
 40
0.0
  9
$PELEVATION
 40
0.0
  9
$THICKNESS
 40
0.0
  9
$LIMCHECK
 70
     0
  9
$BLIPMODE
 70
     0
  9
$CHAMFERA
 40
0.0
  9
$CHAMFERB
 40
0.0
  9
$SKPOLY
 70
     0
  9
$TDCREATE
 40
2458060.468368056230247
  9
$TDUPDATE
 40
2459016.7171875000931323
  9
$TDINDWG
 40
0.6895440972
  9
$TDUSRTIMER
 40
0.6895440972
  9
$USRTIMER
 70
     1
  9
$ANGBASE
 50
0.0
  9
$ANGDIR
 70
     0
  9
$PDMODE
 70
     0
  9
$PDSIZE
 40
0.3125
  9
$PLINEWID
 40
0.0
  9
$COORDS
 70
     1
  9
$SPLFRAME
 70
     0
  9
$SPLINETYPE
 70
     6
  9
$SPLINESEGS
 70
     8
  9
$ATTDIA
 70
     1
  9
$ATTREQ
 70
     1
  9
$HANDLING
 70
     1
  9
$HANDSEED
  5
95A1
  9
$SURFTAB1
 70
     6
  9
$SURFTAB2
 70
     6
  9
$SURFTYPE
 70
     6
  9
$SURFU
 70
     6
  9
$SURFV
 70
     6
  9
$UCSNAME
  2

  9
$UCSORG
 10
0.0
 20
0.0
 30
0.0
  9
$UCSXDIR
 10
1.0
 20
0.0
 30
0.0
  9
$UCSYDIR
 10
0.0
 20
1.0
 30
0.0
  9
$PUCSNAME
  2

  9
$PUCSORG
 10
0.0
 20
0.0
 30
0.0
  9
$PUCSXDIR
 10
1.0
 20
0.0
 30
0.0
  9
$PUCSYDIR
 10
0.0
 20
1.0
 30
0.0
  9
$USERI1
 70
     0
  9
$USERI2
 70
     0
  9
$USERI3
 70
     0
  9
$USERI4
 70
     0
  9
$USERI5
 70
     0
  9
$USERR1
 40
0.0
  9
$USERR2
 40
0.0
  9
$USERR3
 40
0.0
  9
$USERR4
 40
0.0
  9
$USERR5
 40
0.0
  9
$WORLDVIEW
 70
     1
  9
$SHADEDGE
 70
     3
  9
$SHADEDIF
 70
    70
  9
$TILEMODE
 70
     1
  9
$MAXACTVP
 70
    64
  9
$PLIMCHECK
 70
     0
  9
$PEXTMIN
 10
1.0000000000000000E+20
 20
1.0000000000000000E+20
 30
1.0000000000000000E+20
  9
$PEXTMAX
 10
-1.0000000000000000E+20
 20
-1.0000000000000000E+20
 30
-1.0000000000000000E+20
  9
$PLIMMIN
 10
0.0
 20
0.0
  9
$PLIMMAX
 10
12.0
 20
9.0
  9
$UNITMODE
 70
     0
  9
$VISRETAIN
 70
     1
  9
$PLINEGEN
 70
     0
  9
$PSLTSCALE
 70
     1
  0
ENDSEC
  0
SECTION
  2
TABLES
  0
TABLE
  2
VPORT
 70
     1
  0
VPORT
  2
*ACTIVE
 70
     0
 10
0.0
 20
0.0
 11
1.0
 21
1.0
 12
4.3741825575079432
 22
3.1378510957667429
 13
0.0
 23
0.0
 14
1.0
 24
1.0
 15
0.0
 25
0.0
 16
0.0
 26
0.0
 36
63.0080598146485968
 17
3497.824462890625
 27
184.5104370117186932
 37
0.0
 40
24.5744782152900711
 41
2.3528591352859132
 42
50.0
 43
0.0
 44
0.0
 50
0.0
 51
0.0
 71
     0
 72
   100
 73
     1
 74
     1
 75
     0
 76
     0
 77
     0
 78
     0
  0
ENDTAB
  0
TABLE
  2
LTYPE
 70
     2
  0
LTYPE
  2
CONTINUOUS
 70
     0
  3
Solid line
 72
    65
 73
     0
 40
0.0
  0
LTYPE
  2
PHANTOM2
 70
     0
  3
___ _ _ ___ _ _ ___ _ _ ___ _ _
 72
    65
 73
     6
 40
1.25
 49
0.625
 49
-0.125
 49
0.125
 49
-0.125
 49
0.125
 49
-0.125
  0
ENDTAB
  0
TABLE
  2
LAYER
 70
     2
  0
LAYER
  2
0
 70
     0
 62
   255
  6
CONTINUOUS
  0
LAYER
  2
DEFPOINTS
 70
     0
 62
     7
  6
CONTINUOUS
  0
ENDTAB
  0
TABLE
  2
STYLE
 70
     1
  0
STYLE
  2
STANDARD
 70
     0
 40
0.0
 41
0.8
 50
0.0
 71
     0
 42
0.2
  3
txt
  4

  0
ENDTAB
  0
TABLE
  2
VIEW
 70
     0
  0
ENDTAB
  0
TABLE
  2
UCS
 70
     0
  0
ENDTAB
  0
TABLE
  2
APPID
 70
     9
  0
APPID
  2
ACAD
 70
     0
  0
APPID
  2
ACAD_MLEADERVER
 70
     0
  0
APPID
  2
ACAD_EXEMPT_FROM_CAD_STANDARDS
 70
     0
  0
APPID
  2
ACAD_NAV_VCDISPLAY
 70
     0
  0
APPID
  2
ACAECLAYERSTANDARD
 70
     0
  0
APPID
  2
ACCMTRANSPARENCY
 70
     0
  0
APPID
  2
ACAD_DSTYLE_DIMJAG
 70
     0
  0
APPID
  2
ACAD_DSTYLE_DIMTALN
 70
     0
  0
APPID
  2
ACDBATTR
 70
     0
  0
ENDTAB
  0
TABLE
  2
DIMSTYLE
 70
     1
  0
DIMSTYLE
  2
STANDARD
 70
     0
  3

  4

  5

  6

  7

 40
1.0
 41
0.1875
 42
0.0625
 43
0.38
 44
0.125
 45
0.0
 46
0.0
 47
0.01
 48
0.01
140
0.15625
141
0.09
142
0.0
143
25.3999999999999986
144
1.0
145
0.0
146
1.0
147
0.09
 71
     1
 72
     0
 73
     1
 74
     1
 75
     0
 76
     0
 77
     0
 78
     4
170
     0
171
     2
172
     0
173
     0
174
     0
175
     0
176
     0
177
     0
178
     0
  0
ENDTAB
  0
ENDSEC
  0
SECTION
  2
BLOCKS
  0
BLOCK
  8
0
  2
$MODEL_SPACE
 70
     0
 10
0.0
 20
0.0
 30
0.0
  3
$MODEL_SPACE
  1

  0
ENDBLK
  5
21
  8
0
  0
BLOCK
 67
     1
  8
0
  2
$PAPER_SPACE
 70
     0
 10
0.0
 20
0.0
 30
0.0
  3
$PAPER_SPACE
  1

  0
ENDBLK
  5
1D
 67
     1
  8
0
  0
BLOCK
  8
0
  2
_FILLED
 70
     0
 10
0.0
 20
0.0
 30
0.0
  3
_FILLED
  1

  0
SOLID
  5
6F59
  8
0
  6
BYBLOCK
 62
     0
 10
0.0
 20
0.0
 30
0.0
 11
-1.0
 21
0.1666666667
 31
0.0
 12
-1.0
 22
-0.1666666667
 32
0.0
 13
-1.0
 23
-0.1666666667
 33
0.0
  0
ENDBLK
  5
6F5A
  8
0
  6
BYBLOCK
 62
     0
  0
ENDSEC
  0
SECTION
  2
ENTITIES
  0
ATTDEF
  5
3930
  8
DEFPOINTS
 10
3497.8249603743888656
 20
186.7395717672596049
 30
0.0
 40
0.001
  1
K-2075IN-1
  3

  2
MODELNUMBER
 70
     0
1001
ACDBATTR
1070
     0
1070
     1
  0
ATTDEF
  5
3931
  8
DEFPOINTS
 10
3497.8249603743888656
 20
186.7379051005929966
 30
0.0
 40
0.001
  1
SERIF
  3

  2
TRADENAME
 70
     0
1001
ACDBATTR
1070
     0
1070
     1
  0
ATTDEF
  5
3932
  8
DEFPOINTS
 10
3497.8249603743888656
 20
186.7362384339263031
 30
0.0
 40
0.001
  1
BATHROOM SINK
  3

  2
PRODUCT
 70
     0
1001
ACDBATTR
1070
     0
1070
     1
  0
LINE
  5
927E
  8
0
 10
3490.3032693845771064
 20
186.7659371104047921
 30
0.0
 11
3505.3458018955770967
 21
186.7659371104047921
 31
0.0
  0
LINE
  5
927F
  8
0
 10
3490.4814814328369721
 20
186.7359361216294076
 30
0.0
 11
3505.2843445859730309
 21
186.7359361216294076
 31
0.0
  0
LINE
  5
9280
  8
0
 10
3495.7599964830410499
 20
180.6369055550800908
 30
0.0
 11
3495.88179878607707
 21
180.6349840795739965
 31
0.0
  0
LINE
  5
9281
  8
0
 10
3496.0056131022161026
 20
180.3849366010609003
 30
0.0
 11
3498.4665303087158463
 21
180.3849366010609003
 31
0.0
  0
LINE
  5
9282
  8
0
 10
3489.8594728865441539
 20
188.6359359219561895
 30
0.0
 11
3505.7895983936091397
 21
188.6359359219561895
 31
0.0
  0
LINE
  5
9283
  8
0
 10
3498.3334922529161304
 20
183.085744993560894
 30
0.0
 11
3498.2131785370361285
 21
183.0873029882733078
 31
0.0
  0
ARC
  5
9284
  8
0
 10
3499.009933139639088
 20
183.3647408118073088
 30
0.0
 40
0.8436762665233956
 50
183.9534012439671926
 51
199.1986220866608903
  0
ARC
  5
9285
  8
0
 10
3498.8048374108848293
 20
183.2558617397612863
 30
0.0
 40
0.6385897147885384
 50
162.630450108047512
 51
175.4452303112018967
  0
ARC
  5
9286
  8
0
 10
3479.4603092095840111
 20
188.4314477265776873
 30
0.0
 40
19.3869055682144094
 50
345.1001947726045955
 51
349.1767409838645904
  0
ARC
  5
9287
  8
0
 10
3501.8199298967851973
 20
184.2199958450445081
 30
0.0
 40
3.366362664994079
 50
162.5976184405498941
 51
170.2347016433024862
  0
ARC
  5
9288
  8
0
 10
4456.348789348059654
 20
-171.4578280850620047
 30
0.0
 40
1022.0039213216369944
 50
159.5404275019473914
 51
159.573521961120008
  0
ARC
  5
9289
  8
0
 10
3509.6731882919948475
 20
184.0024491004784011
 30
0.0
 40
11.0038643799517999
 50
170.7040509958339953
 51
173.7487083614012136
  0
ARC
  5
928A
  8
0
 10
3483.0185575890777727
 20
187.5860237070301082
 30
0.0
 40
15.8961892615636398
 50
344.6041932664595038
 51
351.3696345072592067
  0
ARC
  5
928B
  8
0
 10
3498.0317554196740275
 20
183.4492476096824021
 30
0.0
 40
0.3234981469064
 50
323.4568069886270791
 51
345.0540662607825197
  0
ARC
  5
928C
  8
0
 10
3498.7478232917310379
 20
182.9423563526551106
 30
0.0
 40
0.5539445287208095
 50
145.4355194593867111
 51
164.8312546597707922
  0
LINE
  5
928D
  8
0
 10
3498.8138361240548875
 20
185.7799478445109003
 30
0.0
 11
3498.9284189525851616
 21
185.7817022846818134
 31
0.0
  0
ARC
  5
928E
  8
0
 10
3509.8839732139190346
 20
184.0196867922211084
 30
0.0
 40
11.0963447931602204
 50
170.8631888235213978
 51
173.8772655592075864
  0
ARC
  5
928F
  8
0
 10
3483.1640303581370972
 20
187.5447602341764934
 30
0.0
 40
15.8606917197946995
 50
344.7340906241340122
 51
351.5102516517904974
  0
ARC
  5
9290
  8
0
 10
3498.1571531567528837
 20
183.4495020615347869
 30
0.0
 40
0.3183495969216751
 50
322.9506682938692848
 51
345.2881084888608143
  0
ARC
  5
9291
  8
0
 10
3498.8543414671989922
 20
182.9538114739133903
 30
0.0
 40
0.5372991323524661
 50
145.5576115457876938
 51
165.7856917154778955
  0
ARC
  5
9292
  8
0
 10
3497.7020381863558214
 20
183.6670325487791047
 30
0.0
 40
0.85827120423947
 50
317.3687581269794009
 51
339.9951031500343106
  0
ARC
  5
9293
  8
0
 10
3487.4675505064110439
 20
186.3930125616847135
 30
0.0
 40
11.4464428635768005
 50
344.7042180106799947
 51
345.1937950042134275
  0
ARC
  5
9294
  8
0
 10
3477.8371123895881283
 20
188.7380118529783033
 30
0.0
 40
21.3572553215540388
 50
345.7140578855489821
 51
350.4491879121654847
  0
ARC
  5
9295
  8
0
 10
3496.0359790578190768
 20
185.6354366998502883
 30
0.0
 40
2.896135729923806
 50
351.2400313210570744
 51
2.8948806679405119
  0
ARC
  5
9296
  8
0
 10
3492.8885095850600919
 20
181.9605367338639041
 30
0.0
 40
2.000749860535493
 50
34.3680798557719527
 51
45.1634163225953102
  0
ARC
  5
9297
  8
0
 10
3500.5406903760667774
 20
189.6310133033836109
 30
0.0
 40
8.8340161618443762
 50
211.4990097289104938
 51
225.0468965364426026
  0
ARC
  5
9298
  8
0
 10
3451.11415160539309
 20
157.9673986560484025
 30
0.0
 40
49.8670159453627377
 50
32.8473239295820534
 51
33.8992089694417871
  0
ARC
  5
9299
  8
0
 10
3488.5152427071479906
 20
183.6748256337129988
 30
0.0
 40
4.5108453640751787
 50
19.6919006544670587
 51
27.8184933750074883
  0
ARC
  5
929A
  8
0
 10
3494.7631634831868723
 20
185.8988352748687021
 30
0.0
 40
2.1211232507813458
 50
199.3848427749477992
 51
212.9969905299012964
  0
ARC
  5
929B
  8
0
 10
3500.5038289558137876
 20
189.5729148738400056
 30
0.0
 40
8.9368127010856284
 50
212.7091895417391072
 51
224.0553732606011863
  0
ARC
  5
929C
  8
0
 10
3494.3750685243608132
 20
183.6386545560499997
 30
0.0
 40
0.4058727207859653
 50
223.6163119582521972
 51
251.5673129721861869
  0
ARC
  5
929D
  8
0
 10
3494.0515720086618785
 20
182.5592556975495029
 30
0.0
 40
0.7212554957592251
 50
47.377088974118351
 51
74.3007069150888384
  0
LINE
  5
929E
  8
0
 10
3494.5399847808221239
 20
183.0899745064820081
 30
0.0
 11
3494.4468359362158481
 21
183.0894528106609016
 31
0.0
  0
ARC
  5
929F
  8
0
 10
3493.9009701265899821
 20
182.4471835903731005
 30
0.0
 40
0.8428993020803922
 50
49.6387277882229512
 51
72.7300491256626742
  0
ARC
  5
92A0
  8
0
 10
3494.3164842073369982
 20
183.6927251172814124
 30
0.0
 40
0.4706202373025442
 50
224.3403012150747031
 51
249.4396237346929013
  0
ARC
  5
92A1
  8
0
 10
3500.1583078527792168
 20
189.2432654685364923
 30
0.0
 40
8.5288268933508231
 50
211.7998328250139082
 51
223.5797788070323122
  0
ARC
  5
92A2
  8
0
 10
3494.1003544582740687
 20
185.5996411603206866
 30
0.0
 40
1.463311120055621
 50
196.0233564653418057
 51
215.5442696968216865
  0
ARC
  5
92A3
  8
0
 10
3488.5334923344012168
 20
183.7444940515595988
 30
0.0
 40
4.4062470004322201
 50
19.2297834361943316
 51
27.5291878398692091
  0
LINE
  5
92A4
  8
0
 10
3492.4408441874511482
 20
185.7810632561997863
 30
0.0
 11
3492.5047714470251776
 21
185.7799114591124976
 31
0.0
  0
ARC
  5
92A5
  8
0
 10
3500.1430304571899796
 20
190.023437416483489
 30
0.0
 40
9.5326280047060994
 50
206.2503949231112017
 51
226.744808972328201
  0
ARC
  5
92A6
  8
0
 10
3487.9249757013308226
 20
183.9744890379724893
 30
0.0
 40
4.1008483278093992
 50
17.3964799145416613
 51
26.5456950055814183
  0
ARC
  5
92A7
  8
0
 10
3493.7270468489668929
 20
185.7842426469389068
 30
0.0
 40
1.97692775258
 50
197.1720793497167108
 51
212.3045158741321075
  0
ARC
  5
92A8
  8
0
 10
3498.7905028903091988
 20
188.8958638550824958
 30
0.0
 40
7.9199347097822761
 50
211.754670567709411
 51
224.0415586748837882
  0
ARC
  5
92A9
  8
0
 10
3493.4368416981819792
 20
183.6995539507657895
 30
0.0
 40
0.4593606447161057
 50
222.3530509123102092
 51
251.0766570376401887
  0
ARC
  5
92AA
  8
0
 10
3492.9341995099171072
 20
182.2701397627662914
 30
0.0
 40
1.055873935922196
 50
50.1482653609490967
 51
70.4301999795400349
  0
LINE
  5
92AB
  8
0
 10
3493.6108068563939923
 20
183.0807397055567094
 30
0.0
 11
3493.5740900335931656
 21
183.0799579686492962
 31
0.0
  0
ARC
  5
92AC
  8
0
 10
3492.901426449363953
 20
182.2882353017984087
 30
0.0
 40
1.0388941614782219
 50
49.6480985653087998
 51
70.184932760833604
  0
ARC
  5
92AD
  8
0
 10
3493.422281675756949
 20
183.7360957904105874
 30
0.0
 40
0.4998038106692821
 50
223.8502530435833933
 51
250.2751770408256107
  0
ARC
  5
92AE
  8
0
 10
3499.0861252230120044
 20
189.0852270587388944
 30
0.0
 40
8.2903149991349121
 50
211.7092971348722017
 51
223.3924996086232113
  0
ARC
  5
92AF
  8
0
 10
3493.7245733638878846
 20
185.7886892175583
 30
0.0
 40
1.9964586137659091
 50
197.1358620839316984
 51
212.1005718530321076
  0
ARC
  5
92B0
  8
0
 10
3487.9152082721648185
 20
183.9951901858173926
 30
0.0
 40
4.0834561847320021
 50
17.1670219854911892
 51
26.3571888889199393
  0
LINE
  5
92B1
  8
0
 10
3491.5741636211359946
 20
185.8081050119654094
 30
0.0
 11
3491.5935053056568904
 21
185.8072049324522084
 31
0.0
  0
ARC
  5
92B2
  8
0
 10
3500.2619329137210116
 20
183.0105640821454074
 30
0.0
 40
0.9554768494867752
 50
151.1923785007838035
 51
175.8872177997133122
  0
ARC
  5
92B3
  8
0
 10
3487.5742819506021988
 20
188.9582515591739877
 30
0.0
 40
13.0591974676875004
 50
335.15376726977712
 51
343.5261185443790168
  0
ARC
  5
92B4
  8
0
 10
3490.1511457315009466
 20
189.2984715185804134
 30
0.0
 40
10.7367507147740096
 50
337.8763954145235857
 51
341.0225383726523205
  0
ARC
  5
92B5
  8
0
 10
3506.3750874898769325
 20
184.4491759535802942
 30
0.0
 40
6.2207494246255646
 50
167.3931039787503892
 51
172.7484233354360867
  0
ARC
  5
92B6
  8
0
 10
3496.9013537182840992
 20
185.6595264125056133
 30
0.0
 40
3.329989996305736
 50
342.4952892692833188
 51
352.6652255715426918
  0
ARC
  5
92B7
  8
0
 10
3491.6141839655310832
 20
187.2652702787974022
 30
0.0
 40
8.8555010382759107
 50
334.1543298883212856
 51
342.8764556336959117
  0
ARC
  5
92B8
  8
0
 10
3499.2575382331160654
 20
183.5602933677876081
 30
0.0
 40
0.3615271281414478
 50
306.264765750193078
 51
334.5131815817732104
  0
ARC
  5
92B9
  8
0
 10
3499.8653210600718921
 20
182.766991720925887
 30
0.0
 40
0.6379590789129939
 50
128.1330566184109898
 51
150.7110037402445073
  0
LINE
  5
92BA
  8
0
 10
3499.3089166009181099
 20
183.0790908465266114
 30
0.0
 11
3499.3979448169161515
 21
183.0780264586609007
 31
0.0
  0
ARC
  5
92BB
  8
0
 10
3500.2709111061099065
 20
182.4747931271384971
 30
0.0
 40
1.0611129036676969
 50
131.0693236910429107
 51
145.3549216579849883
  0
ARC
  5
92BC
  8
0
 10
3499.3463705069398202
 20
183.5779879651070132
 30
0.0
 40
0.3790161908359156
 50
306.8717391340919107
 51
335.1137255737501732
  0
ARC
  5
92BD
  8
0
 10
3492.2052949200901821
 20
186.9928143833880938
 30
0.0
 40
8.2945457237969418
 50
334.4737507808982855
 51
343.6720451316019762
  0
ARC
  5
92BE
  8
0
 10
3497.34438062657091
 20
185.5730245451657083
 30
0.0
 40
2.964716955167348
 50
342.0822970400926124
 51
353.5228582089728775
  0
ARC
  5
92BF
  8
0
 10
3513.4985176851419055
 20
183.4930904630143118
 30
0.0
 40
13.3231791145369804
 50
169.9907107263645969
 51
172.4719352206375049
  0
LINE
  5
92C0
  8
0
 10
3500.3781228623151947
 20
185.8087634561609036
 30
0.0
 11
3500.3043172264560781
 21
185.8069210742594919
 31
0.0
  0
ARC
  5
92C1
  8
0
 10
3495.5059762594551103
 20
182.9526405446341073
 30
0.0
 40
0.6988915617546412
 50
11.7097155192071494
 51
36.0044403442440526
  0
ARC
  5
92C2
  8
0
 10
3505.9118038424621773
 20
190.6824359293813984
 30
0.0
 40
12.2638257699370108
 50
207.1070601801405076
 51
216.6404871961501044
  0
ARC
  5
92C3
  8
0
 10
3490.8647686597760185
 20
182.8756616976845919
 30
0.0
 40
4.6885079316848177
 50
28.2436548373719312
 51
37.9497199920624766
  0
ARC
  5
92C4
  8
0
 10
3490.064536548200067
 20
183.589575939279996
 30
0.0
 40
4.9932380133881402
 50
18.3893631395880099
 51
25.7511158277346013
  0
ARC
  5
92C5
  8
0
 10
3496.9915322137439944
 20
185.878350817236111
 30
0.0
 40
2.3021130944972361
 50
198.0563161296146859
 51
208.0764881711708938
  0
ARC
  5
92C6
  8
0
 10
3505.7851667111449387
 20
190.5574063101416868
 30
0.0
 40
12.2631144533300596
 50
208.0283729270479967
 51
216.0393879222291105
  0
ARC
  5
92C7
  8
0
 10
3496.0883487078658618
 20
183.486192495584703
 30
0.0
 40
0.2621714226769435
 50
213.233202559798201
 51
244.9958651469792983
  0
ARC
  5
92C8
  8
0
 10
3495.7684340280470678
 20
182.7359136186717876
 30
0.0
 40
0.5536804671779513
 50
40.3616873853937292
 51
67.811618982908584
  0
LINE
  5
92C9
  8
0
 10
3496.1903227768148099
 20
183.0944829193608996
 30
0.0
 11
3496.057145291516008
 21
183.0943508244608893
 31
0.0
  0
ARC
  5
92CA
  8
0
 10
3495.3632097160939338
 20
182.3352399734536959
 30
0.0
 40
1.0284920354353659
 50
47.5682365294908323
 51
62.8617658080222768
  0
ARC
  5
92CB
  8
0
 10
3495.9447806675948414
 20
183.5202119253189892
 30
0.0
 40
0.2922057892035722
 50
215.8357895496330912
 51
247.3697411214288024
  0
ARC
  5
92CC
  8
0
 10
3504.6859155717611429
 20
189.8485636001433932
 30
0.0
 40
11.08365935390297
 50
207.1209904116784912
 51
215.9017629046811066
  0
ARC
  5
92CD
  8
0
 10
3496.0856700493968674
 20
185.5822405768178953
 30
0.0
 40
1.48927300954326
 50
196.1811155626434982
 51
211.8731306973502058
  0
ARC
  5
92CE
  8
0
 10
3533.0064245942958223
 20
198.9967230152116997
 30
0.0
 40
40.7683305679618684
 50
198.9468284306327917
 51
199.8294667720572022
  0
LINE
  5
92CF
  8
0
 10
3494.4469098716158442
 20
185.7596311272608887
 30
0.0
 11
3494.5618949879158208
 21
185.7589520991608936
 31
0.0
  0
ARC
  5
92D0
  8
0
 10
3507.716884149796897
 20
179.3013378939297979
 30
0.0
 40
8.5552608935502921
 50
150.569180877821907
 51
153.9181373991685007
  0
ARC
  5
92D1
  8
0
 10
3492.9092630724999253
 20
187.3791741720139896
 30
0.0
 40
8.3141402060232021
 50
332.2279325074284202
 51
345.0363408833981111
  0
ARC
  5
92D2
  8
0
 10
3490.1843029496158124
 20
188.6119949390516979
 30
0.0
 40
11.2755582490073802
 50
342.5588186635251873
 51
345.7578887644384054
  0
ARC
  5
92D3
  8
0
 10
3515.5682333820050189
 20
182.4799354200480082
 30
0.0
 40
14.8398603885390195
 50
166.9215054982456934
 51
169.3647914667195096
  0
ARC
  5
92D4
  8
0
 10
3496.8394840577798277
 20
185.9840399060541074
 30
0.0
 40
4.2138887635652313
 50
342.146049183116304
 51
349.5358294137826078
  0
ARC
  5
92D5
  8
0
 10
3493.8728194916620851
 20
186.8884968230530887
 30
0.0
 40
7.3151429020983949
 50
332.2330102098724751
 51
342.5271455569653085
  0
ARC
  5
92D6
  8
0
 10
3497.8362751519948688
 20
185.2166221847118948
 30
0.0
 40
3.0513590879298791
 50
321.3322247213342848
 51
325.3227131722106265
  0
ARC
  5
92D7
  8
0
 10
3502.1577755336838891
 20
181.6597687506913985
 30
0.0
 40
2.5462909148944268
 50
139.5984809929857988
 51
146.5663788568232064
  0
LINE
  5
92D8
  8
0
 10
3500.032832877815963
 20
183.0627000150608978
 30
0.0
 11
3500.0679502829930243
 21
183.0611707865660946
 31
0.0
  0
ARC
  5
92D9
  8
0
 10
3498.2115793811508411
 20
185.3622542709059928
 30
0.0
 40
2.9565348175026318
 50
308.8944287172005829
 51
315.9217904893924924
  0
ARC
  5
92DA
  8
0
 10
3500.1081076667101115
 20
183.6087771234878971
 30
0.0
 40
0.3790161908359156
 50
306.8717391340919107
 51
335.1137255737501732
  0
ARC
  5
92DB
  8
0
 10
3492.3403289110319747
 20
187.4798870568509983
 30
0.0
 40
9.0578070641906994
 50
333.577488933052507
 51
342.0044578001463833
  0
ARC
  5
92DC
  8
0
 10
3498.6966739333179248
 20
185.3857898403730928
 30
0.0
 40
2.365618846413843
 50
342.6803833391213061
 51
356.1163237949064069
  0
ARC
  5
92DD
  8
0
 10
3506.6554306884390826
 20
184.7813478111143013
 30
0.0
 40
5.6161657010399901
 50
169.1393371692493872
 51
175.4633947859896921
  0
LINE
  5
92DE
  8
0
 10
3501.1398600220859407
 20
185.8395526145419012
 30
0.0
 11
3501.1133045718161156
 21
185.8379838776608892
 31
0.0
  0
ARC
  5
92DF
  8
0
 10
3496.005613102262032
 20
180.5099366011812094
 30
0.0
 40
0.1250000001202434
 50
185.0000022850815071
 51
269.9999999785566729
  0
ARC
  5
92E0
  8
0
 10
3495.7523645657561246
 20
180.5080896730775066
 30
0.0
 40
0.1290417669498793
 50
355.9795049149244051
 51
86.609377048602795
  0
ARC
  5
92E1
  8
0
 10
3495.9402115844359287
 20
183.9087415088380908
 30
0.0
 40
3.2767953843769448
 50
238.0156763001760112
 51
266.8472925811494179
  0
ARC
  5
92E2
  8
0
 10
3498.6854001136121042
 20
187.3712923691724939
 30
0.0
 40
7.683719298645614
 50
205.9669127545415108
 51
234.3266398956008914
  0
ARC
  5
92E3
  8
0
 10
3510.5571934597837753
 20
194.0346617606722077
 30
0.0
 40
21.2893490006329316
 50
200.2815415192901014
 51
208.1005040560604868
  0
ARC
  5
92E4
  8
0
 10
3490.4695756775968221
 20
186.6100078163877072
 30
0.0
 40
0.1264898615261161
 50
20.8655920766313407
 51
84.5990865130114429
  0
ARC
  5
92E5
  8
0
 10
3490.4897788661228333
 20
186.7648340911082983
 30
0.0
 40
0.0300655956056706
 50
177.8975126011488896
 51
253.9797141015174873
  0
ARC
  5
92E6
  8
0
 10
3490.3036258661568354
 20
186.8859061670717949
 30
0.0
 40
0.1199695862987632
 50
191.3004664672837123
 51
269.8297491829051751
  0
ARC
  5
92E7
  8
0
 10
3484.2942856399540688
 20
185.6850709554190928
 30
0.0
 40
6.0081765575047017
 50
11.3004633455939896
 51
26.3017993619174391
  0
ARC
  5
92E8
  8
0
 10
3489.8597615514649988
 20
188.4359179830813105
 30
0.0
 40
0.2000181471746963
 50
90.0826889341398953
 51
206.301806721719089
  0
ARC
  5
92E9
  8
0
 10
3498.4665303087158463
 20
180.5099366010609003
 30
0.0
 40
0.1249999999999929
 50
270.0
 51
354.9999977654263716
  0
LINE
  5
92EA
  8
0
 10
3498.5910546455520489
 20
180.4990421283609123
 30
0.0
 11
3498.7025511556021229
 21
181.7734530707820113
 31
0.0
  0
ARC
  5
92EB
  8
0
 10
3496.8028494260620391
 20
254.7003092290744064
 30
0.0
 40
72.7359142568447083
 50
269.4154704688227184
 51
271.6457101443563147
  0
ARC
  5
92EC
  8
0
 10
3496.2989839792908242
 20
186.1409539786446885
 30
0.0
 40
4.1795654162269731
 50
223.5986153153247926
 51
266.7332524600229817
  0
ARC
  5
92ED
  8
0
 10
3504.6614587773578933
 20
192.2204210433249045
 30
0.0
 40
14.6199762175043304
 50
202.6783695254233066
 51
208.2844741230724139
  0
ARC
  5
92EE
  8
0
 10
3490.9425185477621199
 20
186.487169932165898
 30
0.0
 40
0.2487663681521
 50
22.8013348722326192
 51
89.9313263259352169
  0
ARC
  5
92EF
  8
0
 10
3495.5817965340638693
 20
181.4349508377435995
 30
0.0
 40
0.8543700400817497
 50
290.5569693752024136
 51
322.672170917132803
  0
LINE
  5
92F0
  8
0
 10
3496.2611736933968132
 20
180.9168824631381085
 30
0.0
 11
3496.215354236614985
 21
181.7413696223609065
 31
0.0
  0
ARC
  5
92F1
  8
0
 10
3495.9510705426191635
 20
181.7273503188401946
 30
0.0
 40
0.264655269706939
 50
3.0364899019431819
 51
65.5019604687562946
  0
ARC
  5
92F2
  8
0
 10
3498.9508225203521761
 20
181.7523298338616939
 30
0.0
 40
0.2491683400691222
 50
103.7117669043688011
 51
175.1369154830611876
  0
ARC
  5
92F3
  8
0
 10
3498.3075880952437728
 20
184.1004626040785013
 30
0.0
 40
2.185582178626408
 50
285.5027398185504239
 51
320.7933440517667236
  0
ARC
  5
92F4
  8
0
 10
3495.4908989253331129
 20
186.3244831198283862
 30
0.0
 40
5.7742823154893692
 50
321.360473531525372
 51
342.7832729995727163
  0
ARC
  5
92F5
  8
0
 10
3490.202759998188867
 20
188.2516598200444946
 30
0.0
 40
11.3992215537211603
 50
341.3978737947740001
 51
352.3589049908209745
  0
ARC
  5
92F6
  8
0
 10
3505.2843305789788246
 20
186.7659503907682108
 30
0.0
 40
0.0300142724072352
 50
270.0267386691454021
 51
359.9746484342743997
  0
ARC
  5
92F7
  8
0
 10
3505.3454807522589363
 20
186.8859711165856936
 30
0.0
 40
0.1200344357793515
 50
270.1532908332383158
 51
348.6983737377614148
  0
ARC
  5
92F8
  8
0
 10
3511.3573645742708322
 20
185.6845004151412013
 30
0.0
 40
6.0107305194122862
 50
153.7042686203811002
 51
168.69837074724731
  0
ARC
  5
92F9
  8
0
 10
3505.7892898743498336
 20
188.4358981703661868
 30
0.0
 40
0.2000379895052961
 50
333.7042755802015108
 51
89.9116324928759667
  0
ENDSEC
  0
EOF
