  0
SECTION
  2
HEADER
  9
$ACADVER
  1
AC1009
  9
$INSBASE
 10
3501.7283207714508535
 20
186.7945223280086111
 30
0.0
  9
$EXTMIN
 10
3490.6283202302038262
 20
180.4435228074401039
 30
0.0
  9
$EXTMAX
 10
3512.8283213127037925
 20
188.6945221283353931
 30
0.0
  9
$LIMMIN
 10
0.0
 20
0.0
  9
$LIMMAX
 10
11.6929133858000007
 20
8.2677165353999982
  9
$ORTHOMODE
 70
     0
  9
$REGENMODE
 70
     1
  9
$FILLMODE
 70
     1
  9
$QTEXTMODE
 70
     0
  9
$MIRRTEXT
 70
     0
  9
$DRAGMODE
 70
     2
  9
$LTSCALE
 40
0.6431102362
  9
$OSMODE
 70
  3839
  9
$ATTMODE
 70
     1
  9
$TEXTSIZE
 40
0.2
  9
$TRACEWID
 40
0.05
  9
$TEXTSTYLE
  7
STANDARD
  9
$CLAYER
  8
0
  9
$CELTYPE
  6
BYLAYER
  9
$CECOLOR
 62
   256
  9
$DIMSCALE
 40
1.0
  9
$DIMASZ
 40
0.1875
  9
$DIMEXO
 40
0.0625
  9
$DIMDLI
 40
0.4443307087
  9
$DIMRND
 40
0.0
  9
$DIMDLE
 40
0.0
  9
$DIMEXE
 40
0.125
  9
$DIMTP
 40
0.01
  9
$DIMTM
 40
0.01
  9
$DIMTXT
 40
2.0
  9
$DIMCEN
 40
0.1052362205
  9
$DIMTSZ
 40
0.0
  9
$DIMTOL
 70
     1
  9
$DIMLIM
 70
     0
  9
$DIMTIH
 70
     1
  9
$DIMTOH
 70
     1
  9
$DIMSE1
 70
     0
  9
$DIMSE2
 70
     0
  9
$DIMTAD
 70
     0
  9
$DIMZIN
 70
     0
  9
$DIMBLK
  1

  9
$DIMASO
 70
     1
  9
$DIMSHO
 70
     1
  9
$DIMPOST
  1
\X
  9
$DIMAPOST
  1

  9
$DIMALT
 70
     1
  9
$DIMALTD
 70
     2
  9
$DIMALTF
 40
25.3999999999999986
  9
$DIMLFAC
 40
1.0
  9
$DIMTOFL
 70
     0
  9
$DIMTVP
 40
0.0
  9
$DIMTIX
 70
     0
  9
$DIMSOXD
 70
     0
  9
$DIMSAH
 70
     0
  9
$DIMBLK1
  1

  9
$DIMBLK2
  1

  9
$DIMSTYLE
  2
STANDARD
  9
$DIMCLRD
 70
     0
  9
$DIMCLRE
 70
     0
  9
$DIMCLRT
 70
     0
  9
$DIMTFAC
 40
1.0
  9
$DIMGAP
 40
0.09
  9
$LUNITS
 70
     2
  9
$LUPREC
 70
     4
  9
$SKETCHINC
 40
0.1
  9
$FILLETRAD
 40
0.0
  9
$AUNITS
 70
     0
  9
$AUPREC
 70
     0
  9
$MENU
  1
.
  9
$ELEVATION
 40
0.0
  9
$PELEVATION
 40
0.0
  9
$THICKNESS
 40
0.0
  9
$LIMCHECK
 70
     0
  9
$BLIPMODE
 70
     0
  9
$CHAMFERA
 40
0.0
  9
$CHAMFERB
 40
0.0
  9
$SKPOLY
 70
     0
  9
$TDCREATE
 40
2458060.468368056230247
  9
$TDUPDATE
 40
2459016.718217593152076
  9
$TDINDWG
 40
0.6829121527999999
  9
$TDUSRTIMER
 40
0.6829121527999999
  9
$USRTIMER
 70
     1
  9
$ANGBASE
 50
0.0
  9
$ANGDIR
 70
     0
  9
$PDMODE
 70
     0
  9
$PDSIZE
 40
0.3125
  9
$PLINEWID
 40
0.0
  9
$COORDS
 70
     1
  9
$SPLFRAME
 70
     0
  9
$SPLINETYPE
 70
     6
  9
$SPLINESEGS
 70
     8
  9
$ATTDIA
 70
     1
  9
$ATTREQ
 70
     1
  9
$HANDLING
 70
     1
  9
$HANDSEED
  5
9629
  9
$SURFTAB1
 70
     6
  9
$SURFTAB2
 70
     6
  9
$SURFTYPE
 70
     6
  9
$SURFU
 70
     6
  9
$SURFV
 70
     6
  9
$UCSNAME
  2

  9
$UCSORG
 10
0.0
 20
0.0
 30
0.0
  9
$UCSXDIR
 10
1.0
 20
0.0
 30
0.0
  9
$UCSYDIR
 10
0.0
 20
1.0
 30
0.0
  9
$PUCSNAME
  2

  9
$PUCSORG
 10
0.0
 20
0.0
 30
0.0
  9
$PUCSXDIR
 10
1.0
 20
0.0
 30
0.0
  9
$PUCSYDIR
 10
0.0
 20
1.0
 30
0.0
  9
$USERI1
 70
     0
  9
$USERI2
 70
     0
  9
$USERI3
 70
     0
  9
$USERI4
 70
     0
  9
$USERI5
 70
     0
  9
$USERR1
 40
0.0
  9
$USERR2
 40
0.0
  9
$USERR3
 40
0.0
  9
$USERR4
 40
0.0
  9
$USERR5
 40
0.0
  9
$WORLDVIEW
 70
     1
  9
$SHADEDGE
 70
     3
  9
$SHADEDIF
 70
    70
  9
$TILEMODE
 70
     1
  9
$MAXACTVP
 70
    64
  9
$PLIMCHECK
 70
     0
  9
$PEXTMIN
 10
1.0000000000000000E+20
 20
1.0000000000000000E+20
 30
1.0000000000000000E+20
  9
$PEXTMAX
 10
-1.0000000000000000E+20
 20
-1.0000000000000000E+20
 30
-1.0000000000000000E+20
  9
$PLIMMIN
 10
0.0
 20
0.0
  9
$PLIMMAX
 10
12.0
 20
9.0
  9
$UNITMODE
 70
     0
  9
$VISRETAIN
 70
     1
  9
$PLINEGEN
 70
     0
  9
$PSLTSCALE
 70
     1
  0
ENDSEC
  0
SECTION
  2
TABLES
  0
TABLE
  2
VPORT
 70
     1
  0
VPORT
  2
*ACTIVE
 70
     0
 10
0.0
 20
0.0
 11
1.0
 21
1.0
 12
231.8983562573804988
 22
-7.7271630482314029
 13
0.0
 23
0.0
 14
1.0
 24
1.0
 15
0.0
 25
0.0
 16
0.0
 26
0.0
 36
116.782910842256598
 17
3270.0277271544828182
 27
193.0425872802734091
 37
0.0
 40
15.3999411048173709
 41
2.3528591352859132
 42
50.0
 43
0.0
 44
0.0
 50
0.0
 51
0.0
 71
     0
 72
   100
 73
     1
 74
     1
 75
     0
 76
     0
 77
     0
 78
     0
  0
ENDTAB
  0
TABLE
  2
LTYPE
 70
     2
  0
LTYPE
  2
CONTINUOUS
 70
     0
  3
Solid line
 72
    65
 73
     0
 40
0.0
  0
LTYPE
  2
PHANTOM2
 70
     0
  3
___ _ _ ___ _ _ ___ _ _ ___ _ _
 72
    65
 73
     6
 40
1.25
 49
0.625
 49
-0.125
 49
0.125
 49
-0.125
 49
0.125
 49
-0.125
  0
ENDTAB
  0
TABLE
  2
LAYER
 70
     2
  0
LAYER
  2
0
 70
     0
 62
   255
  6
CONTINUOUS
  0
LAYER
  2
DEFPOINTS
 70
     0
 62
     7
  6
CONTINUOUS
  0
ENDTAB
  0
TABLE
  2
STYLE
 70
     1
  0
STYLE
  2
STANDARD
 70
     0
 40
0.0
 41
0.8
 50
0.0
 71
     0
 42
0.2
  3
txt
  4

  0
ENDTAB
  0
TABLE
  2
VIEW
 70
     0
  0
ENDTAB
  0
TABLE
  2
UCS
 70
     0
  0
ENDTAB
  0
TABLE
  2
APPID
 70
     9
  0
APPID
  2
ACAD
 70
     0
  0
APPID
  2
ACAD_MLEADERVER
 70
     0
  0
APPID
  2
ACAD_EXEMPT_FROM_CAD_STANDARDS
 70
     0
  0
APPID
  2
ACAD_NAV_VCDISPLAY
 70
     0
  0
APPID
  2
ACAECLAYERSTANDARD
 70
     0
  0
APPID
  2
ACCMTRANSPARENCY
 70
     0
  0
APPID
  2
ACAD_DSTYLE_DIMJAG
 70
     0
  0
APPID
  2
ACAD_DSTYLE_DIMTALN
 70
     0
  0
APPID
  2
ACDBATTR
 70
     0
  0
ENDTAB
  0
TABLE
  2
DIMSTYLE
 70
     1
  0
DIMSTYLE
  2
STANDARD
 70
     0
  3

  4

  5

  6

  7

 40
1.0
 41
0.1875
 42
0.0625
 43
0.38
 44
0.125
 45
0.0
 46
0.0
 47
0.01
 48
0.01
140
0.15625
141
0.09
142
0.0
143
25.3999999999999986
144
1.0
145
0.0
146
1.0
147
0.09
 71
     1
 72
     0
 73
     1
 74
     1
 75
     0
 76
     0
 77
     0
 78
     4
170
     0
171
     2
172
     0
173
     0
174
     0
175
     0
176
     0
177
     0
178
     0
  0
ENDTAB
  0
ENDSEC
  0
SECTION
  2
BLOCKS
  0
BLOCK
  8
0
  2
$MODEL_SPACE
 70
     0
 10
0.0
 20
0.0
 30
0.0
  3
$MODEL_SPACE
  1

  0
ENDBLK
  5
21
  8
0
  0
BLOCK
 67
     1
  8
0
  2
$PAPER_SPACE
 70
     0
 10
0.0
 20
0.0
 30
0.0
  3
$PAPER_SPACE
  1

  0
ENDBLK
  5
1D
 67
     1
  8
0
  0
BLOCK
  8
0
  2
_FILLED
 70
     0
 10
0.0
 20
0.0
 30
0.0
  3
_FILLED
  1

  0
SOLID
  5
6F59
  8
0
  6
BYBLOCK
 62
     0
 10
0.0
 20
0.0
 30
0.0
 11
-1.0
 21
0.1666666667
 31
0.0
 12
-1.0
 22
-0.1666666667
 32
0.0
 13
-1.0
 23
-0.1666666667
 33
0.0
  0
ENDBLK
  5
6F5A
  8
0
  6
BYBLOCK
 62
     0
  0
ENDSEC
  0
SECTION
  2
ENTITIES
  0
ATTDEF
  5
3930
  8
DEFPOINTS
 10
3501.7286132666640697
 20
186.7931419547728922
 30
0.0
 40
0.001
  1
K-2075T-1
  3

  2
MODELNUMBER
 70
     0
1001
ACDBATTR
1070
     0
1070
     1
  0
ATTDEF
  5
3931
  8
DEFPOINTS
 10
3501.7286132666640697
 20
186.7914752881061986
 30
0.0
 40
0.001
  1
SERIF
  3

  2
TRADENAME
 70
     0
1001
ACDBATTR
1070
     0
1070
     1
  0
ATTDEF
  5
3932
  8
DEFPOINTS
 10
3501.7286132666640697
 20
186.789808621439505
 30
0.0
 40
0.001
  1
BATHROOM SINK
  3

  2
PRODUCT
 70
     0
1001
ACDBATTR
1070
     0
1070
     1
  0
LINE
  5
94DD
  8
0
 10
3500.0258743262038479
 20
183.1385369097401963
 30
0.0
 11
3499.8971077255041564
 21
183.139214153740113
 31
0.0
  0
ARC
  5
94DE
  8
0
 10
3500.5833026991322185
 20
183.607501527192909
 30
0.0
 40
0.8307566466585103
 50
194.3702540833895966
 51
214.3112182448936096
  0
ARC
  5
94DF
  8
0
 10
3493.703042443196864
 20
182.8256892828950129
 30
0.0
 40
6.1027045785138041
 50
5.4123918190437132
 51
6.1666939526844846
  0
ARC
  5
94E0
  8
0
 10
3555.9361071313269349
 20
187.3979639201072018
 30
0.0
 40
56.3020733260596629
 50
182.3483454992691861
 51
183.9890634552461961
  0
ARC
  5
94E1
  8
0
 10
3501.9245737183478013
 20
185.2112717626170877
 30
0.0
 40
2.2464783623042952
 50
177.8763343751674881
 51
183.0691462475068079
  0
ARC
  5
94E2
  8
0
 10
3504.1252584080120869
 20
184.9559903810792036
 30
0.0
 40
4.458490701128329
 50
168.2252243735362924
 51
175.6454079863972026
  0
ARC
  5
94E3
  8
0
 10
3452.7558170307861474
 20
184.3193662116262885
 30
0.0
 40
47.0302012485456302
 50
1.144933128590748
 51
1.884338743721595
  0
ARC
  5
94E4
  8
0
 10
3552.4206247090028228
 20
186.8370064256903902
 30
0.0
 40
52.6676381027916705
 50
181.7168196651020935
 51
183.6901250841924025
  0
ARC
  5
94E5
  8
0
 10
3500.8440673641398462
 20
183.5223234552902056
 30
0.0
 40
0.9847482542524476
 50
184.3693041259072061
 51
191.648450044979711
  0
ARC
  5
94E6
  8
0
 10
3497.5639926476601431
 20
183.0105316125093111
 30
0.0
 40
2.33666111425693
 50
3.1569397818689171
 51
7.6971486912485236
  0
LINE
  5
94E7
  8
0
 10
3499.7605862868340409
 20
185.8658126750788142
 30
0.0
 11
3499.8901853844040488
 21
185.8666971221398967
 31
0.0
  0
ARC
  5
94E8
  8
0
 10
4567.0119828629258336
 20
213.7952857335081944
 30
0.0
 40
1067.4872068159020273
 50
181.4991962956667066
 51
181.5318212783616048
  0
ARC
  5
94E9
  8
0
 10
3552.5843987485300204
 20
186.8220627194866097
 30
0.0
 40
52.7013198837911503
 50
181.6995042810856091
 51
183.669950531066803
  0
ARC
  5
94EA
  8
0
 10
3500.9498695422621495
 20
183.5147949942762011
 30
0.0
 40
0.9609925453715922
 50
183.9433392284699096
 51
191.4449814184008005
  0
ARC
  5
94EB
  8
0
 10
3497.7343859435768536
 20
183.0112904476522999
 30
0.0
 40
2.2950186643749348
 50
3.1783731944402129
 51
7.8339697838892448
  0
ARC
  5
94EC
  8
0
 10
3499.2052867824359055
 20
183.6340113459891086
 30
0.0
 40
0.9585712461597194
 50
328.8762325110233746
 51
344.1212497957852179
  0
ARC
  5
94ED
  8
0
 10
3499.5080481600089115
 20
183.4557096549586959
 30
0.0
 40
0.6249003203309579
 50
352.2779978494457964
 51
6.456794171244721
  0
ARC
  5
94EE
  8
0
 10
3174.0767001949639052
 20
164.9022712191166988
 30
0.0
 40
326.5837332743763
 50
3.2691132839991748
 51
3.5790138188171512
  0
ARC
  5
94EF
  8
0
 10
3492.3961745807650914
 20
183.832663875778394
 30
0.0
 40
7.765145792086531
 50
10.8115729972980308
 51
15.1854427600805799
  0
ARC
  5
94F0
  8
0
 10
3497.5646554104209827
 20
183.035776373852201
 30
0.0
 40
0.8331774786658531
 50
7.7423903353227761
 51
34.3636091507075534
  0
ARC
  5
94F1
  8
0
 10
3506.7052977716580244
 20
188.5362090264696064
 30
0.0
 40
9.8363389483655101
 50
200.8647139940073032
 51
210.7560968814696878
  0
ARC
  5
94F2
  8
0
 10
3491.8236372924538955
 20
182.784772306582795
 30
0.0
 40
6.1183357425165781
 50
21.557614674436909
 51
29.9548262014153615
  0
ARC
  5
94F3
  8
0
 10
3491.0916967064699747
 20
183.8759266109310033
 30
0.0
 40
6.3445690734782039
 50
11.94524095295729
 51
18.0309135374596785
  0
ARC
  5
94F4
  8
0
 10
3500.0039191004461827
 20
185.8333447152394911
 30
0.0
 40
2.7806984048165928
 50
193.3961610711363051
 51
201.8097291252254877
  0
ARC
  5
94F5
  8
0
 10
3506.1305429447111237
 20
188.2325032999837049
 30
0.0
 40
9.3602709768901651
 50
201.511238142998991
 51
210.9473017638885892
  0
ARC
  5
94F6
  8
0
 10
3498.3418871040489648
 20
183.5569554907146141
 30
0.0
 40
0.2760439380442165
 50
209.9867277802295007
 51
242.200084934489098
  0
ARC
  5
94F7
  8
0
 10
3497.9392286521069764
 20
182.8407799992912999
 30
0.0
 40
0.5457163080486063
 50
34.2639296715738979
 51
59.8717172882721087
  0
LINE
  5
94F8
  8
0
 10
3498.3902374754711673
 20
183.1480214843120109
 30
0.0
 11
3498.2938003070357809
 21
183.148566441650587
 31
0.0
  0
ARC
  5
94F9
  8
0
 10
3497.6092633097819089
 20
182.5502732083178898
 30
0.0
 40
0.9091455844154216
 50
41.1538331362018894
 51
56.9287661347196519
  0
ARC
  5
94FA
  8
0
 10
3498.2337694524430844
 20
183.5730631680218892
 30
0.0
 40
0.2908142925324462
 50
210.4614295352351121
 51
243.7986424691482057
  0
ARC
  5
94FB
  8
0
 10
3505.8532802249787892
 20
188.2651538702463938
 30
0.0
 40
9.2390890206950882
 50
202.0127055865220882
 51
211.5881251421785976
  0
ARC
  5
94FC
  8
0
 10
3499.8690964614797849
 20
185.8712101570255868
 30
0.0
 40
2.7939673920493542
 50
192.5771479248141986
 51
202.4949937878135131
  0
ARC
  5
94FD
  8
0
 10
3563.0325281078248736
 20
200.6942942007171098
 30
0.0
 40
67.6732546208538679
 50
192.6809840199771031
 51
193.1810732427817072
  0
LINE
  5
94FE
  8
0
 10
3497.009996375701121
 20
185.8384975320919068
 30
0.0
 11
3497.1246817716041733
 21
185.8397616172402138
 31
0.0
  0
ARC
  5
94FF
  8
0
 10
3518.1562420715799817
 20
204.0378363411111025
 30
0.0
 40
29.4476073656933686
 50
218.2222059950804862
 51
225.1716122174512122
  0
ARC
  5
9500
  8
0
 10
3491.2403481306050708
 20
183.1822475968315871
 30
0.0
 40
4.6094415675248133
 50
26.2960460731860515
 51
34.8803086023321001
  0
ARC
  5
9501
  8
0
 10
3496.8879355417680017
 20
185.9120026075871976
 30
0.0
 40
1.6639216060339459
 50
204.4134627359894125
 51
219.5870249089680044
  0
ARC
  5
9502
  8
0
 10
3505.3191346463668197
 20
192.3768332952716094
 30
0.0
 40
12.2874091655426394
 50
217.7653326447446887
 51
226.9242119934652067
  0
ARC
  5
9503
  8
0
 10
3497.2060692181471495
 20
183.7049068346759952
 30
0.0
 40
0.4120667047086226
 50
227.4209815810970099
 51
254.778806374941297
  0
ARC
  5
9504
  8
0
 10
3496.8818873489840371
 20
182.5246526575828057
 30
0.0
 40
0.8119015091362177
 50
50.7027257303629781
 51
74.5714550201017801
  0
LINE
  5
9505
  8
0
 10
3497.3961003455037826
 20
183.1529591550402074
 30
0.0
 11
3497.358755402603947
 21
183.1530499418298916
 31
0.0
  0
ARC
  5
9506
  8
0
 10
3496.8265529984878413
 20
182.4822862777519958
 30
0.0
 40
0.8562495500697831
 50
51.5705453658150219
 51
74.4988640799435728
  0
ARC
  5
9507
  8
0
 10
3497.1583319271239816
 20
183.7039986589616092
 30
0.0
 40
0.4097500823381817
 50
228.100811327750705
 51
255.4499338062402956
  0
ARC
  5
9508
  8
0
 10
3505.1663519003509464
 20
192.3807234798495926
 30
0.0
 40
12.2170788629180702
 50
218.0338676229102077
 51
227.322140076487301
  0
ARC
  5
9509
  8
0
 10
3497.1075512131301366
 20
186.1002491694993068
 30
0.0
 40
2.000105410675959
 50
206.0021983254966074
 51
218.5624337148198038
  0
ARC
  5
950A
  8
0
 10
3489.5027481037050165
 20
182.1798110441760912
 30
0.0
 40
6.5564029604507859
 50
27.6594305112040395
 51
33.6991644887790898
  0
LINE
  5
950B
  8
0
 10
3494.9574276201160501
 20
185.8175151488356107
 30
0.0
 11
3495.0216964329038092
 21
185.8182211515402003
 31
0.0
  0
ARC
  5
950C
  8
0
 10
3501.1280734275460418
 20
180.9456614099314038
 30
0.0
 40
0.252124927507654
 50
183.9439219494329052
 51
270.1900718048999011
  0
LINE
  5
950D
  8
0
 10
3500.8765455706038665
 20
180.9283202377401096
 30
0.0
 11
3500.4881445121509387
 21
186.5619466609799133
 31
0.0
  0
ARC
  5
950E
  8
0
 10
3500.2375947739410549
 20
186.5432816829359126
 30
0.0
 40
0.2512440103230144
 50
4.2604423316238336
 51
89.7034493067978076
  0
ARC
  5
950F
  8
0
 10
3500.4978625418038973
 20
180.5685232427020992
 30
0.0
 40
0.1250004352619758
 50
185.0001828420832908
 51
270.0
  0
LINE
  5
9510
  8
0
 10
3500.3733378057040682
 20
180.5576283395400878
 30
0.0
 11
3500.2648721271530121
 21
181.7973511527407879
 31
0.0
  0
ARC
  5
9511
  8
0
 10
3500.0155937395920773
 20
181.7755413181818085
 30
0.0
 40
0.2502306603682488
 50
5.0001828420833689
 51
83.4604175467368776
  0
ARC
  5
9512
  8
0
 10
3500.8299440542009506
 20
187.9848714464949069
 30
0.0
 40
6.0123070878321272
 50
231.0591387976774911
 51
262.4895411096113094
  0
ARC
  5
9513
  8
0
 10
3511.988971900001161
 20
201.2335071708330929
 30
0.0
 40
23.3531343548705017
 50
218.467883662355689
 51
228.8466842667843082
  0
ARC
  5
9514
  8
0
 10
3493.5031035174038152
 20
186.5213508610690099
 30
0.0
 40
0.2732700887940456
 50
42.5331677937156201
 51
88.4606363552642136
  0
ARC
  5
9515
  8
0
 10
3491.4583346056037954
 20
186.8245365970402077
 30
0.0
 40
0.0300142721999975
 50
180.026324045996688
 51
269.9736732401016752
  0
ARC
  5
9516
  8
0
 10
3491.2721890344100757
 20
186.9445707209792999
 30
0.0
 40
0.1200478552626738
 50
191.3072715333998985
 51
269.8429343233796089
  0
ARC
  5
9517
  8
0
 10
3485.255827422648963
 20
185.7415889853639897
 30
0.0
 40
6.0154042144462574
 50
11.3072715333999803
 51
26.2897465693947616
  0
ARC
  5
9518
  8
0
 10
3490.8594733533700492
 20
188.501789117948789
 30
0.0
 40
0.2312674233946443
 50
181.8014484463523104
 51
204.5021483443941008
  0
ARC
  5
9519
  8
0
 10
3490.8333132534771721
 20
188.4895323282592869
 30
0.0
 40
0.2050536670635481
 50
91.4300570017298355
 51
178.6064975557798107
  0
LINE
  5
951A
  8
0
 10
3491.2718599460508813
 20
186.8245233167839956
 30
0.0
 11
3512.184781596855828
 21
186.8245233167839956
 31
0.0
  0
LINE
  5
951B
  8
0
 10
3491.4583208143881166
 20
186.7945223280086111
 30
0.0
 11
3511.9983207285149547
 21
186.7945223280086111
 31
0.0
  0
LINE
  5
951C
  8
0
 10
3501.1289098199040382
 20
180.693537869740112
 30
0.0
 11
3502.3277317230040353
 21
180.693537869740112
 31
0.0
  0
LINE
  5
951D
  8
0
 10
3500.4978625418038973
 20
180.4435228074401039
 30
0.0
 11
3502.9587790011041761
 21
180.4435228074401039
 31
0.0
  0
LINE
  5
951E
  8
0
 10
3490.8281958087068233
 20
188.6945221283353931
 30
0.0
 11
3512.6284457342039786
 21
188.6945221283353931
 31
0.0
  0
LINE
  5
951F
  8
0
 10
3500.0440924069039283
 20
182.0241438309402042
 30
0.0
 11
3500.5969896414139839
 21
182.0243358007641064
 31
0.0
  0
ARC
  5
9520
  8
0
 10
3500.5975548420387895
 20
181.8062175748472953
 30
0.0
 40
0.2181189582059282
 50
6.211305234542662
 51
90.1484678215682749
  0
LINE
  5
9521
  8
0
 10
3503.4307672167042256
 20
183.1385369097401963
 30
0.0
 11
3503.5595338174039171
 21
183.139214153740113
 31
0.0
  0
ARC
  5
9522
  8
0
 10
3502.8733388437772192
 20
183.607501527192909
 30
0.0
 40
0.8307566466585103
 50
325.6887817551063904
 51
345.6297459166103181
  0
ARC
  5
9523
  8
0
 10
3509.7535990997098452
 20
182.8256892828950129
 30
0.0
 40
6.1027045785138041
 50
173.8333060473154887
 51
174.5876081809562947
  0
ARC
  5
9524
  8
0
 10
3447.5205344115811386
 20
187.3979639201072018
 30
0.0
 40
56.3020733260596629
 50
356.0109365447538039
 51
357.6516545007307855
  0
ARC
  5
9525
  8
0
 10
3501.5320678245598174
 20
185.2112717626170877
 30
0.0
 40
2.2464783623042952
 50
356.9308537524931921
 51
2.123665624832499
  0
ARC
  5
9526
  8
0
 10
3499.3313831348959866
 20
184.9559903810792036
 30
0.0
 40
4.458490701128329
 50
4.3545920136027583
 51
11.7747756264636294
  0
ARC
  5
9527
  8
0
 10
3550.7008245121228356
 20
184.3193662116262885
 30
0.0
 40
47.0302012485456302
 50
178.1156612562784005
 51
178.8550668714092069
  0
ARC
  5
9528
  8
0
 10
3451.0360168339061602
 20
186.8370064256903902
 30
0.0
 40
52.6676381027916705
 50
356.3098749158075975
 51
358.2831803348977928
  0
ARC
  5
9529
  8
0
 10
3502.6125741787682273
 20
183.5223234552902056
 30
0.0
 40
0.9847482542524476
 50
348.351549955020289
 51
355.6306958740926802
  0
ARC
  5
952A
  8
0
 10
3505.8926488952479303
 20
183.0105316125093111
 30
0.0
 40
2.33666111425693
 50
172.3028513087515137
 51
176.843060218131086
  0
LINE
  5
952B
  8
0
 10
3503.6960552560740325
 20
185.8658126750788142
 30
0.0
 11
3503.5664561585040246
 21
185.8666971221398967
 31
0.0
  0
ARC
  5
952C
  8
0
 10
2436.4446586799808756
 20
213.7952857335081944
 30
0.0
 40
1067.4872068159020273
 50
358.4681787216384237
 51
358.5008037043332934
  0
ARC
  5
952D
  8
0
 10
3450.8722427943780531
 20
186.8220627194866097
 30
0.0
 40
52.7013198837911503
 50
356.3300494689331117
 51
358.3004957189144193
  0
ARC
  5
952E
  8
0
 10
3502.5067720006450145
 20
183.5147949942762011
 30
0.0
 40
0.9609925453715922
 50
348.5550185815991995
 51
356.0566607715301188
  0
ARC
  5
952F
  8
0
 10
3505.7222555993312199
 20
183.0112904476522999
 30
0.0
 40
2.2950186643749348
 50
172.1660302161106983
 51
176.821626805559788
  0
ARC
  5
9530
  8
0
 10
3504.251354760472168
 20
183.6340113459891086
 30
0.0
 40
0.9585712461597194
 50
195.8787502042148105
 51
211.123767488976597
  0
ARC
  5
9531
  8
0
 10
3503.948593382899162
 20
183.4557096549586959
 30
0.0
 40
0.6249003203309579
 50
173.5432058287553048
 51
187.7220021505542036
  0
ARC
  5
9532
  8
0
 10
3829.3799413479441682
 20
164.9022712191166988
 30
0.0
 40
326.5837332743763
 50
176.4209861811827977
 51
176.7308867160008106
  0
ARC
  5
9533
  8
0
 10
3511.0604669621420726
 20
183.832663875778394
 30
0.0
 40
7.765145792086531
 50
164.8145572399193952
 51
169.1884270027018999
  0
ARC
  5
9534
  8
0
 10
3505.8919861324880003
 20
183.035776373852201
 30
0.0
 40
0.8331774786658531
 50
145.6363908492924111
 51
172.2576096646772044
  0
ARC
  5
9535
  8
0
 10
3496.751343771250049
 20
188.5362090264696064
 30
0.0
 40
9.8363389483655101
 50
329.2439031185302838
 51
339.1352860059927252
  0
ARC
  5
9536
  8
0
 10
3511.633004250454178
 20
182.784772306582795
 30
0.0
 40
6.1183357425165781
 50
150.0451737985846137
 51
158.4423853255630945
  0
ARC
  5
9537
  8
0
 10
3512.3649448364380987
 20
183.8759266109310033
 30
0.0
 40
6.3445690734782039
 50
161.9690864625403037
 51
168.054759047042694
  0
ARC
  5
9538
  8
0
 10
3503.4527224424618908
 20
185.8333447152394911
 30
0.0
 40
2.7806984048165928
 50
338.1902708747745123
 51
346.6038389288636949
  0
ARC
  5
9539
  8
0
 10
3497.3260985981969498
 20
188.2325032999837049
 30
0.0
 40
9.3602709768901651
 50
329.0526982361113824
 51
338.4887618570011227
  0
ARC
  5
953A
  8
0
 10
3505.1147544388591086
 20
183.5569554907146141
 30
0.0
 40
0.2760439380442165
 50
297.7999150655107883
 51
330.0132722197704993
  0
ARC
  5
953B
  8
0
 10
3505.5174128908010971
 20
182.8407799992912999
 30
0.0
 40
0.5457163080486063
 50
120.1282827117279055
 51
145.7360703284261092
  0
LINE
  5
953C
  8
0
 10
3505.0664040674369062
 20
183.1480214843120109
 30
0.0
 11
3505.1628412358718379
 21
183.148566441650587
 31
0.0
  0
ARC
  5
953D
  8
0
 10
3505.8473782331270741
 20
182.5502732083178898
 30
0.0
 40
0.9091455844154216
 50
123.0712338652803055
 51
138.8461668637980893
  0
ARC
  5
953E
  8
0
 10
3505.2228720904658985
 20
183.5730631680218892
 30
0.0
 40
0.2908142925324462
 50
296.2013575308517943
 51
329.5385704647649163
  0
ARC
  5
953F
  8
0
 10
3497.60336131792792
 20
188.2651538702463938
 30
0.0
 40
9.2390890206950882
 50
328.411874857821374
 51
337.9872944134779118
  0
ARC
  5
9540
  8
0
 10
3503.587545081429198
 20
185.8712101570255868
 30
0.0
 40
2.7939673920493542
 50
337.5050062121864016
 51
347.4228520751856877
  0
ARC
  5
9541
  8
0
 10
3440.4241134350831999
 20
200.6942942007171098
 30
0.0
 40
67.6732546208538679
 50
346.8189267572183212
 51
347.3190159800229253
  0
LINE
  5
9542
  8
0
 10
3506.446645167207862
 20
185.8384975320919068
 30
0.0
 11
3506.3319597713039002
 21
185.8397616172402138
 31
0.0
  0
ARC
  5
9543
  8
0
 10
3485.3003994713280917
 20
204.0378363411111025
 30
0.0
 40
29.4476073656933686
 50
314.8283877825487025
 51
321.7777940049194854
  0
ARC
  5
9544
  8
0
 10
3512.2162934123030027
 20
183.1822475968315871
 30
0.0
 40
4.6094415675248133
 50
145.119691397667907
 51
153.7039539268139094
  0
ARC
  5
9545
  8
0
 10
3506.5687060011400717
 20
185.9120026075871976
 30
0.0
 40
1.6639216060339459
 50
320.412975091032024
 51
335.5865372640104738
  0
ARC
  5
9546
  8
0
 10
3498.1375068965407991
 20
192.3768332952716094
 30
0.0
 40
12.2874091655426394
 50
313.0757880065348218
 51
322.2346673552553966
  0
ARC
  5
9547
  8
0
 10
3506.2505723247609239
 20
183.7049068346759952
 30
0.0
 40
0.4120667047086226
 50
285.2211936250587883
 51
312.5790184189029901
  0
ARC
  5
9548
  8
0
 10
3506.5747541939249459
 20
182.5246526575828057
 30
0.0
 40
0.8119015091362177
 50
105.4285449798982057
 51
129.2972742696370005
  0
LINE
  5
9549
  8
0
 10
3506.0605411974038361
 20
183.1529591550402074
 30
0.0
 11
3506.0978861403041265
 21
183.1530499418298916
 31
0.0
  0
ARC
  5
954A
  8
0
 10
3506.6300885444197775
 20
182.4822862777519958
 30
0.0
 40
0.8562495500697831
 50
105.5011359200563987
 51
128.429454634184907
  0
ARC
  5
954B
  8
0
 10
3506.2983096157850014
 20
183.7039986589616092
 30
0.0
 40
0.4097500823381817
 50
284.550066193759676
 51
311.899188672249295
  0
ARC
  5
954C
  8
0
 10
3498.2902896425571271
 20
192.3807234798495926
 30
0.0
 40
12.2170788629180702
 50
312.677859923512699
 51
321.966132377089707
  0
ARC
  5
954D
  8
0
 10
3506.3490903297779369
 20
186.1002491694993068
 30
0.0
 40
2.000105410675959
 50
321.4375662851803099
 51
333.9978016745034211
  0
ARC
  5
954E
  8
0
 10
3513.9538934392030569
 20
182.1798110441760912
 30
0.0
 40
6.5564029604507859
 50
146.300835511220896
 51
152.340569488795893
  0
LINE
  5
954F
  8
0
 10
3508.4992139227911139
 20
185.8175151488356107
 30
0.0
 11
3508.4349451100038095
 21
185.8182211515402003
 31
0.0
  0
ARC
  5
9550
  8
0
 10
3502.3285681153629412
 20
180.9456614099314038
 30
0.0
 40
0.252124927507654
 50
269.8099281951002126
 51
356.0560780505671232
  0
LINE
  5
9551
  8
0
 10
3502.580095972304207
 20
180.9283202377401096
 30
0.0
 11
3502.9684970307571348
 21
186.5619466609799133
 31
0.0
  0
ARC
  5
9552
  8
0
 10
3503.2190467689679281
 20
186.5432816829359126
 30
0.0
 40
0.2512440103230144
 50
90.2965506932022066
 51
175.7395576683761078
  0
ARC
  5
9553
  8
0
 10
3502.9587790011041761
 20
180.5685232427020992
 30
0.0
 40
0.1250004352619758
 50
270.0
 51
354.9998171579165955
  0
LINE
  5
9554
  8
0
 10
3503.0833037372040053
 20
180.5576283395400878
 30
0.0
 11
3503.1917694157550613
 21
181.7973511527407879
 31
0.0
  0
ARC
  5
9555
  8
0
 10
3503.4410478033159961
 20
181.7755413181818085
 30
0.0
 40
0.2502306603682488
 50
96.5395824532631508
 51
174.9998171579165955
  0
ARC
  5
9556
  8
0
 10
3502.6266974887071228
 20
187.9848714464949069
 30
0.0
 40
6.0123070878321272
 50
277.5104588903888043
 51
308.9408612023224805
  0
ARC
  5
9557
  8
0
 10
3491.4676696429069125
 20
201.2335071708330929
 30
0.0
 40
23.3531343548705017
 50
311.1533157332157771
 51
321.5321163376441973
  0
ARC
  5
9558
  8
0
 10
3509.9535380255038035
 20
186.5213508610690099
 30
0.0
 40
0.2732700887940456
 50
91.5393636447357864
 51
137.4668322062842947
  0
ARC
  5
9559
  8
0
 10
3511.9983069373038234
 20
186.8245365970402077
 30
0.0
 40
0.0300142721999975
 50
270.0263267598983248
 51
359.9736759540032836
  0
ARC
  5
955A
  8
0
 10
3512.1844525084989073
 20
186.9445707209792999
 30
0.0
 40
0.1200478552626738
 50
270.1570656766203911
 51
348.6927284666001015
  0
ARC
  5
955B
  8
0
 10
3518.2008141202591105
 20
185.7415889853639897
 30
0.0
 40
6.0154042144462574
 50
153.7102534306052064
 51
168.6927284665999878
  0
LINE
  5
955C
  8
0
 10
3503.4125491360041451
 20
182.0241438309402042
 30
0.0
 11
3502.8596519014940895
 21
182.0243358007641064
 31
0.0
  0
ARC
  5
955D
  8
0
 10
3502.8590867008688292
 20
181.8062175748472953
 30
0.0
 40
0.2181189582059282
 50
89.8515321784317109
 51
173.7886947654573078
  0
ARC
  5
955F
  8
0
 10
3512.5971681895380243
 20
188.501789117948789
 30
0.0
 40
0.2312674233946443
 50
335.4978516556059276
 51
358.1985515536476896
  0
ARC
  5
9560
  8
0
 10
3512.6233282894309013
 20
188.4895323282592869
 30
0.0
 40
0.2050536670635481
 50
1.3935024442201791
 51
88.5699429982701787
  0
ENDSEC
  0
EOF
