  0
SECTION
  2
HEADER
  9
$ACADVER
  1
AC1009
  9
$INSBASE
 10
4379.2585687826531284
 20
247.8095179302123086
 30
0.0
  9
$EXTMIN
 10
4371.6391117701732583
 20
225.9974313310252114
 30
-0.0000000000000058
  9
$EXTMAX
 10
4386.6991834912823833
 20
247.8170380811610869
 30
0.0000000000000104
  9
$LIMMIN
 10
0.0
 20
0.0
  9
$LIMMAX
 10
11.6929133858000007
 20
8.2677165353999982
  9
$ORTHOMODE
 70
     0
  9
$REGENMODE
 70
     1
  9
$FILLMODE
 70
     1
  9
$QTEXTMODE
 70
     0
  9
$MIRRTEXT
 70
     0
  9
$DRAGMODE
 70
     2
  9
$LTSCALE
 40
0.6431102362
  9
$OSMODE
 70
     7
  9
$ATTMODE
 70
     1
  9
$TEXTSIZE
 40
0.2
  9
$TRACEWID
 40
0.05
  9
$TEXTSTYLE
  7
STANDARD
  9
$CLAYER
  8
0
  9
$CELTYPE
  6
BYLAYER
  9
$CECOLOR
 62
   256
  9
$DIMSCALE
 40
1.0
  9
$DIMASZ
 40
0.1875
  9
$DIMEXO
 40
0.0625
  9
$DIMDLI
 40
0.4443307087
  9
$DIMRND
 40
0.0
  9
$DIMDLE
 40
0.0
  9
$DIMEXE
 40
0.125
  9
$DIMTP
 40
0.01
  9
$DIMTM
 40
0.01
  9
$DIMTXT
 40
2.0
  9
$DIMCEN
 40
0.1052362205
  9
$DIMTSZ
 40
0.0
  9
$DIMTOL
 70
     1
  9
$DIMLIM
 70
     0
  9
$DIMTIH
 70
     1
  9
$DIMTOH
 70
     1
  9
$DIMSE1
 70
     0
  9
$DIMSE2
 70
     0
  9
$DIMTAD
 70
     0
  9
$DIMZIN
 70
     0
  9
$DIMBLK
  1

  9
$DIMASO
 70
     1
  9
$DIMSHO
 70
     1
  9
$DIMPOST
  1
\X
  9
$DIMAPOST
  1

  9
$DIMALT
 70
     1
  9
$DIMALTD
 70
     2
  9
$DIMALTF
 40
25.3999999999999986
  9
$DIMLFAC
 40
1.0
  9
$DIMTOFL
 70
     0
  9
$DIMTVP
 40
0.0
  9
$DIMTIX
 70
     0
  9
$DIMSOXD
 70
     0
  9
$DIMSAH
 70
     0
  9
$DIMBLK1
  1

  9
$DIMBLK2
  1

  9
$DIMSTYLE
  2
STANDARD
  9
$DIMCLRD
 70
     0
  9
$DIMCLRE
 70
     0
  9
$DIMCLRT
 70
     0
  9
$DIMTFAC
 40
1.0
  9
$DIMGAP
 40
0.09
  9
$LUNITS
 70
     2
  9
$LUPREC
 70
     4
  9
$SKETCHINC
 40
0.1
  9
$FILLETRAD
 40
0.0
  9
$AUNITS
 70
     0
  9
$AUPREC
 70
     0
  9
$MENU
  1
.
  9
$ELEVATION
 40
0.0
  9
$PELEVATION
 40
0.0
  9
$THICKNESS
 40
0.0
  9
$LIMCHECK
 70
     0
  9
$BLIPMODE
 70
     0
  9
$CHAMFERA
 40
0.0
  9
$CHAMFERB
 40
0.0
  9
$SKPOLY
 70
     0
  9
$TDCREATE
 40
2458060.468368056230247
  9
$TDUPDATE
 40
2459393.5077777779661119
  9
$TDINDWG
 40
0.6890116898
  9
$TDUSRTIMER
 40
0.6890116898
  9
$USRTIMER
 70
     1
  9
$ANGBASE
 50
0.0
  9
$ANGDIR
 70
     0
  9
$PDMODE
 70
     0
  9
$PDSIZE
 40
0.3125
  9
$PLINEWID
 40
0.0
  9
$COORDS
 70
     1
  9
$SPLFRAME
 70
     0
  9
$SPLINETYPE
 70
     6
  9
$SPLINESEGS
 70
     8
  9
$ATTDIA
 70
     1
  9
$ATTREQ
 70
     1
  9
$HANDLING
 70
     1
  9
$HANDSEED
  5
13B39
  9
$SURFTAB1
 70
     6
  9
$SURFTAB2
 70
     6
  9
$SURFTYPE
 70
     6
  9
$SURFU
 70
     6
  9
$SURFV
 70
     6
  9
$UCSNAME
  2

  9
$UCSORG
 10
0.0
 20
0.0
 30
0.0
  9
$UCSXDIR
 10
1.0
 20
0.0
 30
0.0
  9
$UCSYDIR
 10
0.0
 20
1.0
 30
0.0
  9
$PUCSNAME
  2

  9
$PUCSORG
 10
0.0
 20
0.0
 30
0.0
  9
$PUCSXDIR
 10
1.0
 20
0.0
 30
0.0
  9
$PUCSYDIR
 10
0.0
 20
1.0
 30
0.0
  9
$USERI1
 70
     0
  9
$USERI2
 70
     0
  9
$USERI3
 70
     0
  9
$USERI4
 70
     0
  9
$USERI5
 70
     0
  9
$USERR1
 40
0.0
  9
$USERR2
 40
0.0
  9
$USERR3
 40
0.0
  9
$USERR4
 40
0.0
  9
$USERR5
 40
0.0
  9
$WORLDVIEW
 70
     1
  9
$SHADEDGE
 70
     3
  9
$SHADEDIF
 70
    70
  9
$TILEMODE
 70
     1
  9
$MAXACTVP
 70
    64
  9
$PLIMCHECK
 70
     0
  9
$PEXTMIN
 10
1.0000000000000000E+20
 20
1.0000000000000000E+20
 30
1.0000000000000000E+20
  9
$PEXTMAX
 10
-1.0000000000000000E+20
 20
-1.0000000000000000E+20
 30
-1.0000000000000000E+20
  9
$PLIMMIN
 10
0.0
 20
0.0
  9
$PLIMMAX
 10
12.0
 20
9.0
  9
$UNITMODE
 70
     0
  9
$VISRETAIN
 70
     1
  9
$PLINEGEN
 70
     0
  9
$PSLTSCALE
 70
     1
  0
ENDSEC
  0
SECTION
  2
TABLES
  0
TABLE
  2
VPORT
 70
     1
  0
VPORT
  2
*ACTIVE
 70
     0
 10
0.0
 20
0.0
 11
1.0
 21
1.0
 12
217.6127511463527924
 22
10.7964024917376307
 13
0.0
 23
0.0
 14
1.0
 24
1.0
 15
0.0
 25
0.0
 16
0.0
 26
0.0
 36
202.37134017897489
 17
4161.556396484375
 27
226.1108322143554972
 37
0.0
 40
21.98723497100762
 41
2.3461538461538458
 42
50.0
 43
0.0
 44
0.0
 50
0.0
 51
0.0
 71
     0
 72
   100
 73
     1
 74
     1
 75
     0
 76
     0
 77
     0
 78
     0
  0
ENDTAB
  0
TABLE
  2
LTYPE
 70
     2
  0
LTYPE
  2
CONTINUOUS
 70
     0
  3
Solid line
 72
    65
 73
     0
 40
0.0
  0
LTYPE
  2
PHANTOM2
 70
     0
  3
___ _ _ ___ _ _ ___ _ _ ___ _ _
 72
    65
 73
     6
 40
1.25
 49
0.625
 49
-0.125
 49
0.125
 49
-0.125
 49
0.125
 49
-0.125
  0
ENDTAB
  0
TABLE
  2
LAYER
 70
     2
  0
LAYER
  2
0
 70
     0
 62
   255
  6
CONTINUOUS
  0
LAYER
  2
DEFPOINTS
 70
     0
 62
     7
  6
CONTINUOUS
  0
ENDTAB
  0
TABLE
  2
STYLE
 70
     1
  0
STYLE
  2
STANDARD
 70
     0
 40
0.0
 41
0.8
 50
0.0
 71
     0
 42
0.2
  3
txt
  4

  0
ENDTAB
  0
TABLE
  2
VIEW
 70
     0
  0
ENDTAB
  0
TABLE
  2
UCS
 70
     0
  0
ENDTAB
  0
TABLE
  2
APPID
 70
    10
  0
APPID
  2
ACAD
 70
     0
  0
APPID
  2
ACAD_MLEADERVER
 70
     0
  0
APPID
  2
ACAD_EXEMPT_FROM_CAD_STANDARDS
 70
     0
  0
APPID
  2
ACAD_NAV_VCDISPLAY
 70
     0
  0
APPID
  2
ACAECLAYERSTANDARD
 70
     0
  0
APPID
  2
ACCMTRANSPARENCY
 70
     0
  0
APPID
  2
ACAD_DSTYLE_DIMJAG
 70
     0
  0
APPID
  2
ACAD_DSTYLE_DIMTALN
 70
     0
  0
APPID
  2
ACDBATTR
 70
     0
  0
APPID
  2
DCO15
 70
     0
  0
ENDTAB
  0
TABLE
  2
DIMSTYLE
 70
     1
  0
DIMSTYLE
  2
STANDARD
 70
     0
  3

  4

  5

  6

  7

 40
1.0
 41
0.1875
 42
0.0625
 43
0.38
 44
0.125
 45
0.0
 46
0.0
 47
0.01
 48
0.01
140
0.15625
141
0.09
142
0.0
143
25.3999999999999986
144
1.0
145
0.0
146
1.0
147
0.09
 71
     1
 72
     0
 73
     1
 74
     1
 75
     0
 76
     0
 77
     0
 78
     4
170
     0
171
     2
172
     0
173
     0
174
     0
175
     0
176
     0
177
     0
178
     0
  0
ENDTAB
  0
ENDSEC
  0
SECTION
  2
BLOCKS
  0
BLOCK
  8
0
  2
$MODEL_SPACE
 70
     0
 10
0.0
 20
0.0
 30
0.0
  3
$MODEL_SPACE
  1

  0
ENDBLK
  5
21
  8
0
  0
BLOCK
 67
     1
  8
0
  2
$PAPER_SPACE
 70
     0
 10
0.0
 20
0.0
 30
0.0
  3
$PAPER_SPACE
  1

  0
ENDBLK
  5
1D
 67
     1
  8
0
  0
ENDSEC
  0
SECTION
  2
ENTITIES
  0
ATTDEF
  5
12CA7
  8
DEFPOINTS
 10
4379.2585780647823412
 20
247.812853917206894
 30
0.0
 40
0.001
  1
K-20768T-S
  3

  2
MODELNUMBER
 70
     0
1001
ACDBATTR
1070
     0
1070
     1
  0
ATTDEF
  5
12CA8
  8
DEFPOINTS
 10
4379.2585780647823412
 20
247.8111872505403142
 30
0.0
 40
0.001
  1
REVE
  3

  2
TRADENAME
 70
     0
1001
ACDBATTR
1070
     0
1070
     1
  0
ATTDEF
  5
12CA9
  8
DEFPOINTS
 10
4379.2585780647823412
 20
247.8095205838735922
 30
0.0
 40
0.001
  1
TOILET
  3

  2
PRODUCT
 70
     0
1001
ACDBATTR
1070
     0
1070
     1
  0
LINE
  5
139D7
  8
0
 10
4372.0705571366543154
 20
247.8095179302123086
 30
0.0
 11
4386.446580428652851
 21
247.8095179302123086
 31
0.0
  0
LINE
  5
139D8
  8
0
 10
4371.9572035702540234
 20
243.6147869557115939
 30
0.0
 11
4371.9572035702540234
 21
227.1007680321131943
 31
0.0
  0
LINE
  5
139D9
  8
0
 10
4374.320547298353631
 20
243.793753973912203
 30
0.0
 11
4373.8669090565535953
 21
243.7937531583121995
 31
0.0
  0
ARC
  5
139DA
  8
0
 10
4373.8669091983538237
 20
243.7148835221157128
 30
0.0
 40
0.0788696361967065
 50
90.0001030125532964
 51
109.4914330829975029
  0
LINE
  5
139DB
  8
0
 10
4373.8521165170541281
 20
243.7892227662123048
 30
0.0
 11
4372.6977654612528568
 21
243.7892291532122044
 31
0.0
  0
ARC
  5
139DC
  8
0
 10
4372.7213762570918334
 20
251.177761764917193
 30
0.0
 40
7.3885703369398508
 50
267.1406636792837048
 51
269.816906222290811
  0
ARC
  5
139DD
  8
0
 10
4372.478697759563147
 20
246.3189738389218064
 30
0.0
 40
2.5237257389119381
 50
264.0221284852115105
 51
267.1406636792837048
  0
ARC
  5
139DE
  8
0
 10
4372.1726843086680674
 20
243.3511846089704989
 30
0.0
 40
0.4598191150579329
 50
84.6114073923818637
 51
93.9723956428060063
  0
ARC
  5
139DF
  8
0
 10
4372.1177826372831987
 20
243.7803369480886033
 30
0.0
 40
0.0374845979105622
 50
52.0591618369103131
 51
98.1363622307205929
  0
ARC
  5
139E0
  8
0
 10
4372.1227609061506882
 20
243.7446101110776908
 30
0.0
 40
0.0735564936540312
 50
98.0364683194429318
 51
110.5510347414656991
  0
ARC
  5
139E1
  8
0
 10
4372.1764751845566934
 20
243.6090671767769891
 30
0.0
 40
0.2193462028618295
 50
111.2601620508379057
 51
178.505757836759301
  0
ARC
  5
139E2
  8
0
 10
4374.3204191543063644
 20
243.7539345950661982
 30
0.0
 40
0.0398195850377648
 50
12.9016467387029099
 51
89.8156152110462074
  0
ARC
  5
139E3
  8
0
 10
4372.7347749714508609
 20
243.5756513166502941
 30
0.0
 40
1.63520629095315
 50
1.5760286059391859
 51
6.5727762530889304
  0
ARC
  5
139E4
  8
0
 10
4363.1091802747041584
 20
243.2150885830083098
 30
0.0
 40
11.2674827550353793
 50
1.3370983497493301
 51
2.062621244709252
  0
LINE
  5
139E5
  8
0
 10
4374.4642654322542512
 20
243.7937604012122108
 30
0.0
 11
4374.8135194600536124
 21
243.7937611523122996
 31
0.0
  0
ARC
  5
139E6
  8
0
 10
4374.4634501682949121
 20
243.7156346920903047
 30
0.0
 40
0.0781299627615369
 50
89.4021239732689565
 51
171.6510016845832922
  0
LINE
  5
139E7
  8
0
 10
4374.3695517329142604
 20
243.61534132581221
 30
0.0
 11
4374.3863718187803897
 21
243.61534132581221
 31
0.0
  0
ARC
  5
139E8
  8
0
 10
4374.4121034423651508
 20
243.6136444458090864
 30
0.0
 40
0.0274453683656957
 50
165.4271469420843061
 51
176.4552812619895974
  0
ARC
  5
139E9
  8
0
 10
4370.8878948651918108
 20
243.475995067960497
 30
0.0
 40
3.50125097277592
 50
0.0299300545751337
 51
2.2809166613756631
  0
ARC
  5
139EA
  8
0
 10
4374.3627736269572779
 20
243.6142479929469005
 30
0.0
 40
0.0236235059642187
 50
2.6526860141745181
 51
15.4720573722080506
  0
ARC
  5
139EB
  8
0
 10
4376.7858745742541942
 20
243.5903561117380889
 30
0.0
 40
2.4044807162884232
 50
177.0997235660927061
 51
179.4046227652646905
  0
ARC
  5
139EC
  8
0
 10
4374.5278032882479238
 20
243.7035509737382881
 30
0.0
 40
0.1435794017719354
 50
170.6088458080689065
 51
176.6194682874275941
  0
ARC
  5
139ED
  8
0
 10
4374.5054542648758797
 20
259.5415266494171078
 30
0.0
 40
16.0641236656513513
 50
269.5296989662685974
 51
269.8162887237419909
  0
ARC
  5
139EE
  8
0
 10
4376.6667081146078999
 20
746.5816405237744675
 30
0.0
 40
503.1090210426291947
 50
269.7480023551444788
 51
269.9395749308940822
  0
ARC
  5
139EF
  8
0
 10
4377.1673452199329404
 20
-835.2200628096095443
 30
0.0
 40
1078.6934549955210514
 50
89.9657248278316786
 51
90.0547744066418119
  0
LINE
  5
139F0
  8
0
 10
4374.9042227238542182
 20
243.9020290616122111
 30
0.0
 11
4376.1758762670542637
 21
243.9020317963122011
 31
0.0
  0
LINE
  5
139F1
  8
0
 10
4376.215239928608753
 20
243.4729719995009987
 30
0.0
 11
4376.2152464303526358
 21
243.8626617975122031
 31
0.0
  0
ARC
  5
139F2
  8
0
 10
4376.1758763518237174
 20
243.8626617177827995
 30
0.0
 40
0.0393700785295853
 50
0.000116031340983
 51
90.0001233675821481
  0
ARC
  5
139F3
  8
0
 10
4374.941416292973372
 20
243.5195824213539879
 30
0.0
 40
0.0820235713567889
 50
180.9752773250264966
 51
212.244251354300701
  0
LINE
  5
139F4
  8
0
 10
4374.8648462417449991
 20
243.490173349400095
 30
0.0
 11
4374.8648526592533017
 21
243.8626384816122084
 31
0.0
  0
ARC
  5
139F5
  8
0
 10
4374.904243923658214
 20
243.8626378029078126
 30
0.0
 40
0.0393912644091464
 50
90.0308357533895105
 51
179.9990128039765978
  0
ARC
  5
139F6
  8
0
 10
4374.8135599987754176
 20
243.7537021955006082
 30
0.0
 40
0.0400589773237666
 50
32.4740340400002125
 51
90.0579819605368499
  0
ARC
  5
139F7
  8
0
 10
4374.8080342559751443
 20
243.75139181530011
 30
0.0
 40
0.0459724367385079
 50
359.7140437329870224
 51
31.2055014576403309
  0
ARC
  5
139F8
  8
0
 10
4366.5066236238790225
 20
243.4411875893513866
 30
0.0
 40
8.3531358725845841
 50
0.5281565737864918
 51
2.1266654634472761
  0
ARC
  5
139F9
  8
0
 10
4375.3806172773529397
 20
243.8330336855121914
 30
0.0
 40
0.8503937008000015
 50
348.9493970044500202
 51
182.6469926026163932
  0
ARC
  5
139FA
  8
0
 10
4373.0579501061311021
 20
227.1009643285698019
 30
0.0
 40
1.100746553379927
 50
180.0102175733152876
 51
269.9931123580586245
  0
LINE
  5
139FB
  8
0
 10
4372.0705571366543154
 20
243.8011456082533925
 30
0.0
 11
4372.0705571366543154
 21
247.8095179302123086
 31
0.0
  0
LINE
  5
139FC
  8
0
 10
4386.5599339950540525
 20
243.6147869557115939
 30
0.0
 11
4386.5599339950540525
 21
227.1007680321131943
 31
0.0
  0
LINE
  5
139FD
  8
0
 10
4384.1965902669526258
 20
243.793753973912203
 30
0.0
 11
4384.6502285087526616
 21
243.7937531583121995
 31
0.0
  0
ARC
  5
139FE
  8
0
 10
4384.6502283669533426
 20
243.7148835221157128
 30
0.0
 40
0.0788696361967065
 50
70.5085669170025113
 51
89.9998969874467036
  0
LINE
  5
139FF
  8
0
 10
4384.6650210482539478
 20
243.7892227662123048
 30
0.0
 11
4385.8193721040543096
 21
243.7892291532122044
 31
0.0
  0
ARC
  5
13A00
  8
0
 10
4385.795761308215333
 20
251.177761764917193
 30
0.0
 40
7.3885703369398508
 50
270.183093777709189
 51
272.8593363207162952
  0
ARC
  5
13A01
  8
0
 10
4386.0384398057431099
 20
246.3189738389218064
 30
0.0
 40
2.5237257389119381
 50
272.8593363207162952
 51
275.9778715147883759
  0
ARC
  5
13A02
  8
0
 10
4386.344453256639099
 20
243.3511846089704989
 30
0.0
 40
0.4598191150579329
 50
86.0276043571940079
 51
95.3885926076181221
  0
ARC
  5
13A03
  8
0
 10
4386.3993549280248772
 20
243.7803369480886033
 30
0.0
 40
0.0374845979105622
 50
81.8636377692794071
 51
127.940838163089694
  0
ARC
  5
13A04
  8
0
 10
4386.3943766591573876
 20
243.7446101110776908
 30
0.0
 40
0.0735564936540312
 50
69.4489652585343151
 51
81.963531680557054
  0
ARC
  5
13A05
  8
0
 10
4386.3406623807513824
 20
243.6090671767769891
 30
0.0
 40
0.2193462028618295
 50
1.4942421632407199
 51
68.7398379491620233
  0
ARC
  5
13A06
  8
0
 10
4384.1967184110017115
 20
243.7539345950661982
 30
0.0
 40
0.0398195850377648
 50
90.1843847889537784
 51
167.0983532612970919
  0
ARC
  5
13A07
  8
0
 10
4385.782362593857215
 20
243.5756513166502941
 30
0.0
 40
1.63520629095315
 50
173.4272237469110109
 51
178.4239713940607999
  0
ARC
  5
13A08
  8
0
 10
4395.4079572906039175
 20
243.2150885830083098
 30
0.0
 40
11.2674827550353793
 50
177.9373787552906947
 51
178.6629016502506033
  0
LINE
  5
13A09
  8
0
 10
4384.0528721330529152
 20
243.7937604012122108
 30
0.0
 11
4383.7036181052526445
 21
243.7937611523122996
 31
0.0
  0
ARC
  5
13A0A
  8
0
 10
4384.0536873970122542
 20
243.7156346920903047
 30
0.0
 40
0.0781299627615369
 50
8.3489983154166811
 51
90.5978760267310435
  0
LINE
  5
13A0B
  8
0
 10
4384.147585832392906
 20
243.61534132581221
 30
0.0
 11
4384.1307657465276861
 21
243.61534132581221
 31
0.0
  0
ARC
  5
13A0C
  8
0
 10
4384.105034122942925
 20
243.6136444458090864
 30
0.0
 40
0.0274453683656957
 50
3.5447187380103462
 51
14.5728530579156192
  0
ARC
  5
13A0D
  8
0
 10
4387.6292427001153555
 20
243.475995067960497
 30
0.0
 40
3.50125097277592
 50
177.7190833386243014
 51
179.9700699454247967
  0
ARC
  5
13A0E
  8
0
 10
4384.1543639383498885
 20
243.6142479929469005
 30
0.0
 40
0.0236235059642187
 50
164.5279426277919015
 51
177.3473139858255081
  0
ARC
  5
13A0F
  8
0
 10
4381.7312629910538817
 20
243.5903561117380889
 30
0.0
 40
2.4044807162884232
 50
0.5953772347353221
 51
2.9002764339072629
  0
ARC
  5
13A10
  8
0
 10
4383.9893342770592426
 20
243.7035509737382881
 30
0.0
 40
0.1435794017719354
 50
3.3805317125723739
 51
9.3911541919310437
  0
ARC
  5
13A11
  8
0
 10
4384.0116833004312866
 20
259.5415266494171078
 30
0.0
 40
16.0641236656513513
 50
270.1837112762580091
 51
270.470301033731289
  0
ARC
  5
13A12
  8
0
 10
4381.8504294506992665
 20
746.5816405237744675
 30
0.0
 40
503.1090210426291947
 50
270.0604250691059178
 51
270.2519976448555212
  0
ARC
  5
13A13
  8
0
 10
4381.3497923453751355
 20
-835.2200628096095443
 30
0.0
 40
1078.6934549955210514
 50
89.9452255933582165
 51
90.0342751721683356
  0
LINE
  5
13A14
  8
0
 10
4383.6129148414538577
 20
243.9020290616122111
 30
0.0
 11
4382.3412612982529026
 21
243.9020317963122011
 31
0.0
  0
LINE
  5
13A15
  8
0
 10
4382.3018976366993229
 20
243.4729719995009987
 30
0.0
 11
4382.3018911349527116
 21
243.8626617975122031
 31
0.0
  0
ARC
  5
13A16
  8
0
 10
4382.341261213483449
 20
243.8626617177827995
 30
0.0
 40
0.0393700785295853
 50
89.9998766324178519
 51
179.9998839686589918
  0
ARC
  5
13A17
  8
0
 10
4383.5757212723347038
 20
243.5195824213539879
 30
0.0
 40
0.0820235713567889
 50
327.7557486456993274
 51
359.024722674973475
  0
LINE
  5
13A18
  8
0
 10
4383.6522913235612577
 20
243.490173349400095
 30
0.0
 11
4383.6522849060529552
 21
243.8626384816122084
 31
0.0
  0
ARC
  5
13A19
  8
0
 10
4383.6128936416498618
 20
243.8626378029078126
 30
0.0
 40
0.0393912644091464
 50
0.0009871960233428
 51
89.9691642466104753
  0
ARC
  5
13A1A
  8
0
 10
4383.7035775665317487
 20
243.7537021955006082
 30
0.0
 40
0.0400589773237666
 50
89.9420180394631643
 51
147.5259659599998088
  0
ARC
  5
13A1B
  8
0
 10
4383.7091033093329315
 20
243.75139181530011
 30
0.0
 40
0.0459724367385079
 50
148.7944985423596052
 51
180.285956267013006
  0
ARC
  5
13A1C
  8
0
 10
4392.0105139414281439
 20
243.4411875893513866
 30
0.0
 40
8.3531358725845841
 50
177.8733345365527043
 51
179.4718434262134963
  0
ARC
  5
13A1D
  8
0
 10
4383.1365202879542267
 20
243.8330336855121914
 30
0.0
 40
0.8503937008000015
 50
357.3530073973835783
 51
191.0506029955498946
  0
ARC
  5
13A1E
  8
0
 10
4385.4591874591769738
 20
227.1009643285698019
 30
0.0
 40
1.100746553379923
 50
270.0068876419413755
 51
359.9897824266847124
  0
LINE
  5
13A1F
  8
0
 10
4386.446580428652851
 20
243.8011456082533925
 30
0.0
 11
4386.446580428652851
 21
247.8095179302123086
 31
0.0
  0
ARC
  5
13A20
  8
0
 10
4379.2585687826531284
 20
530.725699152779157
 30
0.0
 40
287.2561391284677939
 50
269.7115945629402063
 51
270.28840543705968
  0
LINE
  5
13A22
  8
0
 10
4385.4593197821523063
 20
226.000217783143313
 30
0.0
 11
4373.0578177831221183
 21
226.000217783143313
 31
0.0
  0
LINE
  5
13A23
  8
0
 10
4374.8558923021910232
 20
243.6953360562621924
 30
0.0
 11
4374.8648497766616856
 21
243.6953360562621924
 31
0.0
  0
LINE
  5
13A24
  8
0
 10
4383.6522877883189722
 20
243.6953549631122087
 30
0.0
 11
4383.6612458386553044
 21
243.6953549631122087
 31
0.0
  0
ENDSEC
  0
EOF
