  0
SECTION
  2
HEADER
  9
$ACADVER
  1
AC1009
  9
$INSBASE
 10
5069.8593018447290888
 20
307.882298498899786
 30
0.0
  9
$EXTMIN
 10
5069.5956366314621846
 20
276.2459657263552799
 30
-0.0000000000112498
  9
$EXTMAX
 10
5133.1301534812837417
 20
307.8992483897351917
 30
0.0000000000002956
  9
$LIMMIN
 10
0.0
 20
0.0
  9
$LIMMAX
 10
11.6929133858000007
 20
8.2677165353999982
  9
$ORTHOMODE
 70
     0
  9
$REGENMODE
 70
     1
  9
$FILLMODE
 70
     1
  9
$QTEXTMODE
 70
     0
  9
$MIRRTEXT
 70
     0
  9
$DRAGMODE
 70
     2
  9
$LTSCALE
 40
0.6431102362
  9
$OSMODE
 70
  4095
  9
$ATTMODE
 70
     1
  9
$TEXTSIZE
 40
0.2
  9
$TRACEWID
 40
0.05
  9
$TEXTSTYLE
  7
STANDARD
  9
$CLAYER
  8
0
  9
$CELTYPE
  6
BYLAYER
  9
$CECOLOR
 62
   256
  9
$DIMSCALE
 40
1.0
  9
$DIMASZ
 40
0.1875
  9
$DIMEXO
 40
0.0625
  9
$DIMDLI
 40
0.4443307087
  9
$DIMRND
 40
0.0
  9
$DIMDLE
 40
0.0
  9
$DIMEXE
 40
0.125
  9
$DIMTP
 40
0.01
  9
$DIMTM
 40
0.01
  9
$DIMTXT
 40
2.0
  9
$DIMCEN
 40
0.1052362205
  9
$DIMTSZ
 40
0.0
  9
$DIMTOL
 70
     1
  9
$DIMLIM
 70
     0
  9
$DIMTIH
 70
     1
  9
$DIMTOH
 70
     1
  9
$DIMSE1
 70
     0
  9
$DIMSE2
 70
     0
  9
$DIMTAD
 70
     0
  9
$DIMZIN
 70
     0
  9
$DIMBLK
  1

  9
$DIMASO
 70
     1
  9
$DIMSHO
 70
     1
  9
$DIMPOST
  1
\X
  9
$DIMAPOST
  1

  9
$DIMALT
 70
     1
  9
$DIMALTD
 70
     2
  9
$DIMALTF
 40
25.3999999999999986
  9
$DIMLFAC
 40
1.0
  9
$DIMTOFL
 70
     0
  9
$DIMTVP
 40
0.0
  9
$DIMTIX
 70
     0
  9
$DIMSOXD
 70
     0
  9
$DIMSAH
 70
     0
  9
$DIMBLK1
  1

  9
$DIMBLK2
  1

  9
$DIMSTYLE
  2
STANDARD
  9
$DIMCLRD
 70
     0
  9
$DIMCLRE
 70
     0
  9
$DIMCLRT
 70
     0
  9
$DIMTFAC
 40
1.0
  9
$DIMGAP
 40
0.09
  9
$LUNITS
 70
     2
  9
$LUPREC
 70
     4
  9
$SKETCHINC
 40
0.1
  9
$FILLETRAD
 40
0.0
  9
$AUNITS
 70
     0
  9
$AUPREC
 70
     0
  9
$MENU
  1
.
  9
$ELEVATION
 40
0.0
  9
$PELEVATION
 40
0.0
  9
$THICKNESS
 40
0.0
  9
$LIMCHECK
 70
     0
  9
$BLIPMODE
 70
     0
  9
$CHAMFERA
 40
0.0
  9
$CHAMFERB
 40
0.0
  9
$SKPOLY
 70
     0
  9
$TDCREATE
 40
2458060.468368056230247
  9
$TDUPDATE
 40
2460188.6620601848699152
  9
$TDINDWG
 40
0.5199607639
  9
$TDUSRTIMER
 40
0.5199607639
  9
$USRTIMER
 70
     1
  9
$ANGBASE
 50
0.0
  9
$ANGDIR
 70
     0
  9
$PDMODE
 70
     0
  9
$PDSIZE
 40
0.3125
  9
$PLINEWID
 40
0.0
  9
$COORDS
 70
     1
  9
$SPLFRAME
 70
     0
  9
$SPLINETYPE
 70
     6
  9
$SPLINESEGS
 70
     8
  9
$ATTDIA
 70
     1
  9
$ATTREQ
 70
     1
  9
$HANDLING
 70
     1
  9
$HANDSEED
  5
248A5
  9
$SURFTAB1
 70
     6
  9
$SURFTAB2
 70
     6
  9
$SURFTYPE
 70
     6
  9
$SURFU
 70
     6
  9
$SURFV
 70
     6
  9
$UCSNAME
  2

  9
$UCSORG
 10
0.0
 20
0.0
 30
0.0
  9
$UCSXDIR
 10
1.0
 20
0.0
 30
0.0
  9
$UCSYDIR
 10
0.0
 20
1.0
 30
0.0
  9
$PUCSNAME
  2

  9
$PUCSORG
 10
0.0
 20
0.0
 30
0.0
  9
$PUCSXDIR
 10
1.0
 20
0.0
 30
0.0
  9
$PUCSYDIR
 10
0.0
 20
1.0
 30
0.0
  9
$USERI1
 70
     0
  9
$USERI2
 70
     0
  9
$USERI3
 70
     0
  9
$USERI4
 70
     0
  9
$USERI5
 70
     0
  9
$USERR1
 40
0.0
  9
$USERR2
 40
0.0
  9
$USERR3
 40
0.0
  9
$USERR4
 40
0.0
  9
$USERR5
 40
0.0
  9
$WORLDVIEW
 70
     1
  9
$SHADEDGE
 70
     3
  9
$SHADEDIF
 70
    70
  9
$TILEMODE
 70
     1
  9
$MAXACTVP
 70
    64
  9
$PLIMCHECK
 70
     0
  9
$PEXTMIN
 10
1.0000000000000000E+20
 20
1.0000000000000000E+20
 30
1.0000000000000000E+20
  9
$PEXTMAX
 10
-1.0000000000000000E+20
 20
-1.0000000000000000E+20
 30
-1.0000000000000000E+20
  9
$PLIMMIN
 10
0.0
 20
0.0
  9
$PLIMMAX
 10
12.0
 20
9.0
  9
$UNITMODE
 70
     0
  9
$VISRETAIN
 70
     1
  9
$PLINEGEN
 70
     0
  9
$PSLTSCALE
 70
     1
  0
ENDSEC
  0
SECTION
  2
TABLES
  0
TABLE
  2
VPORT
 70
     1
  0
VPORT
  2
*ACTIVE
 70
     0
 10
0.0
 20
0.0
 11
1.0
 21
1.0
 12
1189.9975386110609179
 22
159.4930019555062017
 13
0.0
 23
0.0
 14
1.0
 24
1.0
 15
0.0
 25
0.0
 16
0.0
 26
0.0
 36
60.4960186965801583
 17
3911.3653564453120453
 27
132.5796051025390057
 37
0.0
 40
31.9028486239322397
 41
2.498684210526315
 42
50.0
 43
0.0
 44
0.0
 50
0.0
 51
0.0
 71
     0
 72
   100
 73
     1
 74
     1
 75
     0
 76
     0
 77
     0
 78
     0
  0
ENDTAB
  0
TABLE
  2
LTYPE
 70
     2
  0
LTYPE
  2
CONTINUOUS
 70
     0
  3
Solid line
 72
    65
 73
     0
 40
0.0
  0
LTYPE
  2
PHANTOM2
 70
     0
  3
___ _ _ ___ _ _ ___ _ _ ___ _ _
 72
    65
 73
     6
 40
1.25
 49
0.625
 49
-0.125
 49
0.125
 49
-0.125
 49
0.125
 49
-0.125
  0
ENDTAB
  0
TABLE
  2
LAYER
 70
     2
  0
LAYER
  2
0
 70
     0
 62
   255
  6
CONTINUOUS
  0
LAYER
  2
DEFPOINTS
 70
     0
 62
     7
  6
CONTINUOUS
  0
ENDTAB
  0
TABLE
  2
STYLE
 70
     1
  0
STYLE
  2
STANDARD
 70
     0
 40
0.0
 41
0.8
 50
0.0
 71
     0
 42
0.2
  3
txt
  4

  0
ENDTAB
  0
TABLE
  2
VIEW
 70
     0
  0
ENDTAB
  0
TABLE
  2
UCS
 70
     0
  0
ENDTAB
  0
TABLE
  2
APPID
 70
    11
  0
APPID
  2
ACAD
 70
     0
  0
APPID
  2
ACAD_MLEADERVER
 70
     0
  0
APPID
  2
ACAD_EXEMPT_FROM_CAD_STANDARDS
 70
     0
  0
APPID
  2
ACAD_NAV_VCDISPLAY
 70
     0
  0
APPID
  2
ACAECLAYERSTANDARD
 70
     0
  0
APPID
  2
ACCMTRANSPARENCY
 70
     0
  0
APPID
  2
ACAD_DSTYLE_DIMJAG
 70
     0
  0
APPID
  2
ACAD_DSTYLE_DIMTALN
 70
     0
  0
APPID
  2
ACDBATTR
 70
     0
  0
APPID
  2
ACADANNOTATIVE
 70
     0
  0
APPID
  2
DCO15
 70
     0
  0
ENDTAB
  0
TABLE
  2
DIMSTYLE
 70
     1
  0
DIMSTYLE
  2
STANDARD
 70
     0
  3

  4

  5

  6

  7

 40
1.0
 41
0.1875
 42
0.0625
 43
0.38
 44
0.125
 45
0.0
 46
0.0
 47
0.01
 48
0.01
140
0.15625
141
0.09
142
0.0
143
25.3999999999999986
144
1.0
145
0.0
146
1.0
147
0.09
 71
     1
 72
     0
 73
     1
 74
     1
 75
     0
 76
     0
 77
     0
 78
     4
170
     0
171
     2
172
     0
173
     0
174
     0
175
     0
176
     0
177
     0
178
     0
  0
ENDTAB
  0
ENDSEC
  0
SECTION
  2
BLOCKS
  0
BLOCK
  8
0
  2
$MODEL_SPACE
 70
     0
 10
0.0
 20
0.0
 30
0.0
  3
$MODEL_SPACE
  1

  0
ENDBLK
  5
21
  8
0
  0
BLOCK
 67
     1
  8
0
  2
$PAPER_SPACE
 70
     0
 10
0.0
 20
0.0
 30
0.0
  3
$PAPER_SPACE
  1

  0
ENDBLK
  5
1D
 67
     1
  8
0
  0
BLOCK
  8
0
  2
_FILLED
 70
     0
 10
0.0
 20
0.0
 30
0.0
  3
_FILLED
  1

  0
SOLID
  5
23AB8
  8
0
  6
BYBLOCK
 62
     0
 10
0.0
 20
0.0
 30
0.0
 11
-1.0
 21
0.1666666667
 31
0.0
 12
-1.0
 22
-0.1666666667
 32
0.0
 13
-1.0
 23
-0.1666666667
 33
0.0
  0
ENDBLK
  5
23AB9
  8
0
  6
BYBLOCK
 62
     0
  0
ENDSEC
  0
SECTION
  2
ENTITIES
  0
ATTDEF
  5
2288E
  8
DEFPOINTS
 10
5069.8569224393741024
 20
307.8809133499428867
 30
0.0
 40
0.001
  1
K-20806T
  3

  2
MODELNUMBER
 70
     0
1001
ACDBATTR
1070
     0
1070
     1
  0
ATTDEF
  5
2288F
  8
DEFPOINTS
 10
5069.8567966297159728
 20
307.8792465095636999
 30
0.0
 40
0.001
  1
ALEUTIAN
  3

  2
TRADENAME
 70
     0
1001
ACDBATTR
1070
     0
1070
     1
  0
ATTDEF
  5
22890
  8
DEFPOINTS
 10
5069.8569224393741024
 20
307.8775800166096133
 30
0.0
 40
0.001
  1
BATH
  3

  2
PRODUCT
 70
     0
1001
ACDBATTR
1070
     0
1070
     1
  0
LINE
  5
24728
  8
0
 10
5069.8593018447290888
 20
276.5045252705997996
 30
0.0
 11
5069.8593018447290888
 21
307.6458984988997827
 31
0.0
  0
LINE
  5
24729
  8
0
 10
5070.0957018447297742
 20
276.2681252705997963
 30
0.0
 11
5129.4262380651289277
 21
276.2681252705997963
 31
0.0
  0
LINE
  5
2472A
  8
0
 10
5132.9695380651301093
 20
307.6458984988997827
 30
0.0
 11
5132.9695380651301093
 21
279.8114252705997842
 31
0.0
  0
LINE
  5
2472B
  8
0
 10
5070.0957018447297742
 20
307.882298498899786
 30
0.0
 11
5132.7331380651303334
 21
307.882298498899786
 31
0.0
  0
ARC
  5
2472C
  8
0
 10
5070.0957018447297742
 20
307.6458984988998964
 30
0.0
 40
0.2364
 50
90.0
 51
180.0000000000032117
  0
ARC
  5
2472D
  8
0
 10
5070.0957018447297742
 20
276.5045252705997996
 30
0.0
 40
0.2364
 50
179.9999999999967031
 51
270.0
  0
ARC
  5
2472E
  8
0
 10
5132.7331380651303334
 20
307.6458984988997827
 30
0.0
 40
0.2364
 50
0.0
 51
90.0
  0
ARC
  5
2472F
  8
0
 10
5129.4262380651289277
 20
279.8114252705997842
 30
0.0
 40
3.543299999999999
 50
270.0
 51
0.0
  0
LINE
  5
24730
  8
0
 10
5076.6579608480296883
 20
306.0208116382999037
 30
0.0
 11
5128.2399239047299488
 21
306.0208116382999037
 31
0.0
  0
LINE
  5
24731
  8
0
 10
5073.8127608480299386
 20
303.1756116382999267
 30
0.0
 11
5073.8127608480299386
 21
284.8363015916997938
 31
0.0
  0
LINE
  5
24732
  8
0
 10
5076.6579608480296883
 20
281.9911015916998736
 30
0.0
 11
5095.9857612498253729
 21
281.9911015916998736
 31
0.0
  0
LINE
  5
24733
  8
0
 10
5131.1024239047301307
 20
281.1325332151998282
 30
0.0
 11
5131.1024239047301307
 21
303.1583116382997787
 31
0.0
  0
LINE
  5
24734
  8
0
 10
5103.3730697227310884
 20
278.2700332151998737
 30
0.0
 11
5128.2399239047299488
 21
278.2700332151998737
 31
0.0
  0
ARC
  5
24735
  8
0
 10
5076.6579608480296883
 20
303.1756116382999267
 30
0.0
 40
2.8452000000000002
 50
90.0
 51
180.0
  0
ARC
  5
24736
  8
0
 10
5076.6579608480296883
 20
284.8363015916997938
 30
0.0
 40
2.8452000000000002
 50
180.0
 51
270.0
  0
ARC
  5
24737
  8
0
 10
5096.2354200995923748
 20
277.8446140832152764
 30
0.0
 40
4.131425994390522
 50
47.5593522052205131
 51
71.4413949680089218
  0
ARC
  5
24738
  8
0
 10
5201.4454975872304203
 20
392.9003201834170795
 30
0.0
 40
151.7755203267107902
 50
227.559352205220506
 51
228.2449876055746074
  0
ARC
  5
24739
  8
0
 10
5106.2534967648171005
 20
286.2654736433315179
 30
0.0
 40
8.8331979823402502
 50
228.2449876055746074
 51
236.7818399643504108
  0
ARC
  5
2473A
  8
0
 10
5103.4474177771580798
 20
281.9803004107722018
 30
0.0
 40
3.71101203120352
 50
236.7818399643504108
 51
268.8520342383455954
  0
ARC
  5
2473B
  8
0
 10
5096.2165908907963967
 20
277.5793946027575885
 30
0.0
 40
4.3893512709861131
 50
72.3102928911338267
 51
82.2967213273354474
  0
ARC
  5
2473C
  8
0
 10
5095.8421864949468727
 20
274.6473545415084914
 30
0.0
 40
7.3451504033228616
 50
82.4682819694730114
 51
88.8799750877381456
  0
ARC
  5
2473D
  8
0
 10
5128.2399239047299488
 20
281.1325332151998282
 30
0.0
 40
2.8624999999999989
 50
270.0
 51
0.0
  0
ARC
  5
2473E
  8
0
 10
5128.2399239047299488
 20
303.1583116382998924
 30
0.0
 40
2.8624999999999989
 50
0.0
 51
90.0
  0
LINE
  5
2473F
  8
0
 10
5074.7608766478297184
 20
301.5488255890974756
 30
0.0
 11
5074.7608766478297184
 21
286.8145952322208245
 31
0.0
  0
LINE
  5
24740
  8
0
 10
5076.6746172936900621
 20
302.8035583414999223
 30
0.0
 11
5093.0679635899696223
 21
302.8035583414999223
 31
0.0
  0
LINE
  5
24741
  8
0
 10
5093.8159946712121382
 20
302.8035583414999223
 30
0.0
 11
5099.7608862038523512
 21
302.8035583414999223
 31
0.0
  0
LINE
  5
24742
  8
0
 10
5100.5089172850930481
 20
302.8035583414999223
 30
0.0
 11
5118.3251519736031696
 21
302.8035583414999223
 31
0.0
  0
LINE
  5
24743
  8
0
 10
5076.716488278280849
 20
285.5594638532998033
 30
0.0
 11
5097.5229962398279895
 21
285.5594638532998033
 31
0.0
  0
LINE
  5
24744
  8
0
 10
5121.1585144431310255
 20
301.6034205574252951
 30
0.0
 11
5121.1585144431310255
 21
282.8022585880896145
 31
0.0
  0
LINE
  5
24745
  8
0
 10
5104.5794694742271531
 20
281.6618260542913958
 30
0.0
 11
5118.3462989076579106
 21
281.6618261687689824
 31
0.0
  0
ARC
  5
24746
  8
0
 10
5075.9401573447175906
 20
301.4938602693142116
 30
0.0
 40
1.1805609465136211
 50
145.9172014247450022
 51
177.3314213464074953
  0
ARC
  5
24747
  8
0
 10
5075.7423431748220537
 20
301.6277039371829005
 30
0.0
 40
0.9417208886495597
 50
122.7799214228796956
 51
145.9172014247450022
  0
ARC
  5
24748
  8
0
 10
5076.3504446886427104
 20
300.683388498978502
 30
0.0
 40
2.0648945608584
 50
104.6095253160821983
 51
122.7799214228796956
  0
ARC
  5
24749
  8
0
 10
5076.6844806847921063
 20
299.4018779986163281
 30
0.0
 40
3.389224281608318
 50
94.3808806775115841
 51
104.6095253160821983
  0
ARC
  5
2474A
  8
0
 10
5075.6956082213027912
 20
312.3097307764701895
 30
0.0
 40
9.5564519109974011
 50
274.3808806775115841
 51
275.87997202198369
  0
ARC
  5
2474B
  8
0
 10
5076.1596732968882861
 20
286.9078571680677214
 30
0.0
 40
1.4019022270095729
 50
183.8144347505140104
 51
199.2405126668683977
  0
ARC
  5
2474C
  8
0
 10
5075.7148162662060713
 20
286.752588778442373
 30
0.0
 40
0.9307270466731562
 50
199.2405126668683977
 51
224.3138439322727891
  0
ARC
  5
2474D
  8
0
 10
5076.0921807622062261
 20
287.1210214176959994
 30
0.0
 40
1.4581230767198661
 50
224.3138439322727891
 51
256.4268801404435862
  0
ARC
  5
2474E
  8
0
 10
5077.0817143925642085
 20
291.3201846057983175
 30
0.0
 40
5.7722866961733343
 50
256.6610160923253829
 51
266.3723384398630856
  0
ARC
  5
2474F
  8
0
 10
5096.9483073024830446
 20
280.7143516025976169
 30
0.0
 40
4.8790757420449777
 50
72.1922463367761793
 51
83.2356313961666388
  0
ARC
  5
24750
  8
0
 10
5095.5470270032737972
 20
276.8230018811551076
 30
0.0
 40
9.0136800314945837
 50
56.7816663313628567
 51
71.276399271316393
  0
ARC
  5
24751
  8
0
 10
5095.6756008782958816
 20
277.0193462060905176
 30
0.0
 40
8.7789837697596784
 50
49.1788721209830868
 51
56.7816663313628567
  0
ARC
  5
24752
  8
0
 10
5095.3379368050909761
 20
276.6284501178473079
 30
0.0
 40
9.2955268736109833
 50
39.8678701220337715
 51
49.1788721209830868
  0
ARC
  5
24753
  8
0
 10
5104.6191026242649968
 20
284.6716519595896102
 30
0.0
 40
2.9922376821479042
 50
224.1601040260478044
 51
253.530012893399487
  0
ARC
  5
24754
  8
0
 10
5104.8115534662329082
 20
285.3988140129266071
 30
0.0
 40
3.7441877600261728
 50
253.8606373732183954
 51
266.4462350764255802
  0
LINE
  5
24755
  8
0
 10
5073.938472418530182
 20
290.5115110980997883
 30
0.0
 11
5073.9384724094297781
 21
297.8515110970998876
 31
0.0
  0
ARC
  5
24756
  8
0
 10
5088.4394314069277243
 20
297.8515111150779262
 30
0.0
 40
14.5009589974980209
 50
177.3037035238828025
 51
180.0000000710342931
  0
ARC
  5
24757
  8
0
 10
5075.0714963047257697
 20
298.4810609266389747
 30
0.0
 40
1.118208089634217
 50
171.2460540481579017
 51
177.3037035238828025
  0
ARC
  5
24758
  8
0
 10
5074.0509616291419661
 20
298.638208186409372
 30
0.0
 40
0.0856451204541381
 50
149.6282497451117877
 51
171.2460540481594933
  0
LINE
  5
24759
  8
0
 10
5073.9770701847310193
 20
298.6815110820998029
 30
0.0
 11
5074.1648122613287342
 21
298.6749459719998185
 31
0.0
  0
ARC
  5
2475A
  8
0
 10
5074.1589856974896975
 20
298.5083240603956938
 30
0.0
 40
0.1667237543746599
 50
53.9986865993240102
 51
87.9972529436619055
  0
ARC
  5
2475B
  8
0
 10
5074.1073507214223355
 20
298.4372580387146741
 30
0.0
 40
0.2545676510958084
 50
21.2517234814013882
 51
53.9986865993240102
  0
ARC
  5
2475C
  8
0
 10
5073.1580506560612776
 20
298.0680625590849218
 30
0.0
 40
1.273133268163529
 50
10.3157493579602093
 51
21.2517234814013882
  0
ARC
  5
2475D
  8
0
 10
5072.7802454179245615
 20
297.9992964253497121
 30
0.0
 40
1.657145740762987
 50
0.8171876690227435
 51
10.3157493579602093
  0
ARC
  5
2475E
  8
0
 10
5084.9393115936400136
 20
298.1727282703375863
 30
0.0
 40
10.5031572517718992
 50
180.8171876690227009
 51
181.7525452691864132
  0
LINE
  5
2475F
  8
0
 10
5074.4410673698303071
 20
297.8515110965997792
 30
0.0
 11
5074.4410674720602401
 21
290.5115111050998848
 31
0.0
  0
ARC
  5
24760
  8
0
 10
5087.5563388787741133
 20
290.4833282916712278
 30
0.0
 40
13.6178956320254194
 50
179.8814238954759048
 51
182.6422970320309105
  0
ARC
  5
24761
  8
0
 10
5075.4186474684665882
 20
289.9231798541720764
 30
0.0
 40
1.4672858101335451
 50
182.6422970320309105
 51
188.6301264339001023
  0
ARC
  5
24762
  8
0
 10
5074.0055770030603526
 20
289.7063367050848228
 30
0.0
 40
0.0377494016926134
 50
185.0619572005194868
 51
221.1178906836495059
  0
LINE
  5
24763
  8
0
 10
5073.9771381859300163
 20
289.6815123015999234
 30
0.0
 11
5074.1648122634287574
 21
289.6880762230999267
 31
0.0
  0
ARC
  5
24764
  8
0
 10
5074.158924358061995
 20
289.8564218086066262
 30
0.0
 40
0.1684485191066176
 50
272.003109682288482
 51
302.9554300554135011
  0
ARC
  5
24765
  8
0
 10
5074.1232039294527567
 20
289.9115202313743112
 30
0.0
 40
0.2341127042577666
 50
302.9554300554125916
 51
339.0832745485860755
  0
ARC
  5
24766
  8
0
 10
5072.6367440245239777
 20
290.479641320870428
 30
0.0
 40
1.825440646980464
 50
339.0832745485860755
 51
344.6975926866621762
  0
ARC
  5
24767
  8
0
 10
5072.6947608209393366
 20
290.3550555359997247
 30
0.0
 40
1.7397636835160559
 50
348.1529622297783249
 51
354.8812653698291228
  0
ARC
  5
24768
  8
0
 10
5071.0256305139691904
 20
290.5031117126991944
 30
0.0
 40
3.4154472861519571
 50
354.9056577567868089
 51
0.1409040104552035
  0
LINE
  5
24769
  8
0
 10
5074.1265581189300065
 20
297.8515110936997985
 30
0.0
 11
5074.1265581278303216
 21
290.5115107280817028
 31
0.0
  0
ARC
  5
2476A
  8
0
 10
5090.6292094445270777
 20
290.51151074809178
 30
0.0
 40
16.502651316697289
 50
180.0000000694726907
 51
181.435844282568695
  0
ARC
  5
2476B
  8
0
 10
5081.7593462429022111
 20
290.2891835676467736
 30
0.0
 40
7.6300021863247034
 50
181.435844282568695
 51
183.6755582326476883
  0
ARC
  5
2476C
  8
0
 10
5074.6804489899368491
 20
289.8344441436461807
 30
0.0
 40
0.5365140273312213
 50
183.6755582326476883
 51
195.8338687613965874
  0
ARC
  5
2476D
  8
0
 10
5090.0748981092510803
 20
297.8580992877252811
 30
0.0
 40
15.9483412357979208
 50
178.3699426151700038
 51
180.0236686427541883
  0
ARC
  5
2476E
  8
0
 10
5080.9832257207472139
 20
298.1168259781640018
 30
0.0
 40
6.8529882288920172
 50
176.459940737508191
 51
178.3699426151700038
  0
ARC
  5
2476F
  8
0
 10
5074.8613243785675877
 20
298.4955539261671902
 30
0.0
 40
0.7193831794970617
 50
165.5593967442667065
 51
176.459940737508191
  0
LINE
  5
24770
  8
0
 10
5093.0679749010896558
 20
303.636544633434994
 30
0.0
 11
5093.0679634307298329
 21
302.7918314502999237
 31
0.0
  0
ARC
  5
24771
  8
0
 10
5094.4212026712839361
 20
302.791813074664617
 30
0.0
 40
1.3532392406791891
 50
179.9992219806271976
 51
270.2128976440762926
  0
LINE
  5
24772
  8
0
 10
5093.8159831170551115
 20
303.6365446329830888
 30
0.0
 11
5093.815994833988043
 21
302.7918231630123955
 31
0.0
  0
ARC
  5
24773
  8
0
 10
5094.4212552621620489
 20
302.7918315584371953
 30
0.0
 40
0.6052604282322084
 50
180.0007947362508958
 51
270.4710216394061035
  0
LINE
  5
24774
  8
0
 10
5094.4262309785299294
 20
302.1865915826999185
 30
0.0
 11
5099.160601329266683
 21
302.1865915826999185
 31
0.0
  0
LINE
  5
24775
  8
0
 10
5094.4262309785299294
 20
301.4385831759997814
 30
0.0
 11
5099.1607065110238182
 21
301.4385831759997814
 31
0.0
  0
ARC
  5
24776
  8
0
 10
5093.4411988840402046
 20
299.614790981767328
 30
0.0
 40
4.0432365640821457
 50
89.9889450129146127
 51
92.7198832289997057
  0
ARC
  5
24777
  8
0
 10
5093.3459035069818128
 20
301.6207303811646057
 30
0.0
 40
2.0350348603325972
 50
92.7198832289997057
 51
97.546015394105865
  0
ARC
  5
24778
  8
0
 10
5093.1212459221587778
 20
303.3166481136071866
 30
0.0
 40
0.3243016883764219
 50
97.546015394105865
 51
106.322007347462602
  0
ARC
  5
24779
  8
0
 10
5093.0509996073824368
 20
303.5565297043854116
 30
0.0
 40
0.0743462476793287
 50
106.322007347462602
 51
120.3380697722529931
  0
ARC
  5
2477A
  8
0
 10
5093.0188920164318915
 20
303.6113915463462831
 30
0.0
 40
0.010779596831459
 50
120.3380697722554942
 51
149.7479929577312134
  0
ARC
  5
2477B
  8
0
 10
5093.0138957882591058
 20
303.6143054950421174
 30
0.0
 40
0.0049957060165662
 50
149.7479929577214079
 51
228.5144869182095988
  0
ARC
  5
2477C
  8
0
 10
5093.0340155142803269
 20
303.6370582980727022
 30
0.0
 40
0.0353682828077018
 50
228.5144869182107072
 51
246.2747391691351027
  0
ARC
  5
2477D
  8
0
 10
5093.0591639649373974
 20
303.6942795092933238
 30
0.0
 40
0.0978719753704755
 50
246.2747391691351027
 51
256.6903766192579042
  0
ARC
  5
2477E
  8
0
 10
5093.1928187602115941
 20
304.2592552067238785
 30
0.0
 40
0.6784416464584752
 50
256.6903766192579042
 51
259.3915096857368781
  0
ARC
  5
2477F
  8
0
 10
5093.4290462710087013
 20
300.0363443753437878
 30
0.0
 40
3.6648399913192029
 50
89.8077259861748871
 51
95.1743245412513659
  0
ARC
  5
24780
  8
0
 10
5093.1656476942271183
 20
302.9449407764324746
 30
0.0
 40
0.7443414321315489
 50
95.1735798686106449
 51
102.1367729350956068
  0
ARC
  5
24781
  8
0
 10
5093.0448410487606452
 20
303.5066941353168772
 30
0.0
 40
0.1697449808663783
 50
102.1367729350956068
 51
112.1823246701963939
  0
ARC
  5
24782
  8
0
 10
5092.9922950689915524
 20
303.6355677587509945
 30
0.0
 40
0.0305706628085178
 50
112.1823246701963939
 51
131.1659694520832034
  0
ARC
  5
24783
  8
0
 10
5092.9773453983307263
 20
303.6526651090973132
 30
0.0
 40
0.0078591670030284
 50
131.1659694520843118
 51
173.4159168779962954
  0
ARC
  5
24784
  8
0
 10
5092.9731658917244204
 20
303.6531475179301083
 30
0.0
 40
0.0036519121069346
 50
173.415916878035091
 51
217.5206187567094958
  0
ARC
  5
24785
  8
0
 10
5094.4658963546917221
 20
305.1048019641062865
 30
0.0
 40
2.085824287503788
 50
224.1890705364041878
 51
225.7412632090077977
  0
ARC
  5
24786
  8
0
 10
5093.4359917409237823
 20
299.7571904960857978
 30
0.0
 40
4.0614662002043671
 50
90.1607582332090089
 51
93.8893863518382119
  0
ARC
  5
24787
  8
0
 10
5093.2565939138803515
 20
302.3923071743063815
 30
0.0
 40
1.420249942734628
 50
93.8795658083047755
 51
99.1977712248299639
  0
ARC
  5
24788
  8
0
 10
5093.0728664843209117
 20
303.5269542411439261
 30
0.0
 40
0.2708241144814635
 50
99.1977712248299639
 51
109.0586118208348978
  0
ARC
  5
24789
  8
0
 10
5092.998011476694046
 20
303.743628671859426
 30
0.0
 40
0.0415838887515265
 50
109.0586118208348978
 51
126.2429053867708006
  0
ARC
  5
2478A
  8
0
 10
5092.9793331338823918
 20
303.7691093330569174
 30
0.0
 40
0.0099904624535008
 50
126.2429053867171973
 51
168.6496146560633065
  0
LINE
  5
2478B
  8
0
 10
5092.9695380652301537
 20
303.7710755400997868
 30
0.0
 11
5092.9695139796176591
 21
303.6531475179301083
 31
0.0
  0
ARC
  5
2478C
  8
0
 10
5093.4427591313924495
 20
299.614790981767328
 30
0.0
 40
4.0432365640821457
 50
87.2801167710003085
 51
90.0110549870853731
  0
ARC
  5
2478D
  8
0
 10
5093.5380545084490223
 20
301.6207303811646057
 30
0.0
 40
2.0350348603325972
 50
82.4539846058941635
 51
87.2801167710003085
  0
ARC
  5
2478E
  8
0
 10
5093.7627120932711478
 20
303.3166481136071866
 30
0.0
 40
0.3243016883764219
 50
73.677992652537327
 51
82.4539846058941635
  0
ARC
  5
2478F
  8
0
 10
5093.8329584080483983
 20
303.5565297043854116
 30
0.0
 40
0.0743462476793287
 50
59.6619302277469217
 51
73.677992652537327
  0
ARC
  5
24790
  8
0
 10
5093.8650659990007625
 20
303.6113915463462831
 30
0.0
 40
0.010779596831459
 50
30.2520070422687297
 51
59.661930227744449
  0
ARC
  5
24791
  8
0
 10
5093.8700622271717293
 20
303.6143054950421174
 30
0.0
 40
0.0049957060165662
 50
311.4855130817903159
 51
30.2520070422785814
  0
ARC
  5
24792
  8
0
 10
5093.8499425011514177
 20
303.6370582980727022
 30
0.0
 40
0.0353682828077018
 50
293.7252608308648973
 51
311.4855130817892928
  0
ARC
  5
24793
  8
0
 10
5093.8247940504943472
 20
303.6942795092933238
 30
0.0
 40
0.0978719753704755
 50
283.3096233807422095
 51
293.7252608308648973
  0
ARC
  5
24794
  8
0
 10
5093.691139255219241
 20
304.2592552067238785
 30
0.0
 40
0.6784416464584752
 50
280.6037990677355083
 51
283.3096233807422095
  0
ARC
  5
24795
  8
0
 10
5093.454776364735153
 20
300.0343209388620949
 30
0.0
 40
3.666867391823124
 50
84.8264201313893551
 51
90.2098726905369546
  0
ARC
  5
24796
  8
0
 10
5093.7183103212064452
 20
302.9449407764324746
 30
0.0
 40
0.7443414321315489
 50
77.8632270649044216
 51
84.8264201313893551
  0
ARC
  5
24797
  8
0
 10
5093.8391169666710994
 20
303.5066941353168772
 30
0.0
 40
0.1697449808663783
 50
67.8176753298035351
 51
77.8632270649044216
  0
ARC
  5
24798
  8
0
 10
5093.8916629464401922
 20
303.6355677587509945
 30
0.0
 40
0.0305706628085178
 50
48.8340305479167824
 51
67.8176753298035351
  0
ARC
  5
24799
  8
0
 10
5093.9066126171001088
 20
303.6526651090973132
 30
0.0
 40
0.0078591670030284
 50
6.584083122003709
 51
48.8340305479157024
  0
ARC
  5
2479A
  8
0
 10
5093.9107921237082337
 20
303.6531475179301083
 30
0.0
 40
0.0036519121069346
 50
322.4793812432891968
 51
6.5840831219648841
  0
ARC
  5
2479B
  8
0
 10
5092.4180616607400225
 20
305.1048019641062865
 30
0.0
 40
2.085824287503788
 50
314.2587367909922023
 51
315.8109294635959259
  0
ARC
  5
2479C
  8
0
 10
5093.4460785382398171
 20
299.7190650251004058
 30
0.0
 40
4.099631969202095
 50
86.1204341916952245
 51
90.3002342237327156
  0
ARC
  5
2479D
  8
0
 10
5093.6273641015495741
 20
302.3923071743063815
 30
0.0
 40
1.420249942734628
 50
80.8022287751700361
 51
86.1204341916952245
  0
ARC
  5
2479E
  8
0
 10
5093.8110915311108329
 20
303.5269542411439261
 30
0.0
 40
0.2708241144814635
 50
70.9413881791650738
 51
80.8022287751700361
  0
ARC
  5
2479F
  8
0
 10
5093.8859465387376986
 20
303.743628671859426
 30
0.0
 40
0.0415838887515265
 50
53.7570946132292207
 51
70.9413881791650738
  0
ARC
  5
247A0
  8
0
 10
5093.9046248815493527
 20
303.7691093330569174
 30
0.0
 40
0.0099904624535008
 50
11.3503853439366402
 51
53.7570946132827885
  0
LINE
  5
247A1
  8
0
 10
5093.9144199502015908
 20
303.7710755400997868
 30
0.0
 11
5093.9144440358140855
 21
303.6531475179301083
 31
0.0
  0
LINE
  5
247A2
  8
0
 10
5100.5089059739730146
 20
303.636544633434994
 30
0.0
 11
5100.5089174443328375
 21
302.7918314502999237
 31
0.0
  0
ARC
  5
247A3
  8
0
 10
5099.1556782037787343
 20
302.791813074664617
 30
0.0
 40
1.3532392406791891
 50
269.7871023559237074
 51
0.0007780193727797
  0
LINE
  5
247A4
  8
0
 10
5099.7608977580075589
 20
303.6365446329830888
 30
0.0
 11
5099.7608860410746274
 21
302.7918231630123955
 31
0.0
  0
ARC
  5
247A5
  8
0
 10
5099.1556256129006215
 20
302.7918315584371953
 30
0.0
 40
0.6052604282322084
 50
269.5289783605938965
 51
359.9992052637491042
  0
ARC
  5
247A6
  8
0
 10
5100.1356819910233753
 20
299.614790981767328
 30
0.0
 40
4.0432365640821457
 50
87.2801167710003085
 51
90.0110549870853731
  0
ARC
  5
247A7
  8
0
 10
5100.2309773680808576
 20
301.6207303811646057
 30
0.0
 40
2.0350348603325972
 50
82.4539846058941635
 51
87.2801167710003085
  0
ARC
  5
247A8
  8
0
 10
5100.4556349529029831
 20
303.3166481136071866
 30
0.0
 40
0.3243016883764219
 50
73.677992652537327
 51
82.4539846058941635
  0
ARC
  5
247A9
  8
0
 10
5100.5258812676802336
 20
303.5565297043854116
 30
0.0
 40
0.0743462476793287
 50
59.6619302277469217
 51
73.677992652537327
  0
ARC
  5
247AA
  8
0
 10
5100.5579888586307789
 20
303.6113915463463968
 30
0.0
 40
0.010779596831459
 50
30.2520070422687297
 51
59.661930227744449
  0
ARC
  5
247AB
  8
0
 10
5100.5629850868035646
 20
303.6143054950421174
 30
0.0
 40
0.0049957060165662
 50
311.4855130817892928
 51
30.2520070422785814
  0
ARC
  5
247AC
  8
0
 10
5100.5428653607823435
 20
303.6370582980727022
 30
0.0
 40
0.0353682828077018
 50
293.7252608308648973
 51
311.4855130817892928
  0
ARC
  5
247AD
  8
0
 10
5100.517716910125273
 20
303.6942795092933238
 30
0.0
 40
0.0978719753704755
 50
283.3096233807422095
 51
293.7252608308648973
  0
ARC
  5
247AE
  8
0
 10
5100.3840621148510763
 20
304.2592552067238785
 30
0.0
 40
0.6784416464584752
 50
280.6084903142631788
 51
283.3096233807422095
  0
ARC
  5
247AF
  8
0
 10
5100.1478346040530596
 20
300.0363443753437878
 30
0.0
 40
3.6648399913192029
 50
84.8256754587486341
 51
90.1922740138251271
  0
ARC
  5
247B0
  8
0
 10
5100.411233180835552
 20
302.9449407764324746
 30
0.0
 40
0.7443414321315489
 50
77.8632270649044216
 51
84.8264201313893551
  0
ARC
  5
247B1
  8
0
 10
5100.5320398263020252
 20
303.5066941353168772
 30
0.0
 40
0.1697449808663783
 50
67.8176753298035351
 51
77.8632270649044216
  0
ARC
  5
247B2
  8
0
 10
5100.584585806071118
 20
303.6355677587509945
 30
0.0
 40
0.0305706628085178
 50
48.8340305479167824
 51
67.8176753298035351
  0
ARC
  5
247B3
  8
0
 10
5100.5995354767319441
 20
303.6526651090973132
 30
0.0
 40
0.0078591670030284
 50
6.584083122003709
 51
48.8340305479157024
  0
ARC
  5
247B4
  8
0
 10
5100.60371498333825
 20
303.6531475179301083
 30
0.0
 40
0.0036519121069346
 50
322.4793812432891968
 51
6.5840831219648841
  0
ARC
  5
247B5
  8
0
 10
5099.1109845203709483
 20
305.1048019641062865
 30
0.0
 40
2.085824287503788
 50
314.2587367909922023
 51
315.8109294635959259
  0
ARC
  5
247B6
  8
0
 10
5100.140889134138888
 20
299.7571904960857978
 30
0.0
 40
4.0614662002043671
 50
86.1106136481617739
 51
89.8392417667910053
  0
ARC
  5
247B7
  8
0
 10
5100.3202869611823189
 20
302.3923071743063815
 30
0.0
 40
1.420249942734628
 50
80.8022287751700361
 51
86.1204341916952245
  0
ARC
  5
247B8
  8
0
 10
5100.5040143907426682
 20
303.5269542411439261
 30
0.0
 40
0.2708241144814635
 50
70.9413881791650738
 51
80.8022287751700361
  0
ARC
  5
247B9
  8
0
 10
5100.5788693983686244
 20
303.743628671859426
 30
0.0
 40
0.0415838887515265
 50
53.7570946132292207
 51
70.9413881791650738
  0
ARC
  5
247BA
  8
0
 10
5100.5975477411802785
 20
303.7691093330569174
 30
0.0
 40
0.0099904624535008
 50
11.3503853439366402
 51
53.7570946132827885
  0
LINE
  5
247BB
  8
0
 10
5100.6073428098334261
 20
303.7710755400999005
 30
0.0
 11
5100.6073668954450113
 21
303.6531475179301083
 31
0.0
  0
ARC
  5
247BC
  8
0
 10
5100.1341217436711304
 20
299.614790981767328
 30
0.0
 40
4.0432365640821457
 50
89.9889450129146127
 51
92.7198832289997057
  0
ARC
  5
247BD
  8
0
 10
5100.0388263666127386
 20
301.6207303811646057
 30
0.0
 40
2.0350348603325972
 50
92.7198832289997057
 51
97.546015394105865
  0
ARC
  5
247BE
  8
0
 10
5099.8141687817906131
 20
303.3166481136071866
 30
0.0
 40
0.3243016883764219
 50
97.546015394105865
 51
106.322007347462602
  0
ARC
  5
247BF
  8
0
 10
5099.7439224670142721
 20
303.5565297043854116
 30
0.0
 40
0.0743462476793287
 50
106.322007347462602
 51
120.3380697722529931
  0
ARC
  5
247C0
  8
0
 10
5099.7118148760637268
 20
303.6113915463463968
 30
0.0
 40
0.010779596831459
 50
120.3380697722554942
 51
149.7479929577312134
  0
ARC
  5
247C1
  8
0
 10
5099.7068186478900316
 20
303.6143054950421174
 30
0.0
 40
0.0049957060165662
 50
149.7479929577214079
 51
228.5144869182095988
  0
ARC
  5
247C2
  8
0
 10
5099.7269383739121622
 20
303.6370582980727022
 30
0.0
 40
0.0353682828077018
 50
228.5144869182107072
 51
246.2747391691351027
  0
ARC
  5
247C3
  8
0
 10
5099.7520868245692327
 20
303.6942795092933238
 30
0.0
 40
0.0978719753704755
 50
246.2747391691351027
 51
256.6903766192579042
  0
ARC
  5
247C4
  8
0
 10
5099.8857416198434294
 20
304.2592552067238785
 30
0.0
 40
0.6784416464584752
 50
256.6903766192579042
 51
259.3962009322644917
  0
ARC
  5
247C5
  8
0
 10
5100.1221045103284268
 20
300.0343209388620949
 30
0.0
 40
3.666867391823124
 50
89.7901273094630312
 51
95.1735798686106449
  0
ARC
  5
247C6
  8
0
 10
5099.8585705538571347
 20
302.9449407764324746
 30
0.0
 40
0.7443414321315489
 50
95.1735798686106449
 51
102.1367729350956068
  0
ARC
  5
247C7
  8
0
 10
5099.7377639083906615
 20
303.5066941353168772
 30
0.0
 40
0.1697449808663783
 50
102.1367729350956068
 51
112.1823246701963939
  0
ARC
  5
247C8
  8
0
 10
5099.6852179286233877
 20
303.6355677587509945
 30
0.0
 40
0.0305706628085178
 50
112.1823246701963939
 51
131.1659694520832034
  0
ARC
  5
247C9
  8
0
 10
5099.6702682579625616
 20
303.6526651090973132
 30
0.0
 40
0.0078591670030284
 50
131.1659694520843118
 51
173.4159168779962954
  0
ARC
  5
247CA
  8
0
 10
5099.6660887513553462
 20
303.6531475179301083
 30
0.0
 40
0.0036519121069346
 50
173.415916878035091
 51
217.5206187567094958
  0
ARC
  5
247CB
  8
0
 10
5101.1588192143217384
 20
305.1048019641062865
 30
0.0
 40
2.085824287503788
 50
224.1890705364041878
 51
225.7412632090077977
  0
ARC
  5
247CC
  8
0
 10
5100.1308023368228532
 20
299.7190650251004058
 30
0.0
 40
4.099631969202095
 50
89.6997657762672702
 51
93.8795658083047755
  0
ARC
  5
247CD
  8
0
 10
5099.9495167735121868
 20
302.3923071743063815
 30
0.0
 40
1.420249942734628
 50
93.8795658083047755
 51
99.1977712248299639
  0
ARC
  5
247CE
  8
0
 10
5099.765789343950928
 20
303.5269542411439261
 30
0.0
 40
0.2708241144814635
 50
99.1977712248299639
 51
109.0586118208348978
  0
ARC
  5
247CF
  8
0
 10
5099.6909343363249718
 20
303.743628671859426
 30
0.0
 40
0.0415838887515265
 50
109.0586118208348978
 51
126.2429053867708006
  0
ARC
  5
247D0
  8
0
 10
5099.6722559935142272
 20
303.7691093330569174
 30
0.0
 40
0.0099904624535008
 50
126.2429053867171973
 51
168.6496146560633065
  0
LINE
  5
247D1
  8
0
 10
5099.6624609248610795
 20
303.7710755400999005
 30
0.0
 11
5099.6624368392485849
 21
303.6531475179301083
 31
0.0
  0
ARC
  5
247D2
  8
0
 10
5117.860858564402406
 20
285.9411916198779977
 30
0.0
 40
16.86875750683161
 50
86.3904532356254151
 51
88.4227995021588669
  0
ARC
  5
247D3
  8
0
 10
5118.4823303621678861
 20
295.7930079916318959
 30
0.0
 40
6.9973587701693187
 50
78.8427056288574164
 51
86.3904532356254151
  0
ARC
  5
247D4
  8
0
 10
5119.2140910588932456
 20
299.5031812372197919
 30
0.0
 40
3.2157110830429541
 50
67.8265776372297182
 51
78.8427056288574164
  0
ARC
  5
247D5
  8
0
 10
5119.8141278708899335
 20
300.9754784176552107
 30
0.0
 40
1.625835879365382
 50
49.9730452685444604
 51
67.8265776372297182
  0
ARC
  5
247D6
  8
0
 10
5120.3224492159606598
 20
301.5806937481598879
 30
0.0
 40
0.8354712887283838
 50
21.8696345906679106
 51
49.9730452685444604
  0
ARC
  5
247D7
  8
0
 10
5120.308746314209202
 20
301.5751936509806796
 30
0.0
 40
0.8502368088816957
 50
1.902505071544204
 51
21.8696345906679106
  0
ARC
  5
247D8
  8
0
 10
5116.9979319850999673
 20
318.7568030533630008
 30
0.0
 40
37.1194747191607775
 50
272.0817302649051044
 51
272.9191777069469822
  0
ARC
  5
247D9
  8
0
 10
5118.5548324366109227
 20
288.225388157949908
 30
0.0
 40
6.5483897771477411
 50
272.9191777069469822
 51
280.976051664937188
  0
ARC
  5
247DA
  8
0
 10
5119.1404708617974393
 20
285.2058018248250164
 30
0.0
 40
3.4725364015381901
 50
280.976051664937188
 51
293.4494443793917071
  0
ARC
  5
247DB
  8
0
 10
5120.0200087998528033
 20
283.1781122029448738
 30
0.0
 40
1.2623074117816619
 50
293.4494443793917071
 51
317.2373307976898786
  0
ARC
  5
247DC
  8
0
 10
5120.3543034301474108
 20
282.868956314652678
 30
0.0
 40
0.8069720813826139
 50
317.2373307976898786
 51
355.258990072736708
  0
CIRCLE
  5
247DD
  8
0
 10
5089.0325301911288989
 20
294.1815110973997776
 30
0.0
 40
1.2733521948999991
  0
CIRCLE
  5
247DE
  8
0
 10
5089.0325301911288989
 20
294.1815110973997776
 30
0.0
 40
1.723295505999999
  0
ENDSEC
  0
EOF
