  0
SECTION
  2
HEADER
  9
$ACADVER
  1
AC1009
  9
$INSBASE
 10
609.0667633511708345
 20
70.6107166499083263
 30
0.0
  9
$EXTMIN
 10
545.9246568630317142
 20
70.6056357680788551
 30
-0.0000000000112498
  9
$EXTMAX
 10
609.0789690986709957
 20
95.7191764629739055
 30
0.0000000000002956
  9
$LIMMIN
 10
0.0
 20
0.0
  9
$LIMMAX
 10
22.0
 20
17.0
  9
$ORTHOMODE
 70
     0
  9
$REGENMODE
 70
     1
  9
$FILLMODE
 70
     1
  9
$QTEXTMODE
 70
     0
  9
$MIRRTEXT
 70
     0
  9
$DRAGMODE
 70
     2
  9
$LTSCALE
 40
1.2099999999999991
  9
$OSMODE
 70
  4095
  9
$ATTMODE
 70
     1
  9
$TEXTSIZE
 40
0.2
  9
$TRACEWID
 40
0.05
  9
$TEXTSTYLE
  7
STANDARD
  9
$CLAYER
  8
0
  9
$CELTYPE
  6
BYLAYER
  9
$CECOLOR
 62
   256
  9
$DIMSCALE
 40
1.0
  9
$DIMASZ
 40
0.1875
  9
$DIMEXO
 40
0.0625
  9
$DIMDLI
 40
0.38
  9
$DIMRND
 40
0.0
  9
$DIMDLE
 40
0.0
  9
$DIMEXE
 40
0.125
  9
$DIMTP
 40
1.5
  9
$DIMTM
 40
1.5
  9
$DIMTXT
 40
1.5
  9
$DIMCEN
 40
0.09
  9
$DIMTSZ
 40
0.0
  9
$DIMTOL
 70
     0
  9
$DIMLIM
 70
     0
  9
$DIMTIH
 70
     1
  9
$DIMTOH
 70
     1
  9
$DIMSE1
 70
     0
  9
$DIMSE2
 70
     0
  9
$DIMTAD
 70
     0
  9
$DIMZIN
 70
     4
  9
$DIMBLK
  1

  9
$DIMASO
 70
     1
  9
$DIMSHO
 70
     1
  9
$DIMPOST
  1

  9
$DIMAPOST
  1

  9
$DIMALT
 70
     0
  9
$DIMALTD
 70
     2
  9
$DIMALTF
 40
25.3999999999999986
  9
$DIMLFAC
 40
1.0
  9
$DIMTOFL
 70
     0
  9
$DIMTVP
 40
0.0
  9
$DIMTIX
 70
     0
  9
$DIMSOXD
 70
     0
  9
$DIMSAH
 70
     0
  9
$DIMBLK1
  1

  9
$DIMBLK2
  1

  9
$DIMSTYLE
  2
STANDARD
  9
$DIMCLRD
 70
     0
  9
$DIMCLRE
 70
     0
  9
$DIMCLRT
 70
     0
  9
$DIMTFAC
 40
1.0
  9
$DIMGAP
 40
0.09
  9
$LUNITS
 70
     2
  9
$LUPREC
 70
     4
  9
$SKETCHINC
 40
0.1
  9
$FILLETRAD
 40
0.0
  9
$AUNITS
 70
     0
  9
$AUPREC
 70
     0
  9
$MENU
  1
.
  9
$ELEVATION
 40
0.0
  9
$PELEVATION
 40
0.0
  9
$THICKNESS
 40
0.0
  9
$LIMCHECK
 70
     0
  9
$BLIPMODE
 70
     0
  9
$CHAMFERA
 40
0.0
  9
$CHAMFERB
 40
0.0
  9
$SKPOLY
 70
     0
  9
$TDCREATE
 40
2457827.4934837957844138
  9
$TDUPDATE
 40
2460189.6937847221270204
  9
$TDINDWG
 40
0.428809838
  9
$TDUSRTIMER
 40
0.428809838
  9
$USRTIMER
 70
     1
  9
$ANGBASE
 50
0.0
  9
$ANGDIR
 70
     0
  9
$PDMODE
 70
     0
  9
$PDSIZE
 40
0.3125
  9
$PLINEWID
 40
0.0
  9
$COORDS
 70
     1
  9
$SPLFRAME
 70
     0
  9
$SPLINETYPE
 70
     6
  9
$SPLINESEGS
 70
     8
  9
$ATTDIA
 70
     1
  9
$ATTREQ
 70
     1
  9
$HANDLING
 70
     1
  9
$HANDSEED
  5
9660
  9
$SURFTAB1
 70
     6
  9
$SURFTAB2
 70
     6
  9
$SURFTYPE
 70
     6
  9
$SURFU
 70
     6
  9
$SURFV
 70
     6
  9
$UCSNAME
  2

  9
$UCSORG
 10
0.0
 20
0.0
 30
0.0
  9
$UCSXDIR
 10
1.0
 20
0.0
 30
0.0
  9
$UCSYDIR
 10
0.0
 20
1.0
 30
0.0
  9
$PUCSNAME
  2

  9
$PUCSORG
 10
0.0
 20
0.0
 30
0.0
  9
$PUCSXDIR
 10
1.0
 20
0.0
 30
0.0
  9
$PUCSYDIR
 10
0.0
 20
1.0
 30
0.0
  9
$USERI1
 70
     0
  9
$USERI2
 70
     0
  9
$USERI3
 70
     0
  9
$USERI4
 70
     0
  9
$USERI5
 70
     0
  9
$USERR1
 40
0.0
  9
$USERR2
 40
0.0
  9
$USERR3
 40
0.0
  9
$USERR4
 40
0.0
  9
$USERR5
 40
0.0
  9
$WORLDVIEW
 70
     1
  9
$SHADEDGE
 70
     3
  9
$SHADEDIF
 70
    70
  9
$TILEMODE
 70
     1
  9
$MAXACTVP
 70
    48
  9
$PLIMCHECK
 70
     0
  9
$PEXTMIN
 10
1.0000000000000000E+20
 20
1.0000000000000000E+20
 30
1.0000000000000000E+20
  9
$PEXTMAX
 10
-1.0000000000000000E+20
 20
-1.0000000000000000E+20
 30
-1.0000000000000000E+20
  9
$PLIMMIN
 10
0.0
 20
0.0
  9
$PLIMMAX
 10
12.0
 20
9.0
  9
$UNITMODE
 70
     0
  9
$VISRETAIN
 70
     1
  9
$PLINEGEN
 70
     0
  9
$PSLTSCALE
 70
     1
  0
ENDSEC
  0
SECTION
  2
TABLES
  0
TABLE
  2
VPORT
 70
     1
  0
VPORT
  2
*ACTIVE
 70
     0
 10
0.0
 20
0.0
 11
1.0
 21
1.0
 12
366.5228853685467243
 22
75.959956929965827
 13
0.0
 23
0.0
 14
1.0
 24
1.0
 15
0.0
 25
0.0
 16
-0.0000000000000284
 26
0.0
 36
157.2215818301446859
 17
210.9789276123046875
 27
7.2024491855605604
 37
0.0
 40
25.8985080708287789
 41
2.4474358974358972
 42
50.0
 43
0.0
 44
0.0
 50
0.0
 51
0.0
 71
     0
 72
   100
 73
     1
 74
     1
 75
     0
 76
     0
 77
     0
 78
     0
  0
ENDTAB
  0
TABLE
  2
LTYPE
 70
     2
  0
LTYPE
  2
CONTINUOUS
 70
     0
  3
Solid line
 72
    65
 73
     0
 40
0.0
  0
LTYPE
  2
PHANTOM2
 70
     0
  3
___ _ _ ___ _ _ ___ _ _ ___ _ _
 72
    65
 73
     6
 40
1.25
 49
0.625
 49
-0.125
 49
0.125
 49
-0.125
 49
0.125
 49
-0.125
  0
ENDTAB
  0
TABLE
  2
LAYER
 70
     2
  0
LAYER
  2
0
 70
     0
 62
     7
  6
CONTINUOUS
  0
LAYER
  2
DEFPOINTS
 70
     0
 62
     7
  6
CONTINUOUS
  0
ENDTAB
  0
TABLE
  2
STYLE
 70
     1
  0
STYLE
  2
STANDARD
 70
     0
 40
0.0
 41
0.8
 50
0.0
 71
     0
 42
0.2
  3
txt
  4

  0
ENDTAB
  0
TABLE
  2
VIEW
 70
     0
  0
ENDTAB
  0
TABLE
  2
UCS
 70
     0
  0
ENDTAB
  0
TABLE
  2
APPID
 70
     9
  0
APPID
  2
ACAD
 70
     0
  0
APPID
  2
ACAD_MLEADERVER
 70
     0
  0
APPID
  2
ACAD_EXEMPT_FROM_CAD_STANDARDS
 70
     0
  0
APPID
  2
ACAD_NAV_VCDISPLAY
 70
     0
  0
APPID
  2
ACADANNOMONITORALERTICONDI
 70
     0
  0
APPID
  2
ACAD_DSTYLE_DIMJAG
 70
     0
  0
APPID
  2
ACAD_DSTYLE_DIMTALN
 70
     0
  0
APPID
  2
ACDBATTR
 70
     0
  0
APPID
  2
DCO15
 70
     0
  0
ENDTAB
  0
TABLE
  2
DIMSTYLE
 70
     1
  0
DIMSTYLE
  2
STANDARD
 70
     0
  3

  4

  5

  6

  7

 40
1.0
 41
0.1875
 42
0.0625
 43
0.38
 44
0.125
 45
0.0
 46
0.0
 47
1.5
 48
1.5
140
1.5
141
0.09
142
0.0
143
25.3999999999999986
144
1.0
145
0.0
146
1.0
147
0.09
 71
     0
 72
     0
 73
     1
 74
     1
 75
     0
 76
     0
 77
     0
 78
     4
170
     0
171
     2
172
     0
173
     0
174
     0
175
     0
176
     0
177
     0
178
     0
  0
ENDTAB
  0
ENDSEC
  0
SECTION
  2
BLOCKS
  0
BLOCK
  8
0
  2
$MODEL_SPACE
 70
     0
 10
0.0
 20
0.0
 30
0.0
  3
$MODEL_SPACE
  1

  0
ENDBLK
  5
21
  8
0
  0
BLOCK
 67
     1
  8
0
  2
$PAPER_SPACE
 70
     0
 10
0.0
 20
0.0
 30
0.0
  3
$PAPER_SPACE
  1

  0
ENDBLK
  5
1D
 67
     1
  8
0
  0
BLOCK
  8
0
  2
_FILLED
 70
     0
 10
0.0
 20
0.0
 30
0.0
  3
_FILLED
  1

  0
SOLID
  5
8FA2
  8
0
  6
BYBLOCK
 62
     0
 10
0.0
 20
0.0
 30
0.0
 11
-1.0
 21
0.1666666667
 31
0.0
 12
-1.0
 22
-0.1666666667
 32
0.0
 13
-1.0
 23
-0.1666666667
 33
0.0
  0
ENDBLK
  5
8FA3
  8
0
  6
BYBLOCK
 62
     0
  0
ENDSEC
  0
SECTION
  2
ENTITIES
  0
ATTDEF
  5
4EF9
  8
DEFPOINTS
 10
609.0658942626982935
 20
70.6150908086743243
 30
0.0
 40
0.001
  1
K-20807T
  3

  2
MODELNUMBER
 70
     0
1001
ACDBATTR
1070
     0
1070
     1
  0
ATTDEF
  5
4EFA
  8
DEFPOINTS
 10
609.0658942626982935
 20
70.6134241420076449
 30
0.0
 40
0.001
  1
ALEUTIAN
  3

  2
TRADENAME
 70
     0
1001
ACDBATTR
1070
     0
1070
     1
  0
ATTDEF
  5
4EFB
  8
DEFPOINTS
 10
609.0658942626982935
 20
70.6117574753409656
 30
0.0
 40
0.001
  1
BATH
  3

  2
PRODUCT
 70
     0
1001
ACDBATTR
1070
     0
1070
     1
  0
LINE
  5
9441
  8
0
 10
608.7799040645396644
 20
95.7137884316203156
 30
0.0
 11
546.3488766698935706
 21
95.7137884316203156
 31
0.0
  0
LINE
  5
9442
  8
0
 10
609.0667632241927549
 20
94.0310227916787369
 30
0.0
 11
546.074637493948785
 21
94.0310227916787369
 31
0.0
  0
LINE
  5
9443
  8
0
 10
608.8895633511707501
 20
70.6845624626051006
 30
0.0
 11
546.1337271307708079
 21
70.6845624626051006
 31
0.0
  0
ARC
  5
9444
  8
0
 10
546.1337271307708079
 20
70.8617624626051281
 30
0.0
 40
0.1772
 50
180.0
 51
270.0
  0
LINE
  5
9445
  8
0
 10
609.0667633511708345
 20
93.8538227916787662
 30
0.0
 11
609.0667633511708345
 21
70.8617624626051281
 31
0.0
  0
ARC
  5
9446
  8
0
 10
608.8895633511707501
 20
93.8538227916787662
 30
0.0
 40
0.1772
 50
0.0
 51
90.0
  0
ARC
  5
9447
  8
0
 10
608.8895633511707501
 20
70.8617624626051281
 30
0.0
 40
0.1772
 50
270.0
 51
0.0
  0
LINE
  5
9448
  8
0
 10
609.0667632241927549
 20
94.0310227916787369
 30
0.0
 11
609.0159601778815386
 21
95.4858316927451085
 31
0.0
  0
ARC
  5
9449
  8
0
 10
608.7799040645396644
 20
95.4775884316203189
 30
0.0
 40
0.2362
 50
2.0000000008899681
 51
90.0
  0
LINE
  5
944A
  8
0
 10
605.3158911549286358
 20
92.3227398726051263
 30
0.0
 11
580.2192103506130252
 21
92.3227398726051263
 31
0.0
  0
LINE
  5
944B
  8
0
 10
605.90179115492856
 20
76.7180591930051321
 30
0.0
 11
605.90179115492856
 21
91.7368398726050742
 31
0.0
  0
LINE
  5
944C
  8
0
 10
601.8620737074708131
 20
72.6782591930051183
 30
0.0
 11
583.6731103506131149
 21
72.6782591930051183
 31
0.0
  0
LINE
  5
944D
  8
0
 10
605.8003426683709449
 20
82.8538538012050765
 30
0.0
 11
579.7347588371709435
 21
82.8538538012050765
 31
0.0
  0
LINE
  5
944E
  8
0
 10
605.8003426683709449
 20
82.2633026201051081
 30
0.0
 11
579.7347588371709435
 21
82.2633026201051081
 31
0.0
  0
LINE
  5
944F
  8
0
 10
605.2189589604708999
 20
84.6757435650050923
 30
0.0
 11
580.3161425450707611
 21
84.6757435650050923
 31
0.0
  0
LINE
  5
9450
  8
0
 10
605.2189589604708999
 20
84.1245624626050841
 30
0.0
 11
580.3161425450707611
 21
84.1245624626050841
 31
0.0
  0
LINE
  5
9451
  8
0
 10
605.2189589604708999
 20
84.7387356910050755
 30
0.0
 11
605.2189589604708999
 21
84.061570336605115
 31
0.0
  0
LINE
  5
9452
  8
0
 10
605.2347069919709384
 20
84.754483722505114
 30
0.0
 11
605.8725022674708498
 21
84.754483722505114
 31
0.0
  0
LINE
  5
9453
  8
0
 10
605.2347069919709384
 20
84.0458223051051334
 30
0.0
 11
605.8725022674708498
 21
84.0458223051051334
 31
0.0
  0
LINE
  5
9454
  8
0
 10
605.2347069919709384
 20
84.754483722505114
 30
0.0
 11
605.2189589604708999
 21
84.7387356910050755
 31
0.0
  0
LINE
  5
9455
  8
0
 10
605.2189589604708999
 20
84.061570336605115
 30
0.0
 11
605.2347069919709384
 21
84.0458223051051334
 31
0.0
  0
LINE
  5
9456
  8
0
 10
605.8882502989708883
 20
84.7387356910050755
 30
0.0
 11
605.8882502989708883
 21
84.061570336605115
 31
0.0
  0
LINE
  5
9457
  8
0
 10
605.8882502989708883
 20
84.061570336605115
 30
0.0
 11
605.8725022674708498
 21
84.0458223051051334
 31
0.0
  0
LINE
  5
9458
  8
0
 10
605.8725022674708498
 20
84.754483722505114
 30
0.0
 11
605.8882502989708883
 21
84.7387356910050755
 31
0.0
  0
LINE
  5
9459
  8
0
 10
605.8397426683708318
 20
82.3027026201051086
 30
0.0
 11
605.8397426683708318
 21
82.8144538012050759
 31
0.0
  0
ARC
  5
945A
  8
0
 10
605.8003426683709449
 20
82.8144538012050759
 30
0.0
 40
0.0394
 50
359.9999999999968168
 51
90.0000000000065086
  0
ARC
  5
945B
  8
0
 10
605.8003426683709449
 20
82.3027026201051086
 30
0.0
 40
0.0394
 50
269.9999999999935199
 51
0.0
  0
ARC
  5
945C
  8
0
 10
604.7283043329431393
 20
82.5590032836160788
 30
0.0
 40
1.1403727493505289
 50
352.0407824298168862
 51
7.9156053346452921
  0
ARC
  5
945D
  8
0
 10
606.9722549540514365
 20
82.5581492616568369
 30
0.0
 40
1.1255737630743949
 50
171.9357354812485141
 51
188.0206522832127973
  0
ARC
  5
945E
  8
0
 10
601.8619911549285462
 20
76.7180591930051321
 30
0.0
 40
4.0397999999999987
 50
270.0
 51
0.0
  0
ARC
  5
945F
  8
0
 10
605.3158911549286358
 20
91.7368398726050742
 30
0.0
 40
0.5859
 50
0.0
 51
90.0
  0
LINE
  5
9460
  8
0
 10
604.5428999052709287
 20
74.6993656122550931
 30
0.0
 11
604.5428999052709287
 21
74.0222002578551326
 31
0.0
  0
LINE
  5
9461
  8
0
 10
604.5586479367708534
 20
74.7151136437550747
 30
0.0
 11
605.3702946148276851
 21
74.7151136437550747
 31
0.0
  0
LINE
  5
9462
  8
0
 10
604.5586479367708534
 20
74.0064522263550941
 30
0.0
 11
604.8565147728711509
 21
74.0064522263550941
 31
0.0
  0
LINE
  5
9463
  8
0
 10
604.5586479367708534
 20
74.7151136437550747
 30
0.0
 11
604.5428999052709287
 21
74.6993656122550931
 31
0.0
  0
LINE
  5
9464
  8
0
 10
604.5428999052709287
 20
74.0222002578551326
 30
0.0
 11
604.5586479367708534
 21
74.0064522263550941
 31
0.0
  0
LINE
  5
9465
  8
0
 10
604.5428999052709287
 20
74.6363599379444906
 30
0.0
 11
580.992201600270846
 21
74.6363599379444906
 31
0.0
  0
LINE
  5
9466
  8
0
 10
604.5428999052709287
 20
74.0851681638383468
 30
0.0
 11
580.992201600270846
 21
74.0851681638383468
 31
0.0
  0
LINE
  5
9467
  8
0
 10
604.905273707470883
 20
81.8913477076050782
 30
0.0
 11
580.629827798070778
 21
81.8913477076050782
 31
0.0
  0
LINE
  5
9468
  8
0
 10
605.6163737074707569
 20
81.1802477076051048
 30
0.0
 11
605.6163737074707569
 21
76.4325591930051189
 31
0.0
  0
ARC
  5
9469
  8
0
 10
604.905273707470883
 20
81.1802477076051048
 30
0.0
 40
0.7111
 50
0.0
 51
90.0
  0
ARC
  5
946A
  8
0
 10
601.8620737074708131
 20
76.4325591930051189
 30
0.0
 40
3.7543000000000002
 50
332.7766134171428121
 51
0.0
  0
LINE
  5
946B
  8
0
 10
579.633310350613101
 20
76.7180591930051321
 30
0.0
 11
579.633310350613101
 21
91.7368398726050742
 31
0.0
  0
LINE
  5
946C
  8
0
 10
580.3161425450707611
 20
84.7387356910050755
 30
0.0
 11
580.3161425450707611
 21
84.061570336605115
 31
0.0
  0
LINE
  5
946D
  8
0
 10
580.30039451357095
 20
84.754483722505114
 30
0.0
 11
579.6625992380706975
 21
84.754483722505114
 31
0.0
  0
LINE
  5
946E
  8
0
 10
580.30039451357095
 20
84.0458223051051334
 30
0.0
 11
579.6625992380706975
 21
84.0458223051051334
 31
0.0
  0
LINE
  5
946F
  8
0
 10
580.30039451357095
 20
84.754483722505114
 30
0.0
 11
580.3161425450707611
 21
84.7387356910050755
 31
0.0
  0
LINE
  5
9470
  8
0
 10
580.3161425450707611
 20
84.061570336605115
 30
0.0
 11
580.30039451357095
 21
84.0458223051051334
 31
0.0
  0
LINE
  5
9471
  8
0
 10
579.6468512065707728
 20
84.7387356910050755
 30
0.0
 11
579.6468512065707728
 21
84.061570336605115
 31
0.0
  0
LINE
  5
9472
  8
0
 10
579.6468512065707728
 20
84.061570336605115
 30
0.0
 11
579.6625992380706975
 21
84.0458223051051334
 31
0.0
  0
LINE
  5
9473
  8
0
 10
579.6625992380706975
 20
84.754483722505114
 30
0.0
 11
579.6468512065707728
 21
84.7387356910050755
 31
0.0
  0
LINE
  5
9474
  8
0
 10
579.6953588371708292
 20
82.3027026201051086
 30
0.0
 11
579.6953588371708292
 21
82.8144538012050759
 31
0.0
  0
ARC
  5
9475
  8
0
 10
579.7347588371709435
 20
82.8144538012050759
 30
0.0
 40
0.0394
 50
89.9999999999869686
 51
180.0000000000032117
  0
ARC
  5
9476
  8
0
 10
579.7347588371709435
 20
82.3027026201051086
 30
0.0
 40
0.0394
 50
180.0
 51
270.0000000000064801
  0
ARC
  5
9477
  8
0
 10
580.8067971725985217
 20
82.5590032836160788
 30
0.0
 40
1.1403727493505289
 50
172.0843946653546936
 51
187.9592175701831138
  0
ARC
  5
9478
  8
0
 10
578.5628465514903382
 20
82.5581492616568369
 30
0.0
 40
1.1255737630743949
 50
351.9793477167871742
 51
8.0642645187514717
  0
ARC
  5
9479
  8
0
 10
583.6731103506131149
 20
76.7180591930051321
 30
0.0
 40
4.0397999999999987
 50
180.0
 51
270.0
  0
ARC
  5
947A
  8
0
 10
580.2192103506130252
 20
91.7368398726050742
 30
0.0
 40
0.5859
 50
90.0
 51
180.0
  0
LINE
  5
947B
  8
0
 10
580.992201600270846
 20
74.6993656122550931
 30
0.0
 11
580.992201600270846
 21
74.0222002578551326
 31
0.0
  0
LINE
  5
947C
  8
0
 10
580.9764535687706939
 20
74.7151136437550747
 30
0.0
 11
580.1648068907138622
 21
74.7151136437550747
 31
0.0
  0
LINE
  5
947D
  8
0
 10
580.9764535687706939
 20
74.0064522263550941
 30
0.0
 11
580.6785867326706239
 21
74.0064522263550941
 31
0.0
  0
LINE
  5
947E
  8
0
 10
580.9764535687706939
 20
74.7151136437550747
 30
0.0
 11
580.992201600270846
 21
74.6993656122550931
 31
0.0
  0
LINE
  5
947F
  8
0
 10
580.992201600270846
 20
74.0222002578551326
 30
0.0
 11
580.9764535687706939
 21
74.0064522263550941
 31
0.0
  0
LINE
  5
9480
  8
0
 10
579.9187277980709041
 20
81.1802477076051048
 30
0.0
 11
579.9187277980709041
 21
76.4325591930051189
 31
0.0
  0
ARC
  5
9481
  8
0
 10
580.629827798070778
 20
81.1802477076051048
 30
0.0
 40
0.7111
 50
90.0
 51
180.0
  0
ARC
  5
9482
  8
0
 10
583.6730277980708479
 20
76.4325591930051189
 30
0.0
 40
3.7543000000000002
 50
180.0
 51
207.2233865828571879
  0
LINE
  5
9483
  8
0
 10
545.9565271307709509
 20
93.8538227916787662
 30
0.0
 11
545.9565271307709509
 21
70.8617624626051281
 31
0.0
  0
ARC
  5
9484
  8
0
 10
546.1337271307708079
 20
93.8538227916787662
 30
0.0
 40
0.1772
 50
90.0
 51
180.0
  0
LINE
  5
9485
  8
0
 10
546.074637493948785
 20
94.0310227916787369
 30
0.0
 11
546.1254405402602288
 21
95.4858316927451085
 31
0.0
  0
ARC
  5
9486
  8
0
 10
546.3614966536018756
 20
95.4775884316203189
 30
0.0
 40
0.2362
 50
90.0
 51
177.9999999991100026
  0
LINE
  5
9487
  8
0
 10
599.2043242478707725
 20
70.6845624626051006
 30
0.0
 11
599.2043242478707725
 21
70.6422127129083606
 31
0.0
  0
LINE
  5
9488
  8
0
 10
599.2043242478707725
 20
70.6422127129083606
 30
0.0
 11
597.2756591474709467
 21
70.6422127129083606
 31
0.0
  0
LINE
  5
9489
  8
0
 10
597.2756591474709467
 20
70.6422127129083606
 30
0.0
 11
597.2756591474709467
 21
70.6845624626051006
 31
0.0
  0
LINE
  5
948A
  8
0
 10
599.2000467879709049
 20
70.6845624626051006
 30
0.0
 11
599.2000467879707912
 21
70.6422127129083606
 31
0.0
  0
LINE
  5
948B
  8
0
 10
599.1872531927707541
 20
70.6845624626051006
 30
0.0
 11
599.1872531927707541
 21
70.6422127129083606
 31
0.0
  0
LINE
  5
948C
  8
0
 10
599.1660593228707512
 20
70.6845624626051006
 30
0.0
 11
599.1660593228707512
 21
70.6422127129083606
 31
0.0
  0
LINE
  5
948D
  8
0
 10
599.1408283625709146
 20
70.6845624626051006
 30
0.0
 11
599.1408283625709146
 21
70.6422127129083606
 31
0.0
  0
LINE
  5
948E
  8
0
 10
599.1366571132707577
 20
70.6845624626051006
 30
0.0
 11
599.1366571132707577
 21
70.6422127129083606
 31
0.0
  0
LINE
  5
948F
  8
0
 10
599.1096558796708678
 20
70.6845624626051006
 30
0.0
 11
599.1096558796708678
 21
70.6422127129083606
 31
0.0
  0
LINE
  5
9490
  8
0
 10
599.0993128349708741
 20
70.6845624626051006
 30
0.0
 11
599.0993128349708741
 21
70.6422127129083606
 31
0.0
  0
LINE
  5
9491
  8
0
 10
599.0706075845707801
 20
70.6845624626051006
 30
0.0
 11
599.0706075845707801
 21
70.6422127129083606
 31
0.0
  0
LINE
  5
9492
  8
0
 10
599.0543646833707498
 20
70.6845624626051006
 30
0.0
 11
599.0543646833707498
 21
70.6422127129083606
 31
0.0
  0
LINE
  5
9493
  8
0
 10
599.0240371046708105
 20
70.6845624626051006
 30
0.0
 11
599.0240371046708105
 21
70.6422127129083606
 31
0.0
  0
LINE
  5
9494
  8
0
 10
599.0022197158707513
 20
70.6845624626051006
 30
0.0
 11
599.0022197158707513
 21
70.6422127129083606
 31
0.0
  0
LINE
  5
9495
  8
0
 10
598.9703661893709068
 20
70.6845624626051006
 30
0.0
 11
598.9703661893707931
 21
70.6422127129083606
 31
0.0
  0
LINE
  5
9496
  8
0
 10
598.9433501653707026
 20
70.6845624626051006
 30
0.0
 11
598.9433501653707026
 21
70.6422127129083606
 31
0.0
  0
LINE
  5
9497
  8
0
 10
598.9100808906708835
 20
70.6845624626051006
 30
0.0
 11
598.9100808906708835
 21
70.6422127129083606
 31
0.0
  0
LINE
  5
9498
  8
0
 10
598.8782891633708232
 20
70.6845624626051006
 30
0.0
 11
598.8782891633708232
 21
70.6422127129083606
 31
0.0
  0
LINE
  5
9499
  8
0
 10
598.8437271613709072
 20
70.6845624626051006
 30
0.0
 11
598.8437271613709072
 21
70.6422127129083606
 31
0.0
  0
LINE
  5
949A
  8
0
 10
598.8076259123707814
 20
70.6845624626051006
 30
0.0
 11
598.8076259123707814
 21
70.6422127129083606
 31
0.0
  0
LINE
  5
949B
  8
0
 10
598.7719059112707782
 20
70.6845624626051006
 30
0.0
 11
598.7719059112707782
 21
70.6422127129083606
 31
0.0
  0
LINE
  5
949C
  8
0
 10
598.7320003496708978
 20
70.6845624626051006
 30
0.0
 11
598.7320003496708978
 21
70.6422127129083606
 31
0.0
  0
LINE
  5
949D
  8
0
 10
598.6952675643708517
 20
70.6845624626051006
 30
0.0
 11
598.6952675643708517
 21
70.6422127129083606
 31
0.0
  0
LINE
  5
949E
  8
0
 10
598.6520973518707933
 20
70.6845624626051006
 30
0.0
 11
598.6520973518706796
 21
70.6422127129083606
 31
0.0
  0
LINE
  5
949F
  8
0
 10
598.6145061694709284
 20
70.6845624626051006
 30
0.0
 11
598.6145061694709284
 21
70.6422127129083606
 31
0.0
  0
LINE
  5
94A0
  8
0
 10
598.5686405327709281
 20
70.6845624626051006
 30
0.0
 11
598.5686405327709281
 21
70.6422127129083606
 31
0.0
  0
LINE
  5
94A1
  8
0
 10
598.5303531140707491
 20
70.6845624626051006
 30
0.0
 11
598.5303531140707491
 21
70.6422127129083606
 31
0.0
  0
LINE
  5
94A2
  8
0
 10
598.4823856902709167
 20
70.6845624626051006
 30
0.0
 11
598.4823856902709167
 21
70.6422127129083606
 31
0.0
  0
LINE
  5
94A3
  8
0
 10
598.4435705011709388
 20
70.6845624626051006
 30
0.0
 11
598.4435705011709388
 21
70.6422127129083606
 31
0.0
  0
LINE
  5
94A4
  8
0
 10
598.3941139612708184
 20
70.6845624626051006
 30
0.0
 11
598.3941139612708184
 21
70.6422127129083606
 31
0.0
  0
LINE
  5
94A5
  8
0
 10
598.354944247370895
 20
70.6845624626051006
 30
0.0
 11
598.354944247370895
 21
70.6422127129083606
 31
0.0
  0
LINE
  5
94A6
  8
0
 10
598.3046247480707507
 20
70.6845624626051006
 30
0.0
 11
598.3046247480707507
 21
70.6422127129083606
 31
0.0
  0
LINE
  5
94A7
  8
0
 10
598.2652769656707505
 20
70.6845624626051006
 30
0.0
 11
598.2652769656707505
 21
70.6422127129083606
 31
0.0
  0
LINE
  5
94A8
  8
0
 10
598.214706182270902
 20
70.6845624626051006
 30
0.0
 11
598.214706182270902
 21
70.6422127129083606
 31
0.0
  0
LINE
  5
94A9
  8
0
 10
598.1753584001709214
 20
70.6845624626051006
 30
0.0
 11
598.1753584001709214
 21
70.6422127129083606
 31
0.0
  0
LINE
  5
94AA
  8
0
 10
598.1250389023707612
 20
70.6845624626051006
 30
0.0
 11
598.1250389023707612
 21
70.6422127129083606
 31
0.0
  0
LINE
  5
94AB
  8
0
 10
598.0858691892708521
 20
70.6845624626051006
 30
0.0
 11
598.0858691892708521
 21
70.6422127129083606
 31
0.0
  0
LINE
  5
94AC
  8
0
 10
598.0364126525707889
 20
70.6845624626051006
 30
0.0
 11
598.0364126525707889
 21
70.6422127129083606
 31
0.0
  0
LINE
  5
94AD
  8
0
 10
597.9975974647707062
 20
70.6845624626051006
 30
0.0
 11
597.9975974647707062
 21
70.6422127129083606
 31
0.0
  0
LINE
  5
94AE
  8
0
 10
597.9496300458707765
 20
70.6845624626051006
 30
0.0
 11
597.9496300458707765
 21
70.6422127129083606
 31
0.0
  0
LINE
  5
94AF
  8
0
 10
597.9113426287708535
 20
70.6845624626051006
 30
0.0
 11
597.9113426287708535
 21
70.6422127129083606
 31
0.0
  0
LINE
  5
94B0
  8
0
 10
597.8654769986709425
 20
70.6845624626051006
 30
0.0
 11
597.8654769986709425
 21
70.6422127129083606
 31
0.0
  0
LINE
  5
94B1
  8
0
 10
597.8278858184709179
 20
70.6845624626051006
 30
0.0
 11
597.8278858184709179
 21
70.6422127129083606
 31
0.0
  0
LINE
  5
94B2
  8
0
 10
597.7847156141708638
 20
70.6845624626051006
 30
0.0
 11
597.7847156141708638
 21
70.6422127129083606
 31
0.0
  0
LINE
  5
94B3
  8
0
 10
597.7479828314709493
 20
70.6845624626051006
 30
0.0
 11
597.7479828314709493
 21
70.6422127129083606
 31
0.0
  0
LINE
  5
94B4
  8
0
 10
597.7080772795708299
 20
70.6845624626051006
 30
0.0
 11
597.7080772795708299
 21
70.6422127129083606
 31
0.0
  0
LINE
  5
94B5
  8
0
 10
597.6723572814709087
 20
70.6845624626051006
 30
0.0
 11
597.6723572814709087
 21
70.6422127129083606
 31
0.0
  0
LINE
  5
94B6
  8
0
 10
597.6362560435708247
 20
70.6845624626051006
 30
0.0
 11
597.6362560435708247
 21
70.6422127129083606
 31
0.0
  0
LINE
  5
94B7
  8
0
 10
597.601694045070758
 20
70.6845624626051006
 30
0.0
 11
597.601694045070758
 21
70.6422127129083606
 31
0.0
  0
LINE
  5
94B8
  8
0
 10
597.5699023302709065
 20
70.6845624626051006
 30
0.0
 11
597.5699023302706792
 21
70.6422127129083606
 31
0.0
  0
LINE
  5
94B9
  8
0
 10
597.5366330592707982
 20
70.6845624626051006
 30
0.0
 11
597.5366330592707982
 21
70.6422127129083606
 31
0.0
  0
LINE
  5
94BA
  8
0
 10
597.5096170489708811
 20
70.6845624626051006
 30
0.0
 11
597.5096170489708811
 21
70.6422127129083606
 31
0.0
  0
LINE
  5
94BB
  8
0
 10
597.4777635265708113
 20
70.6845624626051006
 30
0.0
 11
597.4777635265708113
 21
70.6422127129083606
 31
0.0
  0
LINE
  5
94BC
  8
0
 10
597.4559461525708457
 20
70.6845624626051006
 30
0.0
 11
597.4559461525708457
 21
70.6422127129083606
 31
0.0
  0
LINE
  5
94BD
  8
0
 10
597.42561857817077
 20
70.6845624626051006
 30
0.0
 11
597.42561857817077
 21
70.6422127129083606
 31
0.0
  0
LINE
  5
94BE
  8
0
 10
597.4093756927707091
 20
70.6845624626051006
 30
0.0
 11
597.4093756927707091
 21
70.6422127129083606
 31
0.0
  0
LINE
  5
94BF
  8
0
 10
597.3806704469708393
 20
70.6845624626051006
 30
0.0
 11
597.3806704469708393
 21
70.6422127129083606
 31
0.0
  0
LINE
  5
94C0
  8
0
 10
597.3703274189707599
 20
70.6845624626051006
 30
0.0
 11
597.3703274189707599
 21
70.6422127129083606
 31
0.0
  0
LINE
  5
94C1
  8
0
 10
597.3433261900707976
 20
70.6845624626051006
 30
0.0
 11
597.3433261900707976
 21
70.6422127129083606
 31
0.0
  0
LINE
  5
94C2
  8
0
 10
597.3391549581707523
 20
70.6845624626051006
 30
0.0
 11
597.3391549581707523
 21
70.6422127129083606
 31
0.0
  0
LINE
  5
94C3
  8
0
 10
597.313924002770932
 20
70.6845624626051006
 30
0.0
 11
597.313924002770932
 21
70.6422127129083606
 31
0.0
  0
LINE
  5
94C4
  8
0
 10
597.2927301557707551
 20
70.6845624626051006
 30
0.0
 11
597.2927301557707551
 21
70.6422127129083606
 31
0.0
  0
LINE
  5
94C5
  8
0
 10
597.279936583770791
 20
70.6845624626051006
 30
0.0
 11
597.279936583770791
 21
70.6422127129083606
 31
0.0
  0
ARC
  5
94C6
  8
0
 10
598.9880231936708697
 20
70.6611595633083311
 30
0.0
 40
0.0504429133999993
 50
255.3657650603105083
 51
337.9379955033151077
  0
ARC
  5
94C7
  8
0
 10
598.9625346385707871
 20
70.6611595633083311
 30
0.0
 40
0.0504429133999993
 50
222.2067817463405959
 51
337.9379955033151077
  0
ARC
  5
94C8
  8
0
 10
598.8878059760708084
 20
70.6611595633083311
 30
0.0
 40
0.0504429133999993
 50
202.0620044966848923
 51
337.9379955033151077
  0
ARC
  5
94C9
  8
0
 10
598.8108578393708967
 20
70.6611595633083311
 30
0.0
 40
0.0504429133999993
 50
253.9218346589775024
 51
319.7050155198026005
  0
ARC
  5
94CA
  8
0
 10
598.7829176616709219
 20
70.6611595633083311
 30
0.0
 40
0.0504429133999993
 50
262.0302644925990876
 51
337.9379955033151077
  0
ARC
  5
94CB
  8
0
 10
598.7689298410708716
 20
70.6611595633083311
 30
0.0
 40
0.0504429133999993
 50
202.0620044966848923
 51
337.9379955033151077
  0
ARC
  5
94CC
  8
0
 10
598.7018321078709278
 20
70.6611595633083311
 30
0.0
 40
0.0504429133999993
 50
202.0620044966848923
 51
311.6889098768683084
  0
ARC
  5
94CD
  8
0
 10
598.6140074456708362
 20
70.6611595633083311
 30
0.0
 40
0.0504429133999993
 50
202.0620044966848923
 51
337.9379955033151077
  0
ARC
  5
94CE
  8
0
 10
598.575538396770753
 20
70.6611595633083311
 30
0.0
 40
0.0504429133999993
 50
202.0620044966848923
 51
292.4150192053634782
  0
ARC
  5
94CF
  8
0
 10
598.5468510926707495
 20
70.6611595633083311
 30
0.0
 40
0.0504429133999993
 50
202.0620044966848923
 51
286.5202472423713971
  0
ARC
  5
94D0
  8
0
 10
598.4335964951709457
 20
70.6611595633083311
 30
0.0
 40
0.0504429133999993
 50
202.0620044966848923
 51
337.9379955033151077
  0
ARC
  5
94D1
  8
0
 10
598.4163990369708017
 20
70.6611595633083311
 30
0.0
 40
0.0504429133999993
 50
202.0620044966848923
 51
279.8148307181090217
  0
ARC
  5
94D2
  8
0
 10
598.2399916976709164
 20
70.6611595633083311
 30
0.0
 40
0.0504429133999993
 50
202.0620044966848923
 51
337.9379955033151077
  0
ARC
  5
94D3
  8
0
 10
598.0463869001708872
 20
70.6611595633083311
 30
0.0
 40
0.0504429133999993
 50
202.0620044966848923
 51
337.9379955033151077
  0
ARC
  5
94D4
  8
0
 10
598.0635843583708038
 20
70.6611595633083311
 30
0.0
 40
0.0504429133999993
 50
260.1851692818909783
 51
337.9379955033151077
  0
ARC
  5
94D5
  8
0
 10
597.9331323025709253
 20
70.6611595633083311
 30
0.0
 40
0.0504429133999993
 50
253.4797527576284892
 51
337.9379955033151077
  0
ARC
  5
94D6
  8
0
 10
597.9044449984709217
 20
70.6611595633083311
 30
0.0
 40
0.0504429133999993
 50
247.5849808560647887
 51
337.9379955033151077
  0
ARC
  5
94D7
  8
0
 10
597.8659759496707693
 20
70.6611595633083311
 30
0.0
 40
0.0504429133999993
 50
202.0620044966848923
 51
337.9379955033151077
  0
ARC
  5
94D8
  8
0
 10
597.8856609889709262
 20
70.6611595633083311
 30
0.0
 40
0.0504429133999993
 50
258.748152314514698
 51
280.7305646402879802
  0
ARC
  5
94D9
  8
0
 10
597.7781512874709051
 20
70.6611595633083311
 30
0.0
 40
0.0504429133999993
 50
9.6134879496707573
 51
9.8303647490428219
  0
ARC
  5
94DA
  8
0
 10
597.7781512874709051
 20
70.6611595633083311
 30
0.0
 40
0.0504429133999993
 50
228.311090123124103
 51
330.5208914715321953
  0
ARC
  5
94DB
  8
0
 10
597.7110535542708476
 20
70.6611595633083311
 30
0.0
 40
0.0504429133999993
 50
202.0620044966848923
 51
337.9379955033151077
  0
ARC
  5
94DC
  8
0
 10
597.6691255558708917
 20
70.6611595633083311
 30
0.0
 40
0.0504429133999993
 50
220.2949845680149963
 51
286.0781654001282277
  0
ARC
  5
94DD
  8
0
 10
597.697065733670911
 20
70.6611595633083311
 30
0.0
 40
0.0504429133999993
 50
202.0620044966848923
 51
277.9697355073943754
  0
ARC
  5
94DE
  8
0
 10
597.5921774192706835
 20
70.6611595633083311
 30
0.0
 40
0.0504429133999993
 50
202.0620044966848923
 51
337.9379955033151077
  0
ARC
  5
94DF
  8
0
 10
597.5174487567709321
 20
70.6611595633083311
 30
0.0
 40
0.0504429133999993
 50
202.0620044966848923
 51
317.7932182536594041
  0
ARC
  5
94E0
  8
0
 10
597.4919602015708051
 20
70.6611595633083311
 30
0.0
 40
0.0504429133999993
 50
202.0620044966848923
 51
284.6342349983805775
  0
ARC
  5
94E1
  8
0
 10
598.5943224062714307
 20
70.6611595633031015
 30
0.0
 40
0.050442913394766
 50
259.269435358571684
 51
281.2518477418577163
  0
LINE
  5
94E2
  8
0
 10
578.5350329092708535
 20
70.6845624626051006
 30
0.0
 11
578.5350329092708535
 21
70.6422127129083606
 31
0.0
  0
LINE
  5
94E3
  8
0
 10
578.5350329092708535
 20
70.6422127129083606
 30
0.0
 11
576.6063678088709139
 21
70.6422127129083606
 31
0.0
  0
LINE
  5
94E4
  8
0
 10
576.6063678088709139
 20
70.6422127129083606
 30
0.0
 11
576.6063678088709139
 21
70.6845624626051006
 31
0.0
  0
LINE
  5
94E5
  8
0
 10
578.5307554493708722
 20
70.6845624626051006
 30
0.0
 11
578.5307554493708722
 21
70.6422127129083606
 31
0.0
  0
LINE
  5
94E6
  8
0
 10
578.5179618541709488
 20
70.6845624626051006
 30
0.0
 11
578.5179618541709488
 21
70.6422127129083606
 31
0.0
  0
LINE
  5
94E7
  8
0
 10
578.4967679842708321
 20
70.6845624626051006
 30
0.0
 11
578.4967679842708321
 21
70.6422127129083606
 31
0.0
  0
LINE
  5
94E8
  8
0
 10
578.4715370239707681
 20
70.6845624626051006
 30
0.0
 11
578.4715370239707681
 21
70.6422127129083606
 31
0.0
  0
LINE
  5
94E9
  8
0
 10
578.4673657746708386
 20
70.6845624626051006
 30
0.0
 11
578.4673657746708386
 21
70.6422127129083606
 31
0.0
  0
LINE
  5
94EA
  8
0
 10
578.440364541070835
 20
70.6845624626051006
 30
0.0
 11
578.440364541070835
 21
70.6422127129083606
 31
0.0
  0
LINE
  5
94EB
  8
0
 10
578.4300214963708413
 20
70.6845624626051006
 30
0.0
 11
578.4300214963708413
 21
70.6422127129083606
 31
0.0
  0
LINE
  5
94EC
  8
0
 10
578.4013162459707473
 20
70.6845624626051006
 30
0.0
 11
578.4013162459707473
 21
70.6422127129083606
 31
0.0
  0
LINE
  5
94ED
  8
0
 10
578.3850733447708308
 20
70.6845624626051006
 30
0.0
 11
578.3850733447708308
 21
70.6422127129083606
 31
0.0
  0
LINE
  5
94EE
  8
0
 10
578.3547457660707778
 20
70.6845624626051006
 30
0.0
 11
578.3547457660707778
 21
70.6422127129083606
 31
0.0
  0
LINE
  5
94EF
  8
0
 10
578.3329283772708322
 20
70.6845624626051006
 30
0.0
 11
578.3329283772708322
 21
70.6422127129083606
 31
0.0
  0
LINE
  5
94F0
  8
0
 10
578.301074850770874
 20
70.6845624626051006
 30
0.0
 11
578.301074850770874
 21
70.6422127129083606
 31
0.0
  0
LINE
  5
94F1
  8
0
 10
578.2740588267707835
 20
70.6845624626051006
 30
0.0
 11
578.2740588267707835
 21
70.6422127129083606
 31
0.0
  0
LINE
  5
94F2
  8
0
 10
578.2407895520708507
 20
70.6845624626051006
 30
0.0
 11
578.2407895520708507
 21
70.6422127129083606
 31
0.0
  0
LINE
  5
94F3
  8
0
 10
578.2089978247706767
 20
70.6845624626051006
 30
0.0
 11
578.2089978247706767
 21
70.6422127129083606
 31
0.0
  0
LINE
  5
94F4
  8
0
 10
578.1744358227707608
 20
70.6845624626051006
 30
0.0
 11
578.1744358227707608
 21
70.6422127129083606
 31
0.0
  0
LINE
  5
94F5
  8
0
 10
578.1383345737707486
 20
70.6845624626051006
 30
0.0
 11
578.1383345737707486
 21
70.6422127129083606
 31
0.0
  0
LINE
  5
94F6
  8
0
 10
578.1026145726707455
 20
70.6845624626051006
 30
0.0
 11
578.1026145726707455
 21
70.6422127129083606
 31
0.0
  0
LINE
  5
94F7
  8
0
 10
578.062709011070865
 20
70.6845624626051006
 30
0.0
 11
578.062709011070865
 21
70.6422127129083606
 31
0.0
  0
LINE
  5
94F8
  8
0
 10
578.0259762257709326
 20
70.6845624626051006
 30
0.0
 11
578.0259762257709326
 21
70.6422127129083606
 31
0.0
  0
LINE
  5
94F9
  8
0
 10
577.9828060132707606
 20
70.6845624626051006
 30
0.0
 11
577.9828060132707606
 21
70.6422127129083606
 31
0.0
  0
LINE
  5
94FA
  8
0
 10
577.9452148308708956
 20
70.6845624626051006
 30
0.0
 11
577.9452148308708956
 21
70.6422127129083606
 31
0.0
  0
LINE
  5
94FB
  8
0
 10
577.8993491941708953
 20
70.6845624626051006
 30
0.0
 11
577.8993491941708953
 21
70.6422127129083606
 31
0.0
  0
LINE
  5
94FC
  8
0
 10
577.8610617754708301
 20
70.6845624626051006
 30
0.0
 11
577.8610617754708301
 21
70.6422127129083606
 31
0.0
  0
LINE
  5
94FD
  8
0
 10
577.813094351670884
 20
70.6845624626051006
 30
0.0
 11
577.813094351670884
 21
70.6422127129083606
 31
0.0
  0
LINE
  5
94FE
  8
0
 10
577.7742791625707923
 20
70.6845624626051006
 30
0.0
 11
577.7742791625707923
 21
70.6422127129083606
 31
0.0
  0
LINE
  5
94FF
  8
0
 10
577.7248226226710131
 20
70.6845624626051006
 30
0.0
 11
577.724822622670672
 21
70.6422127129083606
 31
0.0
  0
LINE
  5
9500
  8
0
 10
577.6856529087707486
 20
70.6845624626051006
 30
0.0
 11
577.6856529087707486
 21
70.6422127129083606
 31
0.0
  0
LINE
  5
9501
  8
0
 10
577.6353334094709453
 20
70.6845624626051006
 30
0.0
 11
577.6353334094709453
 21
70.6422127129083606
 31
0.0
  0
LINE
  5
9502
  8
0
 10
577.5959856270709452
 20
70.6845624626051006
 30
0.0
 11
577.5959856270709452
 21
70.6422127129083606
 31
0.0
  0
LINE
  5
9503
  8
0
 10
577.5454148436708692
 20
70.6845624626051006
 30
0.0
 11
577.5454148436708692
 21
70.6422127129083606
 31
0.0
  0
LINE
  5
9504
  8
0
 10
577.506067061570775
 20
70.6845624626051006
 30
0.0
 11
577.506067061570775
 21
70.6422127129083606
 31
0.0
  0
LINE
  5
9505
  8
0
 10
577.4557475637708421
 20
70.6845624626051006
 30
0.0
 11
577.4557475637708421
 21
70.6422127129083606
 31
0.0
  0
LINE
  5
9506
  8
0
 10
577.416577850670933
 20
70.6845624626051006
 30
0.0
 11
577.416577850670933
 21
70.6422127129083606
 31
0.0
  0
LINE
  5
9507
  8
0
 10
577.3671213139707561
 20
70.6845624626051006
 30
0.0
 11
577.3671213139707561
 21
70.6422127129083606
 31
0.0
  0
LINE
  5
9508
  8
0
 10
577.3283061261706735
 20
70.6845624626051006
 30
0.0
 11
577.3283061261706735
 21
70.6422127129083606
 31
0.0
  0
LINE
  5
9509
  8
0
 10
577.2803387072707437
 20
70.6845624626051006
 30
0.0
 11
577.2803387072707437
 21
70.6422127129083606
 31
0.0
  0
LINE
  5
950A
  8
0
 10
577.2420512901709344
 20
70.6845624626051006
 30
0.0
 11
577.2420512901709344
 21
70.6422127129083606
 31
0.0
  0
LINE
  5
950B
  8
0
 10
577.1961856600709098
 20
70.6845624626051006
 30
0.0
 11
577.1961856600709098
 21
70.6422127129083606
 31
0.0
  0
LINE
  5
950C
  8
0
 10
577.1585944798707715
 20
70.6845624626051006
 30
0.0
 11
577.1585944798707715
 21
70.6422127129083606
 31
0.0
  0
LINE
  5
950D
  8
0
 10
577.1154242755709447
 20
70.6845624626051006
 30
0.0
 11
577.1154242755709447
 21
70.6422127129083606
 31
0.0
  0
LINE
  5
950E
  8
0
 10
577.0786914928708029
 20
70.6845624626051006
 30
0.0
 11
577.0786914928708029
 21
70.6422127129083606
 31
0.0
  0
LINE
  5
950F
  8
0
 10
577.0387859409707971
 20
70.6845624626051006
 30
0.0
 11
577.0387859409707971
 21
70.6422127129083606
 31
0.0
  0
LINE
  5
9510
  8
0
 10
577.0030659428708759
 20
70.6845624626051006
 30
0.0
 11
577.0030659428708759
 21
70.6422127129083606
 31
0.0
  0
LINE
  5
9511
  8
0
 10
576.9669647049707919
 20
70.6845624626051006
 30
0.0
 11
576.9669647049707919
 21
70.6422127129083606
 31
0.0
  0
LINE
  5
9512
  8
0
 10
576.9324027064708389
 20
70.6845624626051006
 30
0.0
 11
576.9324027064708389
 21
70.6422127129083606
 31
0.0
  0
LINE
  5
9513
  8
0
 10
576.9006109916707601
 20
70.6845624626051006
 30
0.0
 11
576.9006109916707601
 21
70.6422127129083606
 31
0.0
  0
LINE
  5
9514
  8
0
 10
576.8673417206707654
 20
70.6845624626051006
 30
0.0
 11
576.8673417206707654
 21
70.6422127129083606
 31
0.0
  0
LINE
  5
9515
  8
0
 10
576.8403257103708484
 20
70.6845624626051006
 30
0.0
 11
576.8403257103708484
 21
70.6422127129083606
 31
0.0
  0
LINE
  5
9516
  8
0
 10
576.8084721879707786
 20
70.6845624626051006
 30
0.0
 11
576.8084721879707786
 21
70.6422127129083606
 31
0.0
  0
LINE
  5
9517
  8
0
 10
576.7866548139708129
 20
70.6845624626051006
 30
0.0
 11
576.7866548139708129
 21
70.6422127129083606
 31
0.0
  0
LINE
  5
9518
  8
0
 10
576.7563272395708509
 20
70.6845624626051006
 30
0.0
 11
576.7563272395708509
 21
70.6422127129083606
 31
0.0
  0
LINE
  5
9519
  8
0
 10
576.7400843541710174
 20
70.6845624626051006
 30
0.0
 11
576.7400843541706763
 21
70.6422127129083606
 31
0.0
  0
LINE
  5
951A
  8
0
 10
576.7113791083708065
 20
70.6845624626051006
 30
0.0
 11
576.7113791083708065
 21
70.6422127129083606
 31
0.0
  0
LINE
  5
951B
  8
0
 10
576.7010360803708409
 20
70.6845624626051006
 30
0.0
 11
576.7010360803708409
 21
70.6422127129083606
 31
0.0
  0
LINE
  5
951C
  8
0
 10
576.6740348514708785
 20
70.6845624626051006
 30
0.0
 11
576.6740348514708785
 21
70.6422127129083606
 31
0.0
  0
LINE
  5
951D
  8
0
 10
576.6698636195709469
 20
70.6845624626051006
 30
0.0
 11
576.6698636195709469
 21
70.6422127129083606
 31
0.0
  0
LINE
  5
951E
  8
0
 10
576.6446326641708993
 20
70.6845624626051006
 30
0.0
 11
576.6446326641708993
 21
70.6422127129083606
 31
0.0
  0
LINE
  5
951F
  8
0
 10
576.6234388171709497
 20
70.6845624626051006
 30
0.0
 11
576.6234388171709497
 21
70.6422127129083606
 31
0.0
  0
LINE
  5
9520
  8
0
 10
576.6106452451707582
 20
70.6845624626051006
 30
0.0
 11
576.6106452451707582
 21
70.6422127129083606
 31
0.0
  0
ARC
  5
9521
  8
0
 10
578.3187318550709506
 20
70.6611595633083311
 30
0.0
 40
0.0504429133999993
 50
255.3657650603105083
 51
337.9379955033151077
  0
ARC
  5
9522
  8
0
 10
578.2932432999707544
 20
70.6611595633083311
 30
0.0
 40
0.0504429133999993
 50
222.2067817463405959
 51
337.9379955033151077
  0
ARC
  5
9523
  8
0
 10
578.2185146374707756
 20
70.6611595633083311
 30
0.0
 40
0.0504429133999993
 50
202.0620044966848923
 51
337.9379955033151077
  0
ARC
  5
9524
  8
0
 10
578.1415665007707503
 20
70.6611595633083311
 30
0.0
 40
0.0504429133999993
 50
253.9218346589775024
 51
319.7050155198026005
  0
ARC
  5
9525
  8
0
 10
578.1136263230708892
 20
70.6611595633083311
 30
0.0
 40
0.0504429133999993
 50
262.0302644925990876
 51
337.9379955033151077
  0
ARC
  5
9526
  8
0
 10
578.0996385024708388
 20
70.6611595633083311
 30
0.0
 40
0.0504429133999993
 50
202.0620044966848923
 51
337.9379955033151077
  0
ARC
  5
9527
  8
0
 10
578.032540769270895
 20
70.6611595633083311
 30
0.0
 40
0.0504429133999993
 50
202.0620044966848923
 51
311.6889098768683084
  0
ARC
  5
9528
  8
0
 10
577.9447161070708034
 20
70.6611595633083311
 30
0.0
 40
0.0504429133999993
 50
202.0620044966848923
 51
337.9379955033151077
  0
ARC
  5
9529
  8
0
 10
577.906247058170834
 20
70.6611595633083311
 30
0.0
 40
0.0504429133999993
 50
202.0620044966848923
 51
292.4150192053634782
  0
ARC
  5
952A
  8
0
 10
577.8775597540708304
 20
70.6611595633083311
 30
0.0
 40
0.0504429133999993
 50
202.0620044966848923
 51
286.5202472423713971
  0
ARC
  5
952B
  8
0
 10
577.7643051565709129
 20
70.6611595633083311
 30
0.0
 40
0.0504429133999993
 50
202.0620044966848923
 51
337.9379955033151077
  0
ARC
  5
952C
  8
0
 10
577.747107698370769
 20
70.6611595633083311
 30
0.0
 40
0.0504429133999993
 50
202.0620044966848923
 51
279.8148307181090217
  0
ARC
  5
952D
  8
0
 10
577.57070035907077
 20
70.6611595633083311
 30
0.0
 40
0.0504429133999993
 50
202.0620044966848923
 51
337.9379955033151077
  0
ARC
  5
952E
  8
0
 10
577.3770955615708544
 20
70.6611595633083311
 30
0.0
 40
0.0504429133999993
 50
202.0620044966848923
 51
337.9379955033151077
  0
ARC
  5
952F
  8
0
 10
577.394293019770771
 20
70.6611595633083311
 30
0.0
 40
0.0504429133999993
 50
260.1851692818909783
 51
337.9379955033151077
  0
ARC
  5
9530
  8
0
 10
577.2638409639708925
 20
70.6611595633083311
 30
0.0
 40
0.0504429133999993
 50
253.4797527576284892
 51
337.9379955033151077
  0
ARC
  5
9531
  8
0
 10
577.235153659870889
 20
70.6611595633083311
 30
0.0
 40
0.0504429133999993
 50
247.5849808560647887
 51
337.9379955033151077
  0
ARC
  5
9532
  8
0
 10
577.1966846110708502
 20
70.6611595633083311
 30
0.0
 40
0.0504429133999993
 50
202.0620044966848923
 51
337.9379955033151077
  0
ARC
  5
9533
  8
0
 10
577.2163696503707797
 20
70.6611595633083311
 30
0.0
 40
0.0504429133999993
 50
258.748152314514698
 51
280.7305646402879802
  0
ARC
  5
9534
  8
0
 10
577.1088599488708724
 20
70.6611595633083311
 30
0.0
 40
0.0504429133999993
 50
9.6134879496707573
 51
9.8303647490428219
  0
ARC
  5
9535
  8
0
 10
577.1088599488708724
 20
70.6611595633083311
 30
0.0
 40
0.0504429133999993
 50
228.311090123124103
 51
330.5208914715321953
  0
ARC
  5
9536
  8
0
 10
577.0417622156709285
 20
70.6611595633083311
 30
0.0
 40
0.0504429133999993
 50
202.0620044966848923
 51
337.9379955033151077
  0
ARC
  5
9537
  8
0
 10
576.999834217270859
 20
70.6611595633083311
 30
0.0
 40
0.0504429133999993
 50
220.2949845680149963
 51
286.0781654001282277
  0
ARC
  5
9538
  8
0
 10
577.0277743950708782
 20
70.6611595633083311
 30
0.0
 40
0.0504429133999993
 50
202.0620044966848923
 51
277.9697355073943754
  0
ARC
  5
9539
  8
0
 10
576.9228860806707644
 20
70.6611595633083311
 30
0.0
 40
0.0504429133999993
 50
202.0620044966848923
 51
337.9379955033151077
  0
ARC
  5
953A
  8
0
 10
576.8481574181707856
 20
70.6611595633083311
 30
0.0
 40
0.0504429133999993
 50
202.0620044966848923
 51
317.7932182536594041
  0
ARC
  5
953B
  8
0
 10
576.822668862970886
 20
70.6611595633083311
 30
0.0
 40
0.0504429133999993
 50
202.0620044966848923
 51
284.6342349983805775
  0
ARC
  5
953C
  8
0
 10
577.9250310676712843
 20
70.6611595633031015
 30
0.0
 40
0.050442913394766
 50
259.269435358571684
 51
281.2518477418577163
  0
LINE
  5
953D
  8
0
 10
564.7555053501708926
 20
70.6845624626051006
 30
0.0
 11
564.7555053501708926
 21
70.6422127129083606
 31
0.0
  0
LINE
  5
953E
  8
0
 10
564.7555053501708926
 20
70.6422127129083606
 30
0.0
 11
562.8268402497708394
 21
70.6422127129083606
 31
0.0
  0
LINE
  5
953F
  8
0
 10
562.8268402497708394
 20
70.6422127129083606
 30
0.0
 11
562.8268402497708394
 21
70.6845624626051006
 31
0.0
  0
LINE
  5
9540
  8
0
 10
564.7512278902706839
 20
70.6845624626051006
 30
0.0
 11
564.7512278902706839
 21
70.6422127129083606
 31
0.0
  0
LINE
  5
9541
  8
0
 10
564.7384342950707605
 20
70.6845624626051006
 30
0.0
 11
564.7384342950707605
 21
70.6422127129083606
 31
0.0
  0
LINE
  5
9542
  8
0
 10
564.7172404251707576
 20
70.6845624626051006
 30
0.0
 11
564.7172404251707576
 21
70.6422127129083606
 31
0.0
  0
LINE
  5
9543
  8
0
 10
564.692009464870921
 20
70.6845624626051006
 30
0.0
 11
564.692009464870921
 21
70.6422127129083606
 31
0.0
  0
LINE
  5
9544
  8
0
 10
564.6878382155707641
 20
70.6845624626051006
 30
0.0
 11
564.6878382155707641
 21
70.6422127129083606
 31
0.0
  0
LINE
  5
9545
  8
0
 10
564.6608369819707605
 20
70.6845624626051006
 30
0.0
 11
564.6608369819707605
 21
70.6422127129083606
 31
0.0
  0
LINE
  5
9546
  8
0
 10
564.6504939372707668
 20
70.6845624626051006
 30
0.0
 11
564.6504939372707668
 21
70.6422127129083606
 31
0.0
  0
LINE
  5
9547
  8
0
 10
564.6217886868709002
 20
70.6845624626051006
 30
0.0
 11
564.6217886868709002
 21
70.6422127129083606
 31
0.0
  0
LINE
  5
9548
  8
0
 10
564.6055457856707562
 20
70.6845624626051006
 30
0.0
 11
564.6055457856707562
 21
70.6422127129083606
 31
0.0
  0
LINE
  5
9549
  8
0
 10
564.5752182069708169
 20
70.6845624626051006
 30
0.0
 11
564.5752182069708169
 21
70.6422127129083606
 31
0.0
  0
LINE
  5
954A
  8
0
 10
564.5534008181708714
 20
70.6845624626051006
 30
0.0
 11
564.5534008181708714
 21
70.6422127129083606
 31
0.0
  0
LINE
  5
954B
  8
0
 10
564.5215472916706858
 20
70.6845624626051006
 30
0.0
 11
564.5215472916706858
 21
70.6422127129083606
 31
0.0
  0
LINE
  5
954C
  8
0
 10
564.4945312676708227
 20
70.6845624626051006
 30
0.0
 11
564.4945312676708227
 21
70.6422127129083606
 31
0.0
  0
LINE
  5
954D
  8
0
 10
564.4612619929707762
 20
70.6845624626051006
 30
0.0
 11
564.4612619929707762
 21
70.6422127129083606
 31
0.0
  0
LINE
  5
954E
  8
0
 10
564.4294702656708296
 20
70.6845624626051006
 30
0.0
 11
564.4294702656708296
 21
70.6422127129083606
 31
0.0
  0
LINE
  5
954F
  8
0
 10
564.3949082636707999
 20
70.6845624626051006
 30
0.0
 11
564.3949082636707999
 21
70.6422127129083606
 31
0.0
  0
LINE
  5
9550
  8
0
 10
564.3588070146709015
 20
70.6845624626051006
 30
0.0
 11
564.3588070146709015
 21
70.6422127129083606
 31
0.0
  0
LINE
  5
9551
  8
0
 10
564.3230870135708983
 20
70.6845624626051006
 30
0.0
 11
564.3230870135708983
 21
70.6422127129083606
 31
0.0
  0
LINE
  5
9552
  8
0
 10
564.2831814519707905
 20
70.6845624626051006
 30
0.0
 11
564.2831814519707905
 21
70.6422127129083606
 31
0.0
  0
LINE
  5
9553
  8
0
 10
564.2464486666708581
 20
70.6845624626051006
 30
0.0
 11
564.2464486666708581
 21
70.6422127129083606
 31
0.0
  0
LINE
  5
9554
  8
0
 10
564.2032784541707997
 20
70.6845624626051006
 30
0.0
 11
564.2032784541707997
 21
70.6422127129083606
 31
0.0
  0
LINE
  5
9555
  8
0
 10
564.1656872717709348
 20
70.6845624626051006
 30
0.0
 11
564.1656872717709348
 21
70.6422127129083606
 31
0.0
  0
LINE
  5
9556
  8
0
 10
564.1198216350709345
 20
70.6845624626051006
 30
0.0
 11
564.1198216350709345
 21
70.6422127129083606
 31
0.0
  0
LINE
  5
9557
  8
0
 10
564.0815342163707555
 20
70.6845624626051006
 30
0.0
 11
564.0815342163707555
 21
70.6422127129083606
 31
0.0
  0
LINE
  5
9558
  8
0
 10
564.0335667925709231
 20
70.6845624626051006
 30
0.0
 11
564.0335667925709231
 21
70.6422127129083606
 31
0.0
  0
LINE
  5
9559
  8
0
 10
563.9947516034709452
 20
70.6845624626051006
 30
0.0
 11
563.9947516034709452
 21
70.6422127129083606
 31
0.0
  0
LINE
  5
955A
  8
0
 10
563.9452950635708248
 20
70.6845624626051006
 30
0.0
 11
563.9452950635708248
 21
70.6422127129083606
 31
0.0
  0
LINE
  5
955B
  8
0
 10
563.9061253496707877
 20
70.6845624626051006
 30
0.0
 11
563.9061253496707877
 21
70.6422127129083606
 31
0.0
  0
LINE
  5
955C
  8
0
 10
563.8558058503708708
 20
70.6845624626051006
 30
0.0
 11
563.8558058503708708
 21
70.6422127129083606
 31
0.0
  0
LINE
  5
955D
  8
0
 10
563.8164580679707569
 20
70.6845624626051006
 30
0.0
 11
563.8164580679707569
 21
70.6422127129083606
 31
0.0
  0
LINE
  5
955E
  8
0
 10
563.765887284570681
 20
70.6845624626051006
 30
0.0
 11
563.765887284570681
 21
70.6422127129083606
 31
0.0
  0
LINE
  5
955F
  8
0
 10
563.7265395024709278
 20
70.6845624626051006
 30
0.0
 11
563.7265395024709278
 21
70.6422127129083606
 31
0.0
  0
LINE
  5
9560
  8
0
 10
563.6762200046708813
 20
70.6845624626051006
 30
0.0
 11
563.6762200046708813
 21
70.6422127129083606
 31
0.0
  0
LINE
  5
9561
  8
0
 10
563.6370502915707448
 20
70.6845624626051006
 30
0.0
 11
563.6370502915707448
 21
70.6422127129083606
 31
0.0
  0
LINE
  5
9562
  8
0
 10
563.5875937548709089
 20
70.6845624626051006
 30
0.0
 11
563.5875937548709089
 21
70.6422127129083606
 31
0.0
  0
LINE
  5
9563
  8
0
 10
563.5487785670708263
 20
70.6845624626051006
 30
0.0
 11
563.5487785670708263
 21
70.6422127129083606
 31
0.0
  0
LINE
  5
9564
  8
0
 10
563.5008111481708966
 20
70.6845624626051006
 30
0.0
 11
563.5008111481708966
 21
70.6422127129083606
 31
0.0
  0
LINE
  5
9565
  8
0
 10
563.4625237310707462
 20
70.6845624626051006
 30
0.0
 11
563.4625237310707462
 21
70.6422127129083606
 31
0.0
  0
LINE
  5
9566
  8
0
 10
563.4166581009710626
 20
70.6845624626051006
 30
0.0
 11
563.4166581009708352
 21
70.6422127129083606
 31
0.0
  0
LINE
  5
9567
  8
0
 10
563.3790669207709243
 20
70.6845624626051006
 30
0.0
 11
563.3790669207709243
 21
70.6422127129083606
 31
0.0
  0
LINE
  5
9568
  8
0
 10
563.3358967164707565
 20
70.6845624626051006
 30
0.0
 11
563.3358967164707565
 21
70.6422127129083606
 31
0.0
  0
LINE
  5
9569
  8
0
 10
563.299163933770842
 20
70.6845624626051006
 30
0.0
 11
563.299163933770842
 21
70.6422127129083606
 31
0.0
  0
LINE
  5
956A
  8
0
 10
563.2592583818708363
 20
70.6845624626051006
 30
0.0
 11
563.2592583818708363
 21
70.6422127129083606
 31
0.0
  0
LINE
  5
956B
  8
0
 10
563.2235383837708014
 20
70.6845624626051006
 30
0.0
 11
563.2235383837708014
 21
70.6422127129083606
 31
0.0
  0
LINE
  5
956C
  8
0
 10
563.187437145870831
 20
70.6845624626051006
 30
0.0
 11
563.187437145870831
 21
70.6422127129083606
 31
0.0
  0
LINE
  5
956D
  8
0
 10
563.1528751473707644
 20
70.6845624626051006
 30
0.0
 11
563.1528751473707644
 21
70.6422127129083606
 31
0.0
  0
LINE
  5
956E
  8
0
 10
563.1210834325707992
 20
70.6845624626051006
 30
0.0
 11
563.1210834325707992
 21
70.6422127129083606
 31
0.0
  0
LINE
  5
956F
  8
0
 10
563.0878141615709183
 20
70.6845624626051006
 30
0.0
 11
563.0878141615709183
 21
70.6422127129083606
 31
0.0
  0
LINE
  5
9570
  8
0
 10
563.0607981512707738
 20
70.6845624626051006
 30
0.0
 11
563.0607981512707738
 21
70.6422127129083606
 31
0.0
  0
LINE
  5
9571
  8
0
 10
563.0289446288708177
 20
70.6845624626051006
 30
0.0
 11
563.0289446288708177
 21
70.6422127129083606
 31
0.0
  0
LINE
  5
9572
  8
0
 10
563.0071272548708521
 20
70.6845624626051006
 30
0.0
 11
563.0071272548708521
 21
70.6422127129083606
 31
0.0
  0
LINE
  5
9573
  8
0
 10
562.9767996804708901
 20
70.6845624626051006
 30
0.0
 11
562.9767996804708901
 21
70.6422127129083606
 31
0.0
  0
LINE
  5
9574
  8
0
 10
562.9605567950708291
 20
70.6845624626051006
 30
0.0
 11
562.9605567950708291
 21
70.6422127129083606
 31
0.0
  0
LINE
  5
9575
  8
0
 10
562.9318515492708457
 20
70.6845624626051006
 30
0.0
 11
562.9318515492708457
 21
70.6422127129083606
 31
0.0
  0
LINE
  5
9576
  8
0
 10
562.92150852127088
 20
70.6845624626051006
 30
0.0
 11
562.92150852127088
 21
70.6422127129083606
 31
0.0
  0
LINE
  5
9577
  8
0
 10
562.8945072923706903
 20
70.6845624626051006
 30
0.0
 11
562.8945072923706903
 21
70.6422127129083606
 31
0.0
  0
LINE
  5
9578
  8
0
 10
562.8903360604707586
 20
70.6845624626051006
 30
0.0
 11
562.8903360604707586
 21
70.6422127129083606
 31
0.0
  0
LINE
  5
9579
  8
0
 10
562.8651051050709384
 20
70.6845624626051006
 30
0.0
 11
562.8651051050709384
 21
70.6422127129083606
 31
0.0
  0
LINE
  5
957A
  8
0
 10
562.8439112580707615
 20
70.6845624626051006
 30
0.0
 11
562.8439112580707615
 21
70.6422127129083606
 31
0.0
  0
LINE
  5
957B
  8
0
 10
562.8311176860707974
 20
70.6845624626051006
 30
0.0
 11
562.8311176860707974
 21
70.6422127129083606
 31
0.0
  0
ARC
  5
957C
  8
0
 10
564.5392042959707624
 20
70.6611595633083311
 30
0.0
 40
0.0504429133999993
 50
255.3657650603105083
 51
337.9379955033151077
  0
ARC
  5
957D
  8
0
 10
564.5137157408709072
 20
70.6611595633083311
 30
0.0
 40
0.0504429133999993
 50
222.2067817463405959
 51
337.9379955033151077
  0
ARC
  5
957E
  8
0
 10
564.4389870783708147
 20
70.6611595633083311
 30
0.0
 40
0.0504429133999993
 50
202.0620044966848923
 51
337.9379955033151077
  0
ARC
  5
957F
  8
0
 10
564.3620389416707894
 20
70.6611595633083311
 30
0.0
 40
0.0504429133999993
 50
253.9218346589775024
 51
319.7050155198026005
  0
ARC
  5
9580
  8
0
 10
564.3340987639709283
 20
70.6611595633083311
 30
0.0
 40
0.0504429133999993
 50
262.0302644925990876
 51
337.9379955033151077
  0
ARC
  5
9581
  8
0
 10
564.3201109433707643
 20
70.6611595633083311
 30
0.0
 40
0.0504429133999993
 50
202.0620044966848923
 51
337.9379955033151077
  0
ARC
  5
9582
  8
0
 10
564.2530132101709341
 20
70.6611595633083311
 30
0.0
 40
0.0504429133999993
 50
202.0620044966848923
 51
311.6889098768683084
  0
ARC
  5
9583
  8
0
 10
564.1651885479708426
 20
70.6611595633083311
 30
0.0
 40
0.0504429133999993
 50
202.0620044966848923
 51
337.9379955033151077
  0
ARC
  5
9584
  8
0
 10
564.1267194990707594
 20
70.6611595633083311
 30
0.0
 40
0.0504429133999993
 50
202.0620044966848923
 51
292.4150192053634782
  0
ARC
  5
9585
  8
0
 10
564.0980321949707559
 20
70.6611595633083311
 30
0.0
 40
0.0504429133999993
 50
202.0620044966848923
 51
286.5202472423713971
  0
ARC
  5
9586
  8
0
 10
563.9847775974708384
 20
70.6611595633083311
 30
0.0
 40
0.0504429133999993
 50
202.0620044966848923
 51
337.9379955033151077
  0
ARC
  5
9587
  8
0
 10
563.9675801392708081
 20
70.6611595633083311
 30
0.0
 40
0.0504429133999993
 50
202.0620044966848923
 51
279.8148307181090217
  0
ARC
  5
9588
  8
0
 10
563.7911727999709228
 20
70.6611595633083311
 30
0.0
 40
0.0504429133999993
 50
202.0620044966848923
 51
337.9379955033151077
  0
ARC
  5
9589
  8
0
 10
563.5975680024707799
 20
70.6611595633083311
 30
0.0
 40
0.0504429133999993
 50
202.0620044966848923
 51
337.9379955033151077
  0
ARC
  5
958A
  8
0
 10
563.6147654606708102
 20
70.6611595633083311
 30
0.0
 40
0.0504429133999993
 50
260.1851692818909783
 51
337.9379955033151077
  0
ARC
  5
958B
  8
0
 10
563.4843134048709317
 20
70.6611595633083311
 30
0.0
 40
0.0504429133999993
 50
253.4797527576284892
 51
337.9379955033151077
  0
ARC
  5
958C
  8
0
 10
563.4556261007709281
 20
70.6611595633083311
 30
0.0
 40
0.0504429133999993
 50
247.5849808560647887
 51
337.9379955033151077
  0
ARC
  5
958D
  8
0
 10
563.4171570519708894
 20
70.6611595633083311
 30
0.0
 40
0.0504429133999993
 50
202.0620044966848923
 51
337.9379955033151077
  0
ARC
  5
958E
  8
0
 10
563.4368420912709325
 20
70.6611595633083311
 30
0.0
 40
0.0504429133999993
 50
258.748152314514698
 51
280.7305646402879802
  0
ARC
  5
958F
  8
0
 10
563.3293323897709115
 20
70.6611595633083311
 30
0.0
 40
0.0504429133999993
 50
9.6134879496707573
 51
9.8303647490428219
  0
ARC
  5
9590
  8
0
 10
563.3293323897709115
 20
70.6611595633083311
 30
0.0
 40
0.0504429133999993
 50
228.311090123124103
 51
330.5208914715350943
  0
ARC
  5
9591
  8
0
 10
563.262234656570854
 20
70.6611595633083311
 30
0.0
 40
0.0504429133999993
 50
202.0620044966848923
 51
337.9379955033151077
  0
ARC
  5
9592
  8
0
 10
563.2203066581707844
 20
70.6611595633083311
 30
0.0
 40
0.0504429133999993
 50
220.2949845680149963
 51
286.0781654001282277
  0
ARC
  5
9593
  8
0
 10
563.2482468359709173
 20
70.6611595633083311
 30
0.0
 40
0.0504429133999993
 50
202.0620044966848923
 51
277.9697355073943754
  0
ARC
  5
9594
  8
0
 10
563.1433585215708035
 20
70.6611595633083311
 30
0.0
 40
0.0504429133999993
 50
202.0620044966848923
 51
337.9379955033151077
  0
ARC
  5
9595
  8
0
 10
563.0686298590709384
 20
70.6611595633083311
 30
0.0
 40
0.0504429133999993
 50
202.0620044966848923
 51
317.7932182536594041
  0
ARC
  5
9596
  8
0
 10
563.0431413038706978
 20
70.6611595633083311
 30
0.0
 40
0.0504429133999993
 50
202.0620044966848923
 51
284.6342349983805775
  0
ARC
  5
9597
  8
0
 10
564.1455035085713234
 20
70.6611595633031015
 30
0.0
 40
0.050442913394766
 50
259.269435358571684
 51
281.2518477418577163
  0
ENDSEC
  0
EOF
