  0
SECTION
  2
HEADER
  9
$ACADVER
  1
AC1009
  9
$INSBASE
 10
4905.0874115480082764
 20
512.0684971461049599
 30
0.0
  9
$EXTMIN
 10
4891.3828533408695876
 20
512.0476696786646471
 30
-0.0000000349181948
  9
$EXTMAX
 10
4918.9365777193070244
 20
554.7303054989429256
 30
0.0000000814935746
  9
$LIMMIN
 10
0.0
 20
0.0
  9
$LIMMAX
 10
11.6929133858000007
 20
8.2677165353999982
  9
$ORTHOMODE
 70
     0
  9
$REGENMODE
 70
     1
  9
$FILLMODE
 70
     1
  9
$QTEXTMODE
 70
     0
  9
$MIRRTEXT
 70
     0
  9
$DRAGMODE
 70
     2
  9
$LTSCALE
 40
0.6431102362
  9
$OSMODE
 70
     7
  9
$ATTMODE
 70
     1
  9
$TEXTSIZE
 40
0.2
  9
$TRACEWID
 40
0.05
  9
$TEXTSTYLE
  7
STANDARD
  9
$CLAYER
  8
0
  9
$CELTYPE
  6
BYLAYER
  9
$CECOLOR
 62
   256
  9
$DIMSCALE
 40
1.0
  9
$DIMASZ
 40
0.1875
  9
$DIMEXO
 40
0.0625
  9
$DIMDLI
 40
0.4443307087
  9
$DIMRND
 40
0.0
  9
$DIMDLE
 40
0.0
  9
$DIMEXE
 40
0.125
  9
$DIMTP
 40
0.01
  9
$DIMTM
 40
0.01
  9
$DIMTXT
 40
2.0
  9
$DIMCEN
 40
0.1052362205
  9
$DIMTSZ
 40
0.0
  9
$DIMTOL
 70
     1
  9
$DIMLIM
 70
     0
  9
$DIMTIH
 70
     1
  9
$DIMTOH
 70
     1
  9
$DIMSE1
 70
     0
  9
$DIMSE2
 70
     0
  9
$DIMTAD
 70
     0
  9
$DIMZIN
 70
     0
  9
$DIMBLK
  1

  9
$DIMASO
 70
     1
  9
$DIMSHO
 70
     1
  9
$DIMPOST
  1
\X
  9
$DIMAPOST
  1

  9
$DIMALT
 70
     1
  9
$DIMALTD
 70
     2
  9
$DIMALTF
 40
25.3999999999999986
  9
$DIMLFAC
 40
1.0
  9
$DIMTOFL
 70
     0
  9
$DIMTVP
 40
0.0
  9
$DIMTIX
 70
     0
  9
$DIMSOXD
 70
     0
  9
$DIMSAH
 70
     0
  9
$DIMBLK1
  1

  9
$DIMBLK2
  1

  9
$DIMSTYLE
  2
STANDARD
  9
$DIMCLRD
 70
     0
  9
$DIMCLRE
 70
     0
  9
$DIMCLRT
 70
     0
  9
$DIMTFAC
 40
1.0
  9
$DIMGAP
 40
0.09
  9
$LUNITS
 70
     2
  9
$LUPREC
 70
     4
  9
$SKETCHINC
 40
0.1
  9
$FILLETRAD
 40
0.0
  9
$AUNITS
 70
     0
  9
$AUPREC
 70
     0
  9
$MENU
  1
.
  9
$ELEVATION
 40
0.0
  9
$PELEVATION
 40
0.0
  9
$THICKNESS
 40
0.0
  9
$LIMCHECK
 70
     0
  9
$BLIPMODE
 70
     0
  9
$CHAMFERA
 40
0.0
  9
$CHAMFERB
 40
0.0
  9
$SKPOLY
 70
     0
  9
$TDCREATE
 40
2458060.468368056230247
  9
$TDUPDATE
 40
2459365.8387500001117587
  9
$TDINDWG
 40
1.5211311806000001
  9
$TDUSRTIMER
 40
1.5211311806000001
  9
$USRTIMER
 70
     1
  9
$ANGBASE
 50
0.0
  9
$ANGDIR
 70
     0
  9
$PDMODE
 70
     0
  9
$PDSIZE
 40
0.3125
  9
$PLINEWID
 40
0.0
  9
$COORDS
 70
     1
  9
$SPLFRAME
 70
     0
  9
$SPLINETYPE
 70
     6
  9
$SPLINESEGS
 70
     8
  9
$ATTDIA
 70
     1
  9
$ATTREQ
 70
     1
  9
$HANDLING
 70
     1
  9
$HANDSEED
  5
1D857
  9
$SURFTAB1
 70
     6
  9
$SURFTAB2
 70
     6
  9
$SURFTYPE
 70
     6
  9
$SURFU
 70
     6
  9
$SURFV
 70
     6
  9
$UCSNAME
  2

  9
$UCSORG
 10
0.0
 20
0.0
 30
0.0
  9
$UCSXDIR
 10
1.0
 20
0.0
 30
0.0
  9
$UCSYDIR
 10
0.0
 20
1.0
 30
0.0
  9
$PUCSNAME
  2

  9
$PUCSORG
 10
0.0
 20
0.0
 30
0.0
  9
$PUCSXDIR
 10
1.0
 20
0.0
 30
0.0
  9
$PUCSYDIR
 10
0.0
 20
1.0
 30
0.0
  9
$USERI1
 70
     0
  9
$USERI2
 70
     0
  9
$USERI3
 70
     0
  9
$USERI4
 70
     0
  9
$USERI5
 70
     0
  9
$USERR1
 40
0.0
  9
$USERR2
 40
0.0
  9
$USERR3
 40
0.0
  9
$USERR4
 40
0.0
  9
$USERR5
 40
0.0
  9
$WORLDVIEW
 70
     1
  9
$SHADEDGE
 70
     3
  9
$SHADEDIF
 70
    70
  9
$TILEMODE
 70
     1
  9
$MAXACTVP
 70
    64
  9
$PLIMCHECK
 70
     0
  9
$PEXTMIN
 10
1.0000000000000000E+20
 20
1.0000000000000000E+20
 30
1.0000000000000000E+20
  9
$PEXTMAX
 10
-1.0000000000000000E+20
 20
-1.0000000000000000E+20
 30
-1.0000000000000000E+20
  9
$PLIMMIN
 10
0.0
 20
0.0
  9
$PLIMMAX
 10
12.0
 20
9.0
  9
$UNITMODE
 70
     0
  9
$VISRETAIN
 70
     1
  9
$PLINEGEN
 70
     0
  9
$PSLTSCALE
 70
     1
  0
ENDSEC
  0
SECTION
  2
TABLES
  0
TABLE
  2
VPORT
 70
     1
  0
VPORT
  2
*ACTIVE
 70
     0
 10
0.0
 20
0.0
 11
1.0
 21
1.0
 12
993.7943590847770565
 22
400.8093824862647807
 13
0.0
 23
0.0
 14
1.0
 24
1.0
 15
0.0
 25
0.0
 16
0.0
 26
0.0
 36
60.4960186965801512
 17
3911.3653564453120453
 27
132.5796051025390057
 37
0.0
 40
43.010543393801413
 41
2.3461538461538458
 42
50.0
 43
0.0
 44
0.0
 50
0.0
 51
0.0
 71
     0
 72
   100
 73
     1
 74
     1
 75
     0
 76
     0
 77
     0
 78
     0
  0
ENDTAB
  0
TABLE
  2
LTYPE
 70
     1
  0
LTYPE
  2
CONTINUOUS
 70
     0
  3
Solid line
 72
    65
 73
     0
 40
0.0
  0
ENDTAB
  0
TABLE
  2
LAYER
 70
     2
  0
LAYER
  2
0
 70
     0
 62
   255
  6
CONTINUOUS
  0
LAYER
  2
DEFPOINTS
 70
     0
 62
     7
  6
CONTINUOUS
  0
ENDTAB
  0
TABLE
  2
STYLE
 70
     1
  0
STYLE
  2
STANDARD
 70
     0
 40
0.0
 41
0.8
 50
0.0
 71
     0
 42
0.2
  3
txt
  4

  0
ENDTAB
  0
TABLE
  2
VIEW
 70
     0
  0
ENDTAB
  0
TABLE
  2
UCS
 70
     0
  0
ENDTAB
  0
TABLE
  2
APPID
 70
    11
  0
APPID
  2
ACAD
 70
     0
  0
APPID
  2
ACADANNOTATIVE
 70
     0
  0
APPID
  2
ACAD_MLEADERVER
 70
     0
  0
APPID
  2
ACAD_EXEMPT_FROM_CAD_STANDARDS
 70
     0
  0
APPID
  2
ACAD_NAV_VCDISPLAY
 70
     0
  0
APPID
  2
ACAECLAYERSTANDARD
 70
     0
  0
APPID
  2
ACCMTRANSPARENCY
 70
     0
  0
APPID
  2
ACAD_DSTYLE_DIMJAG
 70
     0
  0
APPID
  2
ACAD_DSTYLE_DIMTALN
 70
     0
  0
APPID
  2
ACDBATTR
 70
     0
  0
APPID
  2
DCO15
 70
     0
  0
ENDTAB
  0
TABLE
  2
DIMSTYLE
 70
     1
  0
DIMSTYLE
  2
STANDARD
 70
     0
  3

  4

  5

  6

  7

 40
1.0
 41
0.1875
 42
0.0625
 43
0.38
 44
0.125
 45
0.0
 46
0.0
 47
0.01
 48
0.01
140
0.15625
141
0.09
142
0.0
143
25.3999999999999986
144
1.0
145
0.0
146
1.0
147
0.09
 71
     1
 72
     0
 73
     1
 74
     1
 75
     0
 76
     0
 77
     0
 78
     4
170
     0
171
     2
172
     0
173
     0
174
     0
175
     0
176
     0
177
     0
178
     0
  0
ENDTAB
  0
ENDSEC
  0
SECTION
  2
BLOCKS
  0
BLOCK
  8
0
  2
$MODEL_SPACE
 70
     0
 10
0.0
 20
0.0
 30
0.0
  3
$MODEL_SPACE
  1

  0
ENDBLK
  5
1CB30
  8
0
  0
BLOCK
 67
     1
  8
0
  2
$PAPER_SPACE
 70
     0
 10
0.0
 20
0.0
 30
0.0
  3
$PAPER_SPACE
  1

  0
ENDBLK
  5
1CB2C
 67
     1
  8
0
  0
ENDSEC
  0
SECTION
  2
ENTITIES
  0
ATTDEF
  5
159BF
  8
DEFPOINTS
 10
4905.0874134449049961
 20
512.0718320711390561
 30
0.0
 40
0.001
  1
K-20823T
  3

  2
MODELNUMBER
 70
     0
1001
ACDBATTR
1070
     0
1070
     1
  0
ATTDEF
  5
159C0
  8
DEFPOINTS
 10
4905.0874134449049961
 20
512.0701652307599261
 30
0.0
 40
0.001
  1
BROCKWAY
  3

  2
TRADENAME
 70
     0
1001
ACDBATTR
1070
     0
1070
     1
  0
ATTDEF
  5
159C1
  8
DEFPOINTS
 10
4905.0874134449049961
 20
512.0684987378056121
 30
0.0
 40
0.001
  1
VANITY CABINET
  3

  2
PRODUCT
 70
     0
1001
ACDBATTR
1070
     0
1070
     1
  0
LINE
  5
1D689
  8
0
 10
4918.4456528602504477
 20
512.0684971461049599
 30
0.0
 11
4916.8708501013652494
 21
512.0684971461049599
 31
0.0
  0
LINE
  5
1D68A
  8
0
 10
4893.3039736438995533
 20
512.0684971461049599
 30
0.0
 11
4891.7291702385218741
 21
512.0684971461049599
 31
0.0
  0
LINE
  5
1D68B
  8
0
 10
4891.5834820602076434
 20
545.9661420115548935
 30
0.0
 11
4918.591341035806181
 21
545.9661420115548935
 31
0.0
  0
LINE
  5
1D68C
  8
0
 10
4895.7175543314078823
 20
554.7161942421547565
 30
0.0
 11
4914.4572687646068516
 21
554.7161942421547565
 31
0.0
  0
LINE
  5
1D68D
  8
0
 10
4893.0120646900622887
 20
519.3519614340549424
 30
0.0
 11
4917.1627584059533547
 21
519.3519614340549424
 31
0.0
  0
LINE
  5
1D68E
  8
0
 10
4904.2803471681572773
 20
520.533060179204881
 30
0.0
 11
4893.0126303006072703
 21
520.533060179204881
 31
0.0
  0
LINE
  5
1D68F
  8
0
 10
4904.300032207557706
 20
520.533060179204881
 30
0.0
 11
4917.1621927954083731
 21
520.533060179204881
 31
0.0
  0
LINE
  5
1D690
  8
0
 10
4892.9890124826079045
 20
513.0133651612549102
 30
0.0
 11
4892.0441305928070506
 21
513.0133646297548466
 31
0.0
  0
LINE
  5
1D691
  8
0
 10
4892.9890125601068576
 20
512.8755698856549543
 30
0.0
 11
4892.0441306703078226
 21
512.8755693541547771
 31
0.0
  0
LINE
  5
1D692
  8
0
 10
4891.7345206193076592
 20
512.5466083042549599
 30
0.0
 11
4893.2986229812076999
 21
512.5466091839549563
 31
0.0
  0
LINE
  5
1D693
  8
0
 10
4892.0441305928070506
 20
513.0133646297548466
 30
0.0
 11
4892.0441306703078226
 21
512.8755693541547771
 31
0.0
  0
LINE
  5
1D694
  8
0
 10
4892.0441306703078226
 20
512.8755693541547771
 30
0.0
 11
4891.7345206193076592
 21
512.5466083042549599
 31
0.0
  0
ARC
  5
1D695
  8
0
 10
4891.7488552720269581
 20
512.5331168813278282
 30
0.0
 40
0.019685039018208
 50
136.735736223509889
 51
180.0000325202350098
  0
LINE
  5
1D696
  8
0
 10
4891.7291702330066983
 20
512.5331168701547995
 30
0.0
 11
4891.7291702385218741
 21
512.0684971461049599
 31
0.0
  0
LINE
  5
1D697
  8
0
 10
4892.9890124826079045
 20
513.0133651612549102
 30
0.0
 11
4892.9890125601068576
 21
512.8755698856549543
 31
0.0
  0
LINE
  5
1D698
  8
0
 10
4892.9890125601068576
 20
512.8755698856549543
 30
0.0
 11
4893.2986229812076999
 21
512.5466091839549563
 31
0.0
  0
ARC
  5
1D699
  8
0
 10
4893.284288342830223
 20
512.5331177446826132
 30
0.0
 40
0.0196850397784766
 50
0.0000325184307432
 51
43.2643270260345503
  0
LINE
  5
1D69A
  8
0
 10
4893.3039733826071824
 20
512.5331177558548461
 30
0.0
 11
4893.3039736438995533
 21
512.0684971461049599
 31
0.0
  0
LINE
  5
1D69B
  8
0
 10
4892.2210772446078408
 20
513.2299003285548906
 30
0.0
 11
4892.2210772446078408
 21
513.0133648955047647
 31
0.0
  0
LINE
  5
1D69C
  8
0
 10
4892.3688243607066397
 20
513.2299003285548906
 30
0.0
 11
4892.3688243607066397
 21
513.0133648955047647
 31
0.0
  0
LINE
  5
1D69D
  8
0
 10
4892.6643185929578976
 20
513.2299003285548906
 30
0.0
 11
4892.6643185929578976
 21
513.0133648955047647
 31
0.0
  0
LINE
  5
1D69E
  8
0
 10
4892.8120657091076282
 20
513.2299003285548906
 30
0.0
 11
4892.8120657091076282
 21
513.0133648955047647
 31
0.0
  0
ARC
  5
1D69F
  8
0
 10
4893.3448081814303805
 20
519.6275385896755097
 30
0.0
 40
0.4330663858960877
 50
155.8565272773533934
 51
204.1434727226466066
  0
LINE
  5
1D6A0
  8
0
 10
4892.0834834888073601
 20
513.2299000849549202
 30
0.0
 11
4892.9496246687076564
 21
513.2299000849549202
 31
0.0
  0
LINE
  5
1D6A1
  8
0
 10
4892.0834834888073601
 20
513.2299000849549202
 30
0.0
 11
4892.0834834888073601
 21
545.5330714216048591
 31
0.0
  0
LINE
  5
1D6A2
  8
0
 10
4892.9496246687076564
 20
513.2299000849549202
 30
0.0
 11
4892.9496246687076564
 21
545.5330714216048591
 31
0.0
  0
LINE
  5
1D6A3
  8
0
 10
4893.0008195031068681
 20
519.3637596407054389
 30
0.0
 11
4893.0008195031068681
 21
520.521304539056473
 31
0.0
  0
LINE
  5
1D6A4
  8
0
 10
4893.0008195031068681
 20
537.4735151801075972
 30
0.0
 11
4893.0008195031068681
 21
538.6319710756533823
 31
0.0
  0
ARC
  5
1D6A5
  8
0
 10
4893.0126313080281761
 20
519.3637596407054389
 30
0.0
 40
0.0118118049461818
 50
180.0037450019981975
 51
267.2504386686803173
  0
ARC
  5
1D6A6
  8
0
 10
4892.9693238449372075
 20
519.4110029452841673
 30
0.0
 40
0.0196850392292975
 50
180.0000317277429929
 51
270.0000325137473283
  0
LINE
  5
1D6A7
  8
0
 10
4892.9693238561076214
 20
519.391317906054951
 30
0.0
 11
4892.9811348797084065
 21
519.3913179126549267
 31
0.0
  0
ARC
  5
1D6A8
  8
0
 10
4892.9811348686071142
 20
519.4110029520547869
 30
0.0
 40
0.0196850394000046
 50
270.0000323079640907
 51
359.6325111911677936
  0
ARC
  5
1D6A9
  8
0
 10
4892.9693334340117872
 20
519.8440500738265655
 30
0.0
 40
0.019708779586443
 50
90.0286164539059115
 51
179.9310237539567083
  0
LINE
  5
1D6AA
  8
0
 10
4892.9693235904078392
 20
519.8637588509549232
 30
0.0
 11
4892.9811346140068054
 21
519.8637588575547852
 31
0.0
  0
ARC
  5
1D6AB
  8
0
 10
4892.9811346251071882
 20
519.844073818154925
 30
0.0
 40
0.0196850394000064
 50
0.2320179317208943
 51
90.0000323079120363
  0
ARC
  5
1D6AC
  8
0
 10
4893.0126473364653066
 20
520.5212321365170283
 30
0.0
 40
0.0118280549562302
 50
90.0825227008666332
 51
179.9658637404021135
  0
LINE
  5
1D6AD
  8
0
 10
4893.0126201149078042
 20
538.6432932255049764
 30
0.0
 11
4917.1622029811078392
 21
538.6432932255049764
 31
0.0
  0
LINE
  5
1D6AE
  8
0
 10
4893.0122203043483751
 20
537.4621908633049543
 30
0.0
 11
4917.1626027916663588
 21
537.4621908633049543
 31
0.0
  0
LINE
  5
1D6AF
  8
0
 10
4904.2803471681572773
 20
519.3519614340549424
 30
0.0
 11
4904.2803471681572773
 21
520.533060179204881
 31
0.0
  0
LINE
  5
1D6B0
  8
0
 10
4904.300032207557706
 20
519.3519614340549424
 30
0.0
 11
4904.300032207557706
 21
520.533060179204881
 31
0.0
  0
LINE
  5
1D6B1
  8
0
 10
4893.3452536713512018
 20
527.4818725673048903
 30
0.0
 11
4904.969851238526644
 21
527.4818725673048903
 31
0.0
  0
LINE
  5
1D6B2
  8
0
 10
4893.3452536713512018
 20
527.2456520505547815
 30
0.0
 11
4904.9689759511966258
 21
527.2456520505547815
 31
0.0
  0
LINE
  5
1D6B3
  8
0
 10
4905.1003554812559742
 20
525.9818725673547988
 30
0.0
 11
4893.2146337679050703
 21
525.9818725673547988
 31
0.0
  0
LINE
  5
1D6B4
  8
0
 10
4905.0996739876518404
 20
525.8243922523547553
 30
0.0
 11
4893.2139082796957155
 21
525.8243922523547553
 31
0.0
  0
LINE
  5
1D6B5
  8
0
 10
4893.2461290212377207
 20
524.4503765043549492
 30
0.0
 11
4905.0688113679398157
 21
524.4503765043549492
 31
0.0
  0
LINE
  5
1D6B6
  8
0
 10
4893.2461290212377207
 20
524.292896189404928
 30
0.0
 11
4905.0680905197077664
 21
524.292896189404928
 31
0.0
  0
LINE
  5
1D6B7
  8
0
 10
4905.0609376759857696
 20
523.0133686303048535
 30
0.0
 11
4893.2540038451152213
 21
523.0133686303048535
 31
0.0
  0
LINE
  5
1D6B8
  8
0
 10
4905.0602172947073996
 20
522.8558883154048544
 30
0.0
 11
4893.2540038451152213
 21
522.8558883154048544
 31
0.0
  0
LINE
  5
1D6B9
  8
0
 10
4905.0215660261937956
 20
521.5330536696549188
 30
0.0
 11
4893.2933747565002705
 21
521.5330536696549188
 31
0.0
  0
LINE
  5
1D6BA
  8
0
 10
4905.020847955206591
 20
521.3755733547549198
 30
0.0
 11
4893.2933747565002705
 21
521.3755733547549198
 31
0.0
  0
ARC
  5
1D6BB
  8
0
 10
4893.3452536713466543
 20
527.3637623089299495
 30
0.0
 40
0.1181102583750003
 50
89.9999999982803587
 51
270.0000000017196271
  0
LINE
  5
1D6BC
  8
0
 10
4893.2680646038279519
 20
527.2743649880030716
 30
0.0
 11
4893.2906258679349776
 21
525.9818725673547988
 31
0.0
  0
LINE
  5
1D6BD
  8
0
 10
4893.2933747853921886
 20
525.8243922523547553
 30
0.0
 11
4893.3173590901997159
 21
524.4503765043549492
 31
0.0
  0
LINE
  5
1D6BE
  8
0
 10
4893.3201080076569269
 20
524.292896189404928
 30
0.0
 11
4893.3424429619908551
 21
523.0133686303048535
 31
0.0
  0
LINE
  5
1D6BF
  8
0
 10
4893.3451918794462472
 20
522.8558883154048544
 30
0.0
 11
4893.3682828429073197
 21
521.5330504142549444
 31
0.0
  0
ARC
  5
1D6C0
  8
0
 10
4893.2933747564757141
 20
521.4543135122047488
 30
0.0
 40
0.0787401574499995
 50
89.9999999822825174
 51
270.0000000177175252
  0
ARC
  5
1D6C1
  8
0
 10
4893.2540038450879365
 20
522.9346284728547971
 30
0.0
 40
0.0787401574499986
 50
89.9999999808234463
 51
270.0000000191765821
  0
ARC
  5
1D6C2
  8
0
 10
4893.2461290212113454
 20
524.3716363468798818
 30
0.0
 40
0.0787401574749995
 50
89.9999999810839739
 51
270.0000000189160119
  0
ARC
  5
1D6C3
  8
0
 10
4893.214633680227962
 20
525.9031307391511518
 30
0.0
 40
0.0787418282038582
 50
89.9999362025667864
 51
269.4721613937729785
  0
ARC
  5
1D6C4
  8
0
 10
4905.0996291644169105
 20
525.9032439367969118
 30
0.0
 40
0.0786319850923022
 50
359.9250640536163814
 51
89.4707563197526383
  0
ARC
  5
1D6C5
  8
0
 10
4905.0996294736796699
 20
525.9030239356161474
 30
0.0
 40
0.0786316958611423
 50
270.0324355573389994
 51
0.0853699137504554
  0
ARC
  5
1D6C6
  8
0
 10
4905.0680861396658656
 20
524.3716380167294346
 30
0.0
 40
0.0787418274463668
 50
270.0031870974714252
 51
89.4722867359175638
  0
ARC
  5
1D6C7
  8
0
 10
4905.0602129343324123
 20
522.9346301404648329
 30
0.0
 40
0.0787418251805883
 50
270.0031727881125789
 51
89.4726408207683761
  0
ARC
  5
1D6C8
  8
0
 10
4905.0208436991997587
 20
521.4543151687236104
 30
0.0
 40
0.078741814083714
 50
270.0030968458742109
 51
89.4743978265592546
  0
ARC
  5
1D6C9
  8
0
 10
4903.6639861432067846
 20
521.4792322711549559
 30
0.0
 40
1.2807831335000019
 50
298.7662640637402092
 51
299.7757837071742983
  0
ARC
  5
1D6CA
  8
0
 10
4903.6639861432067846
 20
521.4792322711549559
 30
0.0
 40
1.2807831335000019
 50
312.3753846398120118
 51
355.3577452668661749
  0
ARC
  5
1D6CB
  8
0
 10
4894.650239090507057
 20
521.4792272015547496
 30
0.0
 40
1.28078313349999
 50
184.6420271983888881
 51
227.6242788725685102
  0
LINE
  5
1D6CC
  8
0
 10
4893.3598438823337347
 20
527.2456520505547815
 30
0.0
 11
4893.3812647958193338
 21
525.9818725673547988
 31
0.0
  0
LINE
  5
1D6CD
  8
0
 10
4893.3839340686217838
 20
525.8243922523547553
 30
0.0
 11
4893.4072234738187035
 21
524.4503765043549492
 31
0.0
  0
LINE
  5
1D6CE
  8
0
 10
4893.409892746622063
 20
524.292896189404928
 30
0.0
 11
4893.431580588138786
 21
523.0133686303048535
 31
0.0
  0
LINE
  5
1D6CF
  8
0
 10
4893.4342498609403265
 20
522.8558883154048544
 30
0.0
 11
4893.4566718068072078
 21
521.5330504644548455
 31
0.0
  0
ARC
  5
1D6D0
  8
0
 10
4894.7526881943067565
 20
521.4744050651436282
 30
0.0
 40
1.294567839541515
 50
184.3784147875672943
 51
226.6479899324376959
  0
LINE
  5
1D6D1
  8
0
 10
4893.5173468175962626
 20
527.2456520505547815
 30
0.0
 11
4893.5387677310891377
 21
525.9818725673547988
 31
0.0
  0
LINE
  5
1D6D2
  8
0
 10
4893.5414370038934067
 20
525.8243922523547553
 30
0.0
 11
4893.5647264090994213
 21
524.4503765043549492
 31
0.0
  0
LINE
  5
1D6D3
  8
0
 10
4893.5673956819027808
 20
524.292896189404928
 30
0.0
 11
4893.5890835234304177
 21
523.0133686303048535
 31
0.0
  0
LINE
  5
1D6D4
  8
0
 10
4893.5917527962319582
 20
522.8558883154048544
 30
0.0
 11
4893.6141747406081777
 21
521.5330505529549328
 31
0.0
  0
ARC
  5
1D6D5
  8
0
 10
4894.7448723404404518
 20
521.4714490014722514
 30
0.0
 40
1.129016978785728
 50
184.8714003752141082
 51
236.2176331504763027
  0
LINE
  5
1D6D6
  8
0
 10
4894.6370074654523705
 20
527.2456520505547815
 30
0.0
 11
4894.651456241975211
 21
525.9818725673547988
 31
0.0
  0
LINE
  5
1D6D7
  8
0
 10
4894.6532567126341746
 20
525.8243922523547553
 30
0.0
 11
4894.6689658191244234
 21
524.4503765043549492
 31
0.0
  0
LINE
  5
1D6D8
  8
0
 10
4894.6707662897806586
 20
524.292896189404928
 30
0.0
 11
4894.6853951138782577
 21
523.0133686303048535
 31
0.0
  0
LINE
  5
1D6D9
  8
0
 10
4894.6871955845335833
 20
522.8558883154048544
 30
0.0
 11
4894.7023195667070468
 21
521.5330511641549265
 31
0.0
  0
LINE
  5
1D6DA
  8
0
 10
4894.7944980724632842
 20
527.2456520505547815
 30
0.0
 11
4894.8089468489861247
 21
525.9818725673547988
 31
0.0
  0
LINE
  5
1D6DB
  8
0
 10
4894.8107473196441788
 20
525.8243922523547553
 30
0.0
 11
4894.8264564261344276
 21
524.4503765043549492
 31
0.0
  0
LINE
  5
1D6DC
  8
0
 10
4894.8282568967933912
 20
524.292896189404928
 30
0.0
 11
4894.8428857208900808
 21
523.0133686303048535
 31
0.0
  0
LINE
  5
1D6DD
  8
0
 10
4894.8446861915472255
 20
522.8558883154048544
 30
0.0
 11
4894.8598101727066023
 21
521.5330512527549445
 31
0.0
  0
LINE
  5
1D6DE
  8
0
 10
4896.7222038596701168
 20
527.2456520505547815
 30
0.0
 11
4896.7290347685366214
 21
525.9818725673547988
 31
0.0
  0
LINE
  5
1D6DF
  8
0
 10
4896.7298859721649933
 20
525.8243922523547553
 30
0.0
 11
4896.7373127238097368
 21
524.4503765043549492
 31
0.0
  0
LINE
  5
1D6E0
  8
0
 10
4896.7381639274362897
 20
524.292896189404928
 30
0.0
 11
4896.7450799569060109
 21
523.0133686303048535
 31
0.0
  0
LINE
  5
1D6E1
  8
0
 10
4896.7459311605316543
 20
522.8558883154048544
 30
0.0
 11
4896.7530812783079455
 21
521.5330523175548478
 31
0.0
  0
LINE
  5
1D6E2
  8
0
 10
4896.8796864750238456
 20
527.2456520505547815
 30
0.0
 11
4896.8865173838958071
 21
525.9818725673547988
 31
0.0
  0
LINE
  5
1D6E3
  8
0
 10
4896.887368587524179
 20
525.8243922523547553
 30
0.0
 11
4896.894795339175289
 21
524.4503765043549492
 31
0.0
  0
LINE
  5
1D6E4
  8
0
 10
4896.8956465428027514
 20
524.292896189404928
 30
0.0
 11
4896.9025625722779296
 21
523.0133686303048535
 31
0.0
  0
LINE
  5
1D6E5
  8
0
 10
4896.903413775905392
 20
522.8558883154048544
 30
0.0
 11
4896.9105638932069269
 21
521.5330524061547521
 31
0.0
  0
LINE
  5
1D6E6
  8
0
 10
4899.0783693293078613
 20
527.2456520505547815
 30
0.0
 11
4899.0783693293078613
 21
525.9818725673547988
 31
0.0
  0
LINE
  5
1D6E7
  8
0
 10
4899.0783693293078613
 20
525.8243922523547553
 30
0.0
 11
4899.0783693293078613
 21
524.4503765043549492
 31
0.0
  0
LINE
  5
1D6E8
  8
0
 10
4899.0783693293078613
 20
524.292896189404928
 30
0.0
 11
4899.0783693293078613
 21
523.0133686303048535
 31
0.0
  0
LINE
  5
1D6E9
  8
0
 10
4899.0783693293078613
 20
522.8558883154048544
 30
0.0
 11
4899.0783693293078613
 21
521.5330536696549188
 31
0.0
  0
LINE
  5
1D6EA
  8
0
 10
4899.0783693293078613
 20
521.3755733547549198
 30
0.0
 11
4899.0783693293078613
 21
520.533060179204881
 31
0.0
  0
LINE
  5
1D6EB
  8
0
 10
4899.2358496443066542
 20
527.2456520505547815
 30
0.0
 11
4899.2358496443066542
 21
525.9818725673547988
 31
0.0
  0
LINE
  5
1D6EC
  8
0
 10
4899.2358496443066542
 20
525.8243922523547553
 30
0.0
 11
4899.2358496443066542
 21
524.4503765043549492
 31
0.0
  0
LINE
  5
1D6ED
  8
0
 10
4899.2358496443066542
 20
524.292896189404928
 30
0.0
 11
4899.2358496443066542
 21
523.0133686303048535
 31
0.0
  0
LINE
  5
1D6EE
  8
0
 10
4899.2358496443066542
 20
522.8558883154048544
 30
0.0
 11
4899.2358496443066542
 21
521.5330536696549188
 31
0.0
  0
LINE
  5
1D6EF
  8
0
 10
4899.2358496443066542
 20
521.3755733547549198
 30
0.0
 11
4899.2358496443066542
 21
520.533060179204881
 31
0.0
  0
LINE
  5
1D6F0
  8
0
 10
4901.4345322585459144
 20
527.2456520505547815
 30
0.0
 11
4901.4277027712523704
 21
525.9818725673547988
 31
0.0
  0
LINE
  5
1D6F1
  8
0
 10
4901.4268517447681006
 20
525.8243922523547553
 30
0.0
 11
4901.419426538694097
 21
524.4503765043549492
 31
0.0
  0
LINE
  5
1D6F2
  8
0
 10
4901.4185755122116461
 20
524.292896189404928
 30
0.0
 11
4901.4116609220291139
 21
523.0133686303048535
 31
0.0
  0
LINE
  5
1D6F3
  8
0
 10
4901.4108098955457535
 20
522.8558883154048544
 30
0.0
 11
4901.4036612799072827
 21
521.5330549331548582
 31
0.0
  0
LINE
  5
1D6F4
  8
0
 10
4901.5920148729173889
 20
527.2456520505547815
 30
0.0
 11
4901.5851853856338494
 21
525.9818725673547988
 31
0.0
  0
LINE
  5
1D6F5
  8
0
 10
4901.5843343591513985
 20
525.8243922523547553
 30
0.0
 11
4901.5769091530910373
 21
524.4503765043549492
 31
0.0
  0
LINE
  5
1D6F6
  8
0
 10
4901.576058126607677
 20
524.292896189404928
 30
0.0
 11
4901.5691435364378776
 21
523.0133686303048535
 31
0.0
  0
LINE
  5
1D6F7
  8
0
 10
4901.5682925099554268
 20
522.8558883154048544
 30
0.0
 11
4901.5611438948071736
 21
521.5330550217547625
 31
0.0
  0
LINE
  5
1D6F8
  8
0
 10
4903.519720618750398
 20
527.2456520505547815
 30
0.0
 11
4903.5052732639942406
 21
525.9818725673547988
 31
0.0
  0
LINE
  5
1D6F9
  8
0
 10
4903.5034729705030259
 20
525.8243922523547553
 30
0.0
 11
4903.4877654097963386
 21
524.4503765043549492
 31
0.0
  0
LINE
  5
1D6FA
  8
0
 10
4903.485965116305124
 20
524.292896189404928
 30
0.0
 11
4903.4713377316920742
 21
523.0133686303048535
 31
0.0
  0
LINE
  5
1D6FB
  8
0
 10
4903.4695374382008595
 20
522.8558883154048544
 30
0.0
 11
4903.4544150005067422
 21
521.5330560865548932
 31
0.0
  0
LINE
  5
1D6FC
  8
0
 10
4903.6772112236803878
 20
527.2456520505547815
 30
0.0
 11
4903.6627638689360538
 21
525.9818725673547988
 31
0.0
  0
LINE
  5
1D6FD
  8
0
 10
4903.6609635754466581
 20
525.8243922523547553
 30
0.0
 11
4903.6452560147536133
 21
524.4503765043549492
 31
0.0
  0
LINE
  5
1D6FE
  8
0
 10
4903.6434557212642176
 20
524.292896189404928
 30
0.0
 11
4903.6288283366639007
 21
523.0133686303048535
 31
0.0
  0
LINE
  5
1D6FF
  8
0
 10
4903.6270280431754145
 20
522.8558883154048544
 30
0.0
 11
4903.6119056065072073
 21
521.5330561751549112
 31
0.0
  0
LINE
  5
1D700
  8
0
 10
4904.7968718221945892
 20
527.2456520505547815
 30
0.0
 11
4904.7754523306712144
 21
525.9818725673547988
 31
0.0
  0
LINE
  5
1D701
  8
0
 10
4904.7727832350601602
 20
525.8243922523547553
 30
0.0
 11
4904.7494953758578049
 21
524.4503765043549492
 31
0.0
  0
LINE
  5
1D702
  8
0
 10
4904.7468262802476602
 20
524.292896189404928
 30
0.0
 11
4904.7251398784110279
 21
523.0133686303048535
 31
0.0
  0
LINE
  5
1D703
  8
0
 10
4904.7224707827999737
 20
522.8558883154048544
 30
0.0
 11
4904.7000504325078509
 21
521.5330567871549192
 31
0.0
  0
LINE
  5
1D704
  8
0
 10
4904.9543747544094003
 20
527.2456520505547815
 30
0.0
 11
4904.9329552629042155
 21
525.9818725673547988
 31
0.0
  0
LINE
  5
1D705
  8
0
 10
4904.9302861672958898
 20
525.8243922523547553
 30
0.0
 11
4904.9069983081126338
 21
524.4503765043549492
 31
0.0
  0
LINE
  5
1D706
  8
0
 10
4904.9043292125061271
 20
524.292896189404928
 30
0.0
 11
4904.8826428106867752
 21
523.0133686303048535
 31
0.0
  0
LINE
  5
1D707
  8
0
 10
4904.8799737150802684
 20
522.8558883154048544
 30
0.0
 11
4904.8575533663088208
 21
521.5330568756548928
 31
0.0
  0
LINE
  5
1D708
  8
0
 10
4904.9459423303069343
 20
521.5330569254548436
 30
0.0
 11
4904.9690316916558004
 21
522.8558883154048544
 31
0.0
  0
LINE
  5
1D709
  8
0
 10
4904.9717804319143397
 20
523.0133686303048535
 30
0.0
 11
4904.994113946518155
 21
524.292896189404928
 31
0.0
  0
LINE
  5
1D70A
  8
0
 10
4904.9968626867757848
 20
524.4503765043549492
 30
0.0
 11
4905.020845445535997
 21
525.8243922523547553
 31
0.0
  0
LINE
  5
1D70B
  8
0
 10
4905.0235941857954458
 20
525.9818725673547988
 30
0.0
 11
4905.0461538974850555
 21
527.2743593677454328
 31
0.0
  0
ARC
  5
1D70C
  8
0
 10
4904.9689707290808656
 20
527.3637639499169154
 30
0.0
 40
0.1181118994774834
 50
270.002533234944508
 51
89.5728631698530364
  0
ARC
  5
1D70D
  8
0
 10
4896.2932184349310774
 20
521.431018151152557
 30
0.0
 40
1.588288523712635
 50
182.0005171208331092
 51
214.4274328190543883
  0
ARC
  5
1D70E
  8
0
 10
4896.2032689814031983
 20
521.4097621757991874
 30
0.0
 40
1.3400760723143059
 50
181.461922765430387
 51
220.8603872852519032
  0
ARC
  5
1D70F
  8
0
 10
4899.5696626910139457
 20
521.3972895936549321
 30
0.0
 40
2.815046725114541
 50
180.4420037387675961
 51
197.878744591278803
  0
ARC
  5
1D710
  8
0
 10
4899.4324787060022572
 20
521.3830942364936618
 30
0.0
 40
2.5201535421387642
 50
180.1709877649417137
 51
199.7121289538567055
  0
ARC
  5
1D711
  8
0
 10
4898.8817466407454049
 20
521.3830939257221644
 30
0.0
 40
2.5201535371364261
 50
340.287878510602809
 51
359.829019300149298
  0
ARC
  5
1D712
  8
0
 10
4898.7274519896391212
 20
521.3987269046222082
 30
0.0
 40
2.8321682530628758
 50
342.2024182115141002
 51
359.5315901644827932
  0
ARC
  5
1D713
  8
0
 10
4902.1109563300342415
 20
521.4097654984747123
 30
0.0
 40
1.340076072726353
 50
319.1394248916607808
 51
358.5379351257066105
  0
ARC
  5
1D714
  8
0
 10
4902.0210068525238967
 20
521.4310213727602559
 30
0.0
 40
1.5882885241968101
 50
325.5724262981037214
 51
357.9993665928969904
  0
ARC
  5
1D715
  8
0
 10
4903.5693528812016666
 20
521.4714539745970114
 30
0.0
 40
1.1290170010872731
 50
303.7819146538533914
 51
355.128346428247994
  0
ARC
  5
1D716
  8
0
 10
4903.5615370554487527
 20
521.4744100129006483
 30
0.0
 40
1.2945678276310639
 50
303.7280064716965171
 51
304.7820930525650169
  0
ARC
  5
1D717
  8
0
 10
4903.5615370554487527
 20
521.4744100129006483
 30
0.0
 40
1.2945678276310639
 50
313.3516905167746245
 51
355.6213655502136248
  0
ARC
  5
1D718
  8
0
 10
4893.3447978854283065
 20
538.0527354400753666
 30
0.0
 40
0.4330663858960877
 50
155.8565272773533934
 51
204.1434727226466066
  0
ARC
  5
1D719
  8
0
 10
4892.9693135489360429
 20
537.8361997956842515
 30
0.0
 40
0.0196850392292975
 50
180.0000317277429929
 51
270.0000325137473283
  0
LINE
  5
1D71A
  8
0
 10
4892.9693135601055474
 20
537.8165147564549216
 30
0.0
 11
4892.9811245837063325
 21
537.8165147630550109
 31
0.0
  0
ARC
  5
1D71B
  8
0
 10
4892.9811245726068591
 20
537.8361998024549848
 30
0.0
 40
0.0196850394000046
 50
270.0000323079640907
 51
359.6325111911677936
  0
ARC
  5
1D71C
  8
0
 10
4892.9693231380106226
 20
538.2692469242266498
 30
0.0
 40
0.019708779586443
 50
90.0286164539059115
 51
179.9310237539567083
  0
LINE
  5
1D71D
  8
0
 10
4892.9693132944066747
 20
538.2889557013550075
 30
0.0
 11
4892.9811243180065503
 21
538.2889557079549832
 31
0.0
  0
ARC
  5
1D71E
  8
0
 10
4892.9811243291069331
 20
538.2692706685550093
 30
0.0
 40
0.0196850394000064
 50
0.2320179317208943
 51
90.0000323079120363
  0
ARC
  5
1D71F
  8
0
 10
4893.012632119139198
 20
538.6314699925419518
 30
0.0
 40
0.0118232390568975
 50
90.058172885349677
 51
177.5710083396108985
  0
ARC
  5
1D720
  8
0
 10
4893.0126207725079439
 20
537.4739950957548444
 30
0.0
 40
0.0118110236000008
 50
182.3287323855259103
 51
268.0569394478180811
  0
LINE
  5
1D721
  8
0
 10
4905.8748251714578146
 20
538.6432932255049764
 30
0.0
 11
4905.8748251714578146
 21
537.4621908633049543
 31
0.0
  0
LINE
  5
1D722
  8
0
 10
4905.8945102108573337
 20
538.6432932255049764
 30
0.0
 11
4905.8945102108573337
 21
537.4621908633049543
 31
0.0
  0
LINE
  5
1D723
  8
0
 10
4904.9693132719075948
 20
538.2102222929548816
 30
0.0
 11
4904.9693134490071316
 21
537.8952616630549528
 31
0.0
  0
LINE
  5
1D724
  8
0
 10
4905.2055337443071039
 20
538.2102224257548642
 30
0.0
 11
4905.2055339214075502
 21
537.8952617958549354
 31
0.0
  0
ARC
  5
1D725
  8
0
 10
4905.0874235081073493
 20
538.2102223593549297
 30
0.0
 40
0.1181102362000193
 50
0.0000322109316632
 51
180.00003221091211
  0
ARC
  5
1D726
  8
0
 10
4905.0874236852077956
 20
537.8952617294547736
 30
0.0
 40
0.1181102362000184
 50
180.0000322109316073
 51
0.0000322109153788
  0
LINE
  5
1D727
  8
0
 10
4892.2497401828077273
 20
551.6911458285549088
 30
0.0
 11
4891.5834820602076434
 21
545.9661420115548935
 31
0.0
  0
LINE
  5
1D728
  8
0
 10
4892.6107311007308454
 20
546.7161420115548935
 30
0.0
 11
4917.5640919952838885
 21
546.7161420115548935
 31
0.0
  0
ARC
  5
1D729
  8
0
 10
4892.6145875310212432
 20
545.6561490263328551
 30
0.0
 40
1.0600000003653469
 50
90.2084506292353012
 51
162.994986178487693
  0
ARC
  5
1D72A
  8
0
 10
4898.1084719415794098
 20
545.7837551184793483
 30
0.0
 40
4.741027849342597
 50
154.2268965967078032
 51
168.6580858842270914
  0
ARC
  5
1D72B
  8
0
 10
4878.3015752648852867
 20
555.7701877265964185
 30
0.0
 40
17.4418803089163106
 50
332.9758641790455727
 51
356.5355451951592158
  0
ARC
  5
1D72C
  8
0
 10
4895.7187919928501287
 20
551.2145582454658097
 30
0.0
 40
3.5016362154162781
 50
90.0202513265800519
 51
172.1775216436591904
  0
CIRCLE
  5
1D72D
  8
0
 10
4905.0874151295065531
 20
551.7161415291549247
 30
0.0
 40
0.6900001165000003
  0
CIRCLE
  5
1D72E
  8
0
 10
4905.0874134490077267
 20
548.7161416000549252
 30
0.0
 40
0.6900001840999997
  0
LINE
  5
1D72F
  8
0
 10
4903.5647449400294136
 20
538.9673064337049482
 30
0.0
 11
4906.6100781559862298
 21
538.9673064337049482
 31
0.0
  0
ARC
  5
1D730
  8
0
 10
4902.8569768488905538
 20
538.6568578942762997
 30
0.0
 40
0.7728608972293022
 50
23.6837129183365001
 51
87.5383298751449672
  0
ARC
  5
1D731
  8
0
 10
4957.1080169938986728
 20
2087.9367494710268147
 30
0.0
 40
1549.4566168844880849
 50
267.7800667349761738
 51
267.9947241285095174
  0
ARC
  5
1D732
  8
0
 10
4862.2410350849686438
 20
536.6968584673543319
 30
0.0
 40
32.4244690429039508
 50
9.6232356470785572
 51
16.6110451469469105
  0
ARC
  5
1D733
  8
0
 10
4896.6585207235466441
 20
542.0818254439240036
 30
0.0
 40
2.3354602411278709
 50
207.2375397356155986
 51
248.0611277577370117
  0
ARC
  5
1D734
  8
0
 10
4897.1828049406585706
 20
543.3433989262806563
 30
0.0
 40
3.7015862119157008
 50
247.8293862874774902
 51
268.5496529221637729
  0
ARC
  5
1D735
  8
0
 10
4898.4963232486497873
 20
542.9493955353904084
 30
0.0
 40
4.3671082554375822
 50
190.9853075127099089
 51
206.3223201912875879
  0
ARC
  5
1D736
  8
0
 10
4892.5165540787565988
 20
545.5330714216048591
 30
0.0
 40
0.4330705899500018
 50
0.0
 51
180.0
  0
LINE
  5
1D738
  8
0
 10
4917.1858106134077389
 20
513.0133651612549102
 30
0.0
 11
4918.1306925032076833
 21
513.0133648955047647
 31
0.0
  0
LINE
  5
1D739
  8
0
 10
4917.1858105359078763
 20
512.8755698856549543
 30
0.0
 11
4918.1306924257078208
 21
512.8755693541547771
 31
0.0
  0
LINE
  5
1D73A
  8
0
 10
4918.4403024767070747
 20
512.5466083042549599
 30
0.0
 11
4916.8762001148079435
 21
512.5466091839549563
 31
0.0
  0
LINE
  5
1D73B
  8
0
 10
4918.1306925032076833
 20
513.0133648955047647
 30
0.0
 11
4918.1306924257078208
 21
512.8755693541547771
 31
0.0
  0
LINE
  5
1D73C
  8
0
 10
4918.1306924257078208
 20
512.8755693541547771
 30
0.0
 11
4918.4403024767070747
 21
512.5466083042549599
 31
0.0
  0
ARC
  5
1D73D
  8
0
 10
4918.4259678239886853
 20
512.5331168813278282
 30
0.0
 40
0.0196850390182116
 50
0.0303259130126618
 51
43.2642637764924771
  0
LINE
  5
1D73E
  8
0
 10
4917.1858106134077389
 20
513.0133651612549102
 30
0.0
 11
4917.1858105359078763
 21
512.8755698856549543
 31
0.0
  0
LINE
  5
1D73F
  8
0
 10
4917.1858105359078763
 20
512.8755698856549543
 30
0.0
 11
4916.8762001148079435
 21
512.5466091839549563
 31
0.0
  0
ARC
  5
1D740
  8
0
 10
4916.89053239696932
 20
512.5331192427680662
 30
0.0
 40
0.019682297253878
 50
136.7341477004966066
 51
179.976544089485003
  0
LINE
  5
1D741
  8
0
 10
4917.9537458514068931
 20
513.2299003285548906
 30
0.0
 11
4917.9537458514068931
 21
513.0133648955047647
 31
0.0
  0
LINE
  5
1D742
  8
0
 10
4917.8059987353071847
 20
513.2299003285548906
 30
0.0
 11
4917.8059987353071847
 21
513.0133648955047647
 31
0.0
  0
LINE
  5
1D743
  8
0
 10
4917.5105045030577458
 20
513.2299003285548906
 30
0.0
 11
4917.5105045030577458
 21
513.0133648955047647
 31
0.0
  0
LINE
  5
1D744
  8
0
 10
4917.3627573869071057
 20
513.2299003285548906
 30
0.0
 11
4917.3627573869071057
 21
513.0133648955047647
 31
0.0
  0
ARC
  5
1D745
  8
0
 10
4916.8300149145861724
 20
519.6275385896755097
 30
0.0
 40
0.4330663858960877
 50
335.8565272773533934
 51
24.1434727226466315
  0
LINE
  5
1D746
  8
0
 10
4918.0913396072073738
 20
513.2299000849549202
 30
0.0
 11
4917.2251984273070775
 21
513.2299000849549202
 31
0.0
  0
LINE
  5
1D747
  8
0
 10
4918.0913396072073738
 20
513.2299000849549202
 30
0.0
 11
4918.0913396072073738
 21
545.5330714216048591
 31
0.0
  0
LINE
  5
1D748
  8
0
 10
4917.2251984273070775
 20
513.2299000849549202
 30
0.0
 11
4917.2251984273070775
 21
545.5330714216048591
 31
0.0
  0
LINE
  5
1D749
  8
0
 10
4917.1740035929078658
 20
519.3637596407054389
 30
0.0
 11
4917.1740035929078658
 21
520.521304539056473
 31
0.0
  0
LINE
  5
1D74A
  8
0
 10
4917.1740035929078658
 20
537.4735151801075972
 30
0.0
 11
4917.1740035929078658
 21
538.6319710756533823
 31
0.0
  0
ARC
  5
1D74B
  8
0
 10
4917.1621917879865578
 20
519.3637596407054389
 30
0.0
 40
0.0118118049461818
 50
272.7495613313196827
 51
359.9962549980018025
  0
ARC
  5
1D74C
  8
0
 10
4917.2054992510784359
 20
519.4110029452841673
 30
0.0
 40
0.0196850392292975
 50
269.9999674862526717
 51
359.9999682722569787
  0
LINE
  5
1D74D
  8
0
 10
4917.2054992399071125
 20
519.391317906054951
 30
0.0
 11
4917.1936882163081464
 21
519.3913179126549267
 31
0.0
  0
ARC
  5
1D74E
  8
0
 10
4917.1936882274067102
 20
519.4110029520547869
 30
0.0
 40
0.0196850394000046
 50
180.3674888088320927
 51
269.9999676920357956
  0
ARC
  5
1D74F
  8
0
 10
4917.2054896620029467
 20
519.8440500738265655
 30
0.0
 40
0.019708779586443
 50
0.0689762460432314
 51
89.9713835460941169
  0
LINE
  5
1D750
  8
0
 10
4917.2054995056078042
 20
519.8637588509549232
 30
0.0
 11
4917.1936884820079285
 21
519.8637588575547852
 31
0.0
  0
ARC
  5
1D751
  8
0
 10
4917.1936884709066362
 20
519.844073818154925
 30
0.0
 40
0.0196850394000064
 50
89.9999676920879637
 51
179.7679820682791103
  0
ARC
  5
1D752
  8
0
 10
4917.1621757595503368
 20
520.5212321365170283
 30
0.0
 40
0.0118280549562302
 50
0.0341362595978801
 51
89.9174772991333526
  0
ARC
  5
1D753
  8
0
 10
4916.8300252105864274
 20
538.0527354400753666
 30
0.0
 40
0.4330663858960877
 50
335.8565272773533934
 51
24.1434727226466315
  0
ARC
  5
1D754
  8
0
 10
4917.205509547078691
 20
537.8361997956842515
 30
0.0
 40
0.0196850392292975
 50
269.9999674862526717
 51
359.9999682722569787
  0
LINE
  5
1D755
  8
0
 10
4917.205509535908277
 20
537.8165147564549216
 30
0.0
 11
4917.1936985123084014
 21
537.8165147630550109
 31
0.0
  0
ARC
  5
1D756
  8
0
 10
4917.1936985234087842
 20
537.8361998024549848
 30
0.0
 40
0.0196850394000046
 50
180.3674888088320927
 51
269.9999676920357956
  0
ARC
  5
1D757
  8
0
 10
4917.2054999580041112
 20
538.2692469242266498
 30
0.0
 40
0.019708779586443
 50
0.0689762460432314
 51
89.9713835460941169
  0
LINE
  5
1D758
  8
0
 10
4917.2055098016080592
 20
538.2889557013550075
 30
0.0
 11
4917.1936987780081836
 21
538.2889557079549832
 31
0.0
  0
ARC
  5
1D759
  8
0
 10
4917.1936987669078007
 20
538.2692706685550093
 30
0.0
 40
0.0196850394000064
 50
89.9999676920879637
 51
179.7679820682791103
  0
ARC
  5
1D75A
  8
0
 10
4917.1621909768764453
 20
538.6314699925419518
 30
0.0
 40
0.0118232390568975
 50
2.4289916603891268
 51
89.9418271146502946
  0
ARC
  5
1D75B
  8
0
 10
4917.1622023235076995
 20
537.4739950957548444
 30
0.0
 40
0.0118110236000037
 50
271.9430605521819189
 51
357.6712676144741181
  0
LINE
  5
1D75C
  8
0
 10
4917.9250829132079161
 20
551.6911458285549088
 30
0.0
 11
4918.591341035806181
 21
545.9661420115548935
 31
0.0
  0
ARC
  5
1D75D
  8
0
 10
4917.5602355649944002
 20
545.6561490263328551
 30
0.0
 40
1.0600000003653469
 50
17.0044640839776413
 51
89.7915493707646846
  0
ARC
  5
1D75E
  8
0
 10
4912.0663511544362336
 20
545.7837551184793483
 30
0.0
 40
4.741027849342597
 50
11.3419141157728909
 51
25.7731034032922111
  0
ARC
  5
1D75F
  8
0
 10
4931.8732478311312661
 20
555.7701877265964185
 30
0.0
 40
17.4418803089163106
 50
183.4644548048408126
 51
207.0241358209543989
  0
ARC
  5
1D760
  8
0
 10
4914.4560311031636957
 20
551.2145582454658097
 30
0.0
 40
3.5016362154162781
 50
7.8224783563407589
 51
89.9797486734199339
  0
ARC
  5
1D761
  8
0
 10
4907.3178462471232706
 20
538.6568578942762997
 30
0.0
 40
0.7728608972293025
 50
92.4616701248550328
 51
156.3162870816634893
  0
ARC
  5
1D762
  8
0
 10
4853.0668061021151516
 20
2087.9367494710268147
 30
0.0
 40
1549.4566168844880849
 50
272.0052758714904826
 51
272.2199332650238262
  0
ARC
  5
1D763
  8
0
 10
4947.9337880110460901
 20
536.6968584673543319
 30
0.0
 40
32.4244690429039508
 50
163.3889548530530931
 51
170.3767643529214126
  0
ARC
  5
1D764
  8
0
 10
4913.5163023724689992
 20
542.0818254439240036
 30
0.0
 40
2.3354602411278709
 50
291.9388722422630167
 51
332.7624602643842877
  0
ARC
  5
1D765
  8
0
 10
4912.9920181553552538
 20
543.3433989262806563
 30
0.0
 40
3.7015862119157008
 50
271.4503470778362271
 51
292.1706137125225951
  0
ARC
  5
1D766
  8
0
 10
4911.6784998473640371
 20
542.9493955353904084
 30
0.0
 40
4.3671082554375822
 50
333.6776798087125258
 51
349.0146924872901195
  0
ARC
  5
1D767
  8
0
 10
4917.6582690172572256
 20
545.5330714216048591
 30
0.0
 40
0.4330705899500018
 50
0.0
 51
180.0
  0
LINE
  5
1D768
  8
0
 10
4917.0112773600167202
 20
527.4818725673048903
 30
0.0
 11
4905.3866797928403685
 21
527.4818725673048903
 31
0.0
  0
LINE
  5
1D769
  8
0
 10
4917.0112773600167202
 20
527.2456520505547815
 30
0.0
 11
4905.3875550801712961
 21
527.2456520505547815
 31
0.0
  0
LINE
  5
1D76A
  8
0
 10
4905.2561755501128573
 20
525.9818725673547988
 30
0.0
 11
4917.1418972634619422
 21
525.9818725673547988
 31
0.0
  0
LINE
  5
1D76B
  8
0
 10
4905.256857043715172
 20
525.8243922523547553
 30
0.0
 11
4917.142622751671297
 21
525.8243922523547553
 31
0.0
  0
LINE
  5
1D76C
  8
0
 10
4917.1104020101311107
 20
524.4503765043549492
 30
0.0
 11
4905.2877196634271968
 21
524.4503765043549492
 31
0.0
  0
LINE
  5
1D76D
  8
0
 10
4917.1104020101311107
 20
524.292896189404928
 30
0.0
 11
4905.2884405116601556
 21
524.292896189404928
 31
0.0
  0
LINE
  5
1D76E
  8
0
 10
4905.2955933553830619
 20
523.0133686303048535
 30
0.0
 11
4917.1025271862517911
 21
523.0133686303048535
 31
0.0
  0
LINE
  5
1D76F
  8
0
 10
4905.2963137366587034
 20
522.8558883154048544
 30
0.0
 11
4917.1025271862517911
 21
522.8558883154048544
 31
0.0
  0
LINE
  5
1D770
  8
0
 10
4905.3349650051741264
 20
521.5330536696549188
 30
0.0
 11
4917.063156274866742
 21
521.5330536696549188
 31
0.0
  0
LINE
  5
1D771
  8
0
 10
4905.3356830761604215
 20
521.3755733547549198
 30
0.0
 11
4917.063156274866742
 21
521.3755733547549198
 31
0.0
  0
ARC
  5
1D772
  8
0
 10
4917.0112773600203582
 20
527.3637623089299495
 30
0.0
 40
0.1181102583749982
 50
269.9999999982803729
 51
90.0000000017196555
  0
LINE
  5
1D773
  8
0
 10
4917.0884664275390605
 20
527.2743649880030716
 30
0.0
 11
4917.0659051634329444
 21
525.9818725673547988
 31
0.0
  0
LINE
  5
1D774
  8
0
 10
4917.0631562459748238
 20
525.8243922523547553
 30
0.0
 11
4917.0391719411672966
 21
524.4503765043549492
 31
0.0
  0
LINE
  5
1D775
  8
0
 10
4917.036423023710995
 20
524.292896189404928
 30
0.0
 11
4917.0140880693761574
 21
523.0133686303048535
 31
0.0
  0
LINE
  5
1D776
  8
0
 10
4917.0113391519207653
 20
522.8558883154048544
 30
0.0
 11
4916.9882481884587833
 21
521.5330504142549444
 31
0.0
  0
ARC
  5
1D777
  8
0
 10
4917.0631562748922079
 20
521.4543135122047488
 30
0.0
 40
0.0787401574499969
 50
269.9999999822824748
 51
90.0000000177174684
  0
ARC
  5
1D778
  8
0
 10
4917.102527186279076
 20
522.9346284728547971
 30
0.0
 40
0.0787401574499991
 50
269.9999999808234179
 51
90.0000000191765537
  0
ARC
  5
1D779
  8
0
 10
4917.1104020101556671
 20
524.3716363468798818
 30
0.0
 40
0.0787401574749995
 50
269.9999999810839881
 51
90.0000000189160119
  0
ARC
  5
1D77A
  8
0
 10
4917.1418972634719466
 20
525.9031307387472225
 30
0.0
 40
0.0787418286076784
 50
270.5279023965185843
 51
90.0000000071390787
  0
ARC
  5
1D77B
  8
0
 10
4905.2569083035477888
 20
525.9032287108528863
 30
0.0
 40
0.0786472700931563
 50
90.5338301841913733
 51
180.0638290335222962
  0
ARC
  5
1D77C
  8
0
 10
4905.2569078340120541
 20
525.9030390539063546
 30
0.0
 40
0.0786468179516921
 50
179.9256604884506885
 51
269.962998251347301
  0
ARC
  5
1D77D
  8
0
 10
4905.2884448917011468
 20
524.3716380167294346
 30
0.0
 40
0.0787418274463656
 50
90.5277132640824647
 51
269.9968129025285748
  0
ARC
  5
1D77E
  8
0
 10
4905.2963180970364192
 20
522.9346301404648329
 30
0.0
 40
0.0787418251805884
 50
90.5273591792316239
 51
269.9968272118874211
  0
ARC
  5
1D77F
  8
0
 10
4905.3356873321681633
 20
521.4543151687236104
 30
0.0
 40
0.078741814083714
 50
90.5256021734407312
 51
269.9969031541257891
  0
ARC
  5
1D780
  8
0
 10
4906.6925448881602279
 20
521.4792322711549559
 30
0.0
 40
1.2807831335000019
 50
177.5915928284528889
 51
227.6246153601879882
  0
ARC
  5
1D781
  8
0
 10
4915.7062919408599555
 20
521.4792272015547496
 30
0.0
 40
1.28078313349999
 50
312.375721127431575
 51
355.3574334544978228
  0
LINE
  5
1D782
  8
0
 10
4916.9966871490332778
 20
527.2456520505547815
 30
0.0
 11
4916.9752662355485882
 21
525.9818725673547988
 31
0.0
  0
LINE
  5
1D783
  8
0
 10
4916.9725969627452287
 20
525.8243922523547553
 30
0.0
 11
4916.949307557548309
 21
524.4503765043549492
 31
0.0
  0
LINE
  5
1D784
  8
0
 10
4916.946638284745859
 20
524.292896189404928
 30
0.0
 11
4916.9249504432282265
 21
523.0133686303048535
 31
0.0
  0
LINE
  5
1D785
  8
0
 10
4916.9222811704257765
 20
522.8558883154048544
 30
0.0
 11
4916.8998592245598047
 21
521.5330504644548455
 31
0.0
  0
ARC
  5
1D786
  8
0
 10
4915.6038428370611655
 20
521.4744050651436282
 30
0.0
 40
1.294567839541515
 50
313.3520100675644926
 51
355.6210338491624725
  0
LINE
  5
1D787
  8
0
 10
4916.8391842137725689
 20
527.2456520505547815
 30
0.0
 11
4916.8177633002787843
 21
525.9818725673547988
 31
0.0
  0
LINE
  5
1D788
  8
0
 10
4916.8150940274754248
 20
525.8243922523547553
 30
0.0
 11
4916.7918046222666817
 21
524.4503765043549492
 31
0.0
  0
LINE
  5
1D789
  8
0
 10
4916.7891353494642317
 20
524.292896189404928
 30
0.0
 11
4916.7674475079393233
 21
523.0133686303048535
 31
0.0
  0
LINE
  5
1D78A
  8
0
 10
4916.7647782351359638
 20
522.8558883154048544
 30
0.0
 11
4916.7423562907597443
 21
521.5330505529549328
 31
0.0
  0
ARC
  5
1D78B
  8
0
 10
4915.6116586909283797
 20
521.4714490014722514
 30
0.0
 40
1.129016978785728
 50
303.7823668495237257
 51
355.1280354570449163
  0
LINE
  5
1D78C
  8
0
 10
4915.7195235659146419
 20
527.2456520505547815
 30
0.0
 11
4915.7050747893918015
 21
525.9818725673547988
 31
0.0
  0
LINE
  5
1D78D
  8
0
 10
4915.7032743187328379
 20
525.8243922523547553
 30
0.0
 11
4915.687565212244408
 21
524.4503765043549492
 31
0.0
  0
LINE
  5
1D78E
  8
0
 10
4915.6857647415863539
 20
524.292896189404928
 30
0.0
 11
4915.6711359174896643
 21
523.0133686303048535
 31
0.0
  0
LINE
  5
1D78F
  8
0
 10
4915.6693354468316102
 20
522.8558883154048544
 30
0.0
 11
4915.6542114646590562
 21
521.5330511641549265
 31
0.0
  0
LINE
  5
1D790
  8
0
 10
4915.5620329589055473
 20
527.2456520505547815
 30
0.0
 11
4915.5475841823817973
 21
525.9818725673547988
 31
0.0
  0
LINE
  5
1D791
  8
0
 10
4915.5457837117237432
 20
525.8243922523547553
 30
0.0
 11
4915.5300746052316754
 21
524.4503765043549492
 31
0.0
  0
LINE
  5
1D792
  8
0
 10
4915.5282741345736213
 20
524.292896189404928
 30
0.0
 11
4915.5136453104778411
 21
523.0133686303048535
 31
0.0
  0
LINE
  5
1D793
  8
0
 10
4915.511844839819787
 20
522.8558883154048544
 30
0.0
 11
4915.4967208586604102
 21
521.5330512527549445
 31
0.0
  0
LINE
  5
1D794
  8
0
 10
4913.6343271716959862
 20
527.2456520505547815
 30
0.0
 11
4913.6274962628303911
 21
525.9818725673547988
 31
0.0
  0
LINE
  5
1D795
  8
0
 10
4913.6266450592029287
 20
525.8243922523547553
 30
0.0
 11
4913.6192183075590947
 21
524.4503765043549492
 31
0.0
  0
LINE
  5
1D796
  8
0
 10
4913.6183671039298133
 20
524.292896189404928
 30
0.0
 11
4913.611451074461911
 21
523.0133686303048535
 31
0.0
  0
LINE
  5
1D797
  8
0
 10
4913.6105998708353582
 20
522.8558883154048544
 30
0.0
 11
4913.6034497530599765
 21
521.5330523175548478
 31
0.0
  0
LINE
  5
1D798
  8
0
 10
4913.4768445563449859
 20
527.2456520505547815
 30
0.0
 11
4913.4700136474712053
 21
525.9818725673547988
 31
0.0
  0
LINE
  5
1D799
  8
0
 10
4913.4691624438437429
 20
525.8243922523547553
 30
0.0
 11
4913.461735692192633
 21
524.4503765043549492
 31
0.0
  0
LINE
  5
1D79A
  8
0
 10
4913.4608844885651706
 20
524.292896189404928
 30
0.0
 11
4913.4539684590899924
 21
523.0133686303048535
 31
0.0
  0
LINE
  5
1D79B
  8
0
 10
4913.4531172554616205
 20
522.8558883154048544
 30
0.0
 11
4913.4459671381600856
 21
521.5330524061547521
 31
0.0
  0
LINE
  5
1D79C
  8
0
 10
4911.2781617020600606
 20
527.2456520505547815
 30
0.0
 11
4911.2781617020600606
 21
525.9818725673547988
 31
0.0
  0
LINE
  5
1D79D
  8
0
 10
4911.2781617020600606
 20
525.8243922523547553
 30
0.0
 11
4911.2781617020600606
 21
524.4503765043549492
 31
0.0
  0
LINE
  5
1D79E
  8
0
 10
4911.2781617020600606
 20
524.292896189404928
 30
0.0
 11
4911.2781617020600606
 21
523.0133686303048535
 31
0.0
  0
LINE
  5
1D79F
  8
0
 10
4911.2781617020600606
 20
522.8558883154048544
 30
0.0
 11
4911.2781617020600606
 21
521.5330536696549188
 31
0.0
  0
LINE
  5
1D7A0
  8
0
 10
4911.2781617020600606
 20
521.3755733547549198
 30
0.0
 11
4911.2781617020600606
 21
520.533060179204881
 31
0.0
  0
LINE
  5
1D7A1
  8
0
 10
4911.1206813870603582
 20
527.2456520505547815
 30
0.0
 11
4911.1206813870603582
 21
525.9818725673547988
 31
0.0
  0
LINE
  5
1D7A2
  8
0
 10
4911.1206813870603582
 20
525.8243922523547553
 30
0.0
 11
4911.1206813870603582
 21
524.4503765043549492
 31
0.0
  0
LINE
  5
1D7A3
  8
0
 10
4911.1206813870603582
 20
524.292896189404928
 30
0.0
 11
4911.1206813870603582
 21
523.0133686303048535
 31
0.0
  0
LINE
  5
1D7A4
  8
0
 10
4911.1206813870603582
 20
522.8558883154048544
 30
0.0
 11
4911.1206813870603582
 21
521.5330536696549188
 31
0.0
  0
LINE
  5
1D7A5
  8
0
 10
4911.1206813870603582
 20
521.3755733547549198
 30
0.0
 11
4911.1206813870603582
 21
520.533060179204881
 31
0.0
  0
LINE
  5
1D7A6
  8
0
 10
4908.9219987728220076
 20
527.2456520505547815
 30
0.0
 11
4908.9288282601155515
 21
525.9818725673547988
 31
0.0
  0
LINE
  5
1D7A7
  8
0
 10
4908.9296792865998214
 20
525.8243922523547553
 30
0.0
 11
4908.937104492672006
 21
524.4503765043549492
 31
0.0
  0
LINE
  5
1D7A8
  8
0
 10
4908.9379555191571853
 20
524.292896189404928
 30
0.0
 11
4908.9448701093388081
 21
523.0133686303048535
 31
0.0
  0
LINE
  5
1D7A9
  8
0
 10
4908.9457211358221684
 20
522.8558883154048544
 30
0.0
 11
4908.9528697514588202
 21
521.5330549331548582
 31
0.0
  0
LINE
  5
1D7AA
  8
0
 10
4908.7645161584496236
 20
527.2456520505547815
 30
0.0
 11
4908.7713456457331631
 21
525.9818725673547988
 31
0.0
  0
LINE
  5
1D7AB
  8
0
 10
4908.7721966722174329
 20
525.8243922523547553
 30
0.0
 11
4908.7796218782768847
 21
524.4503765043549492
 31
0.0
  0
LINE
  5
1D7AC
  8
0
 10
4908.7804729047593355
 20
524.292896189404928
 30
0.0
 11
4908.7873874949300443
 21
523.0133686303048535
 31
0.0
  0
LINE
  5
1D7AD
  8
0
 10
4908.7882385214134047
 20
522.8558883154048544
 30
0.0
 11
4908.7953871365598388
 21
521.5330550217547625
 31
0.0
  0
LINE
  5
1D7AE
  8
0
 10
4906.8368104126166145
 20
527.2456520505547815
 30
0.0
 11
4906.8512577673736814
 21
525.9818725673547988
 31
0.0
  0
LINE
  5
1D7AF
  8
0
 10
4906.8530580608648961
 20
525.8243922523547553
 30
0.0
 11
4906.8687656215706738
 21
524.4503765043549492
 31
0.0
  0
LINE
  5
1D7B0
  8
0
 10
4906.870565915062798
 20
524.292896189404928
 30
0.0
 11
4906.8851932996749383
 21
523.0133686303048535
 31
0.0
  0
LINE
  5
1D7B1
  8
0
 10
4906.886993593166153
 20
522.8558883154048544
 30
0.0
 11
4906.9021160308602703
 21
521.5330560865548932
 31
0.0
  0
LINE
  5
1D7B2
  8
0
 10
4906.6793198076857152
 20
527.2456520505547815
 30
0.0
 11
4906.6937671624309587
 21
525.9818725673547988
 31
0.0
  0
LINE
  5
1D7B3
  8
0
 10
4906.6955674559203544
 20
525.8243922523547553
 30
0.0
 11
4906.7112750166133992
 21
524.4503765043549492
 31
0.0
  0
LINE
  5
1D7B4
  8
0
 10
4906.7130753101018854
 20
524.292896189404928
 30
0.0
 11
4906.7277026947031118
 21
523.0133686303048535
 31
0.0
  0
LINE
  5
1D7B5
  8
0
 10
4906.7295029881906885
 20
522.8558883154048544
 30
0.0
 11
4906.7446254248598052
 21
521.5330561751549112
 31
0.0
  0
LINE
  5
1D7B6
  8
0
 10
4905.5596592091724233
 20
527.2456520505547815
 30
0.0
 11
4905.581078700695798
 21
525.9818725673547988
 31
0.0
  0
LINE
  5
1D7B7
  8
0
 10
4905.5837477963059428
 20
525.8243922523547553
 30
0.0
 11
4905.6070356555101171
 21
524.4503765043549492
 31
0.0
  0
LINE
  5
1D7B8
  8
0
 10
4905.6097047511202618
 20
524.292896189404928
 30
0.0
 11
4905.6313911529568941
 21
523.0133686303048535
 31
0.0
  0
LINE
  5
1D7B9
  8
0
 10
4905.6340602485670388
 20
522.8558883154048544
 30
0.0
 11
4905.656480598860071
 21
521.5330567871549192
 31
0.0
  0
LINE
  5
1D7BA
  8
0
 10
4905.4021562769576121
 20
527.2456520505547815
 30
0.0
 11
4905.4235757684618875
 21
525.9818725673547988
 31
0.0
  0
LINE
  5
1D7BB
  8
0
 10
4905.4262448640720322
 20
525.8243922523547553
 30
0.0
 11
4905.4495327232525597
 21
524.4503765043549492
 31
0.0
  0
LINE
  5
1D7BC
  8
0
 10
4905.4522018188617949
 20
524.292896189404928
 30
0.0
 11
4905.4738882206793278
 21
523.0133686303048535
 31
0.0
  0
LINE
  5
1D7BD
  8
0
 10
4905.476557316286744
 20
522.8558883154048544
 30
0.0
 11
4905.4989776650600106
 21
521.5330568756548928
 31
0.0
  0
LINE
  5
1D7BE
  8
0
 10
4905.4105887010600782
 20
521.5330569254548436
 30
0.0
 11
4905.3874993397121216
 21
522.8558883154048544
 31
0.0
  0
LINE
  5
1D7BF
  8
0
 10
4905.3847505994535823
 20
523.0133686303048535
 30
0.0
 11
4905.362417084847948
 21
524.292896189404928
 31
0.0
  0
LINE
  5
1D7C0
  8
0
 10
4905.3596683445912277
 20
524.4503765043549492
 30
0.0
 11
4905.335685585831925
 21
525.8243922523547553
 31
0.0
  0
LINE
  5
1D7C1
  8
0
 10
4905.3329368455733857
 20
525.9818725673547988
 30
0.0
 11
4905.310377133881957
 21
527.2743593677454328
 31
0.0
  0
ARC
  5
1D7C2
  8
0
 10
4905.3875603022861469
 20
527.3637639499169154
 30
0.0
 40
0.1181118994774835
 50
90.4271368301469636
 51
269.997466765055492
  0
ARC
  5
1D7C3
  8
0
 10
4914.0633125964359351
 20
521.431018151152557
 30
0.0
 40
1.588288523712635
 50
325.5725671809456117
 51
357.9990728909236282
  0
ARC
  5
1D7C4
  8
0
 10
4914.1532620499638142
 20
521.4097621757991874
 30
0.0
 40
1.3400760723143059
 50
319.1396127147481252
 51
358.5376623186821234
  0
ARC
  5
1D7C5
  8
0
 10
4910.7868683403539762
 20
521.3972895936549321
 30
0.0
 40
2.815046725114541
 50
342.1212554087210833
 51
359.5579596077333235
  0
ARC
  5
1D7C6
  8
0
 10
4910.9240523253656647
 20
521.3830942364936618
 30
0.0
 40
2.5201535421387642
 50
340.2878710461433229
 51
359.8288382157770116
  0
ARC
  5
1D7C7
  8
0
 10
4911.4747843906234266
 20
521.3830939257221644
 30
0.0
 40
2.5201535371364261
 50
176.5886447851544858
 51
199.712121489397191
  0
ARC
  5
1D7C8
  8
0
 10
4911.6290790417288008
 20
521.3987269046222082
 30
0.0
 40
2.8321682530628758
 50
177.2815015041286983
 51
197.7975817884858998
  0
ARC
  5
1D7C9
  8
0
 10
4908.2455747013318614
 20
521.4097654984747123
 30
0.0
 40
1.340076072726353
 50
174.721273552666986
 51
220.8605751083391908
  0
ARC
  5
1D7CA
  8
0
 10
4908.3355241788440253
 20
521.4310213727602559
 30
0.0
 40
1.5882885241968101
 50
176.3167596416984111
 51
214.4275737018963071
  0
ARC
  5
1D7CB
  8
0
 10
4906.7871781501671649
 20
521.4714539745970114
 30
0.0
 40
1.1290170010872731
 50
176.8723624417883116
 51
236.2180853461466086
  0
ARC
  5
1D7CC
  8
0
 10
4906.7949939759182598
 20
521.4744100129006483
 30
0.0
 40
1.2945678276310639
 50
177.4036244454769076
 51
226.6483094832254039
  0
ARC
  5
1D7CD
  8
0
 10
4905.0874115480082764
 20
637.7440244406836882
 30
0.0
 40
98.3395688180352465
 50
268.7197114028278975
 51
271.2802885971722162
  0
POINT
  5
1D7CE
  8
DEFPOINTS
 10
4905.0874151295065531
 20
551.7161415291549247
 30
0.0
  0
POINT
  5
1D7CF
  8
DEFPOINTS
 10
4905.0874134490077267
 20
548.7161416000549252
 30
0.0
  0
LINE
  5
1D7D0
  8
0
 10
4918.4456528602504477
 20
512.0684971461049599
 30
0.0
 11
4918.4456528602504477
 21
512.5331273003630486
 31
0.0
  0
LINE
  5
1D7D1
  8
0
 10
4916.8708501013652494
 20
512.0684971461049599
 30
0.0
 11
4916.8708501013652494
 21
512.5331273003630486
 31
0.0
  0
ENDSEC
  0
EOF
