  0
SECTION
  2
HEADER
  9
$ACADVER
  1
AC1009
  9
$INSBASE
 10
674.9643014273075323
 20
135.6949305437146052
 30
0.0
  9
$EXTMIN
 10
668.9298398401172108
 20
93.8506623836348695
 30
-0.0000000000000058
  9
$EXTMAX
 10
675.0042442895880868
 20
146.7619488833026935
 30
0.0000000000000104
  9
$LIMMIN
 10
0.0
 20
0.0
  9
$LIMMAX
 10
11.6929133858000007
 20
8.2677165353999982
  9
$ORTHOMODE
 70
     0
  9
$REGENMODE
 70
     1
  9
$FILLMODE
 70
     1
  9
$QTEXTMODE
 70
     0
  9
$MIRRTEXT
 70
     0
  9
$DRAGMODE
 70
     2
  9
$LTSCALE
 40
0.6431102362
  9
$OSMODE
 70
  4095
  9
$ATTMODE
 70
     1
  9
$TEXTSIZE
 40
0.2
  9
$TRACEWID
 40
0.05
  9
$TEXTSTYLE
  7
STANDARD
  9
$CLAYER
  8
0
  9
$CELTYPE
  6
BYLAYER
  9
$CECOLOR
 62
   256
  9
$DIMSCALE
 40
1.0
  9
$DIMASZ
 40
0.1875
  9
$DIMEXO
 40
0.0625
  9
$DIMDLI
 40
0.4443307087
  9
$DIMRND
 40
0.0
  9
$DIMDLE
 40
0.0
  9
$DIMEXE
 40
0.125
  9
$DIMTP
 40
0.01
  9
$DIMTM
 40
0.01
  9
$DIMTXT
 40
1.0
  9
$DIMCEN
 40
0.1052362205
  9
$DIMTSZ
 40
0.0
  9
$DIMTOL
 70
     1
  9
$DIMLIM
 70
     0
  9
$DIMTIH
 70
     0
  9
$DIMTOH
 70
     1
  9
$DIMSE1
 70
     0
  9
$DIMSE2
 70
     0
  9
$DIMTAD
 70
     0
  9
$DIMZIN
 70
     0
  9
$DIMBLK
  1

  9
$DIMASO
 70
     1
  9
$DIMSHO
 70
     1
  9
$DIMPOST
  1
\X
  9
$DIMAPOST
  1

  9
$DIMALT
 70
     1
  9
$DIMALTD
 70
     2
  9
$DIMALTF
 40
25.3999999999999986
  9
$DIMLFAC
 40
1.0
  9
$DIMTOFL
 70
     0
  9
$DIMTVP
 40
0.0
  9
$DIMTIX
 70
     0
  9
$DIMSOXD
 70
     0
  9
$DIMSAH
 70
     0
  9
$DIMBLK1
  1

  9
$DIMBLK2
  1

  9
$DIMSTYLE
  2
STANDARD
  9
$DIMCLRD
 70
     0
  9
$DIMCLRE
 70
     0
  9
$DIMCLRT
 70
     0
  9
$DIMTFAC
 40
1.0
  9
$DIMGAP
 40
0.09
  9
$LUNITS
 70
     2
  9
$LUPREC
 70
     4
  9
$SKETCHINC
 40
0.1
  9
$FILLETRAD
 40
0.0
  9
$AUNITS
 70
     0
  9
$AUPREC
 70
     0
  9
$MENU
  1
.
  9
$ELEVATION
 40
0.0
  9
$PELEVATION
 40
0.0
  9
$THICKNESS
 40
0.0
  9
$LIMCHECK
 70
     0
  9
$BLIPMODE
 70
     0
  9
$CHAMFERA
 40
0.0
  9
$CHAMFERB
 40
0.0
  9
$SKPOLY
 70
     0
  9
$TDCREATE
 40
2458172.5207638889551163
  9
$TDUPDATE
 40
2459098.6140740741975605
  9
$TDINDWG
 40
0.3629521065
  9
$TDUSRTIMER
 40
0.3629521065
  9
$USRTIMER
 70
     1
  9
$ANGBASE
 50
0.0
  9
$ANGDIR
 70
     0
  9
$PDMODE
 70
     0
  9
$PDSIZE
 40
0.3125
  9
$PLINEWID
 40
0.0
  9
$COORDS
 70
     1
  9
$SPLFRAME
 70
     0
  9
$SPLINETYPE
 70
     6
  9
$SPLINESEGS
 70
     8
  9
$ATTDIA
 70
     1
  9
$ATTREQ
 70
     1
  9
$HANDLING
 70
     1
  9
$HANDSEED
  5
AAFC
  9
$SURFTAB1
 70
     6
  9
$SURFTAB2
 70
     6
  9
$SURFTYPE
 70
     6
  9
$SURFU
 70
     6
  9
$SURFV
 70
     6
  9
$UCSNAME
  2

  9
$UCSORG
 10
0.0
 20
0.0
 30
0.0
  9
$UCSXDIR
 10
1.0
 20
0.0
 30
0.0
  9
$UCSYDIR
 10
0.0
 20
1.0
 30
0.0
  9
$PUCSNAME
  2

  9
$PUCSORG
 10
0.0
 20
0.0
 30
0.0
  9
$PUCSXDIR
 10
1.0
 20
0.0
 30
0.0
  9
$PUCSYDIR
 10
0.0
 20
1.0
 30
0.0
  9
$USERI1
 70
     0
  9
$USERI2
 70
     0
  9
$USERI3
 70
     0
  9
$USERI4
 70
     0
  9
$USERI5
 70
     0
  9
$USERR1
 40
0.0
  9
$USERR2
 40
0.0
  9
$USERR3
 40
0.0
  9
$USERR4
 40
0.0
  9
$USERR5
 40
0.0
  9
$WORLDVIEW
 70
     1
  9
$SHADEDGE
 70
     3
  9
$SHADEDIF
 70
    70
  9
$TILEMODE
 70
     1
  9
$MAXACTVP
 70
    64
  9
$PLIMCHECK
 70
     0
  9
$PEXTMIN
 10
1.0000000000000000E+20
 20
1.0000000000000000E+20
 30
1.0000000000000000E+20
  9
$PEXTMAX
 10
-1.0000000000000000E+20
 20
-1.0000000000000000E+20
 30
-1.0000000000000000E+20
  9
$PLIMMIN
 10
0.0
 20
0.0
  9
$PLIMMAX
 10
12.0
 20
9.0
  9
$UNITMODE
 70
     0
  9
$VISRETAIN
 70
     1
  9
$PLINEGEN
 70
     0
  9
$PSLTSCALE
 70
     1
  0
ENDSEC
  0
SECTION
  2
TABLES
  0
TABLE
  2
VPORT
 70
     1
  0
VPORT
  2
*ACTIVE
 70
     0
 10
0.0
 20
0.0
 11
1.0
 21
1.0
 12
205.2248403570224866
 22
31.1731585135390183
 13
0.0
 23
0.0
 14
1.0
 24
1.0
 15
0.0
 25
0.0
 16
0.0
 26
0.0
 36
24.1179433675886514
 17
466.74220170783002
 27
89.133147119929788
 37
0.0
 40
53.5509248663613278
 41
2.6528599605522678
 42
50.0
 43
0.0
 44
0.0
 50
0.0
 51
0.0
 71
     0
 72
   100
 73
     1
 74
     1
 75
     0
 76
     0
 77
     0
 78
     0
  0
ENDTAB
  0
TABLE
  2
LTYPE
 70
     2
  0
LTYPE
  2
CONTINUOUS
 70
     0
  3
Solid line
 72
    65
 73
     0
 40
0.0
  0
LTYPE
  2
PHANTOM2
 70
     0
  3
___ _ _ ___ _ _ ___ _ _ ___ _ _
 72
    65
 73
     6
 40
1.25
 49
0.625
 49
-0.125
 49
0.125
 49
-0.125
 49
0.125
 49
-0.125
  0
ENDTAB
  0
TABLE
  2
LAYER
 70
     2
  0
LAYER
  2
0
 70
     0
 62
   255
  6
CONTINUOUS
  0
LAYER
  2
DEFPOINTS
 70
     0
 62
     7
  6
CONTINUOUS
  0
ENDTAB
  0
TABLE
  2
STYLE
 70
     1
  0
STYLE
  2
STANDARD
 70
     0
 40
0.0
 41
0.8
 50
0.0
 71
     0
 42
0.2
  3
txt
  4

  0
ENDTAB
  0
TABLE
  2
VIEW
 70
     0
  0
ENDTAB
  0
TABLE
  2
UCS
 70
     0
  0
ENDTAB
  0
TABLE
  2
APPID
 70
    11
  0
APPID
  2
ACAD
 70
     0
  0
APPID
  2
ACAD_MLEADERVER
 70
     0
  0
APPID
  2
ACAD_EXEMPT_FROM_CAD_STANDARDS
 70
     0
  0
APPID
  2
ACAD_DSTYLE_DIMJAG
 70
     0
  0
APPID
  2
ACAD_DSTYLE_DIMTALN
 70
     0
  0
APPID
  2
ACAD_NAV_VCDISPLAY
 70
     0
  0
APPID
  2
ACAECLAYERSTANDARD
 70
     0
  0
APPID
  2
ACCMTRANSPARENCY
 70
     0
  0
APPID
  2
DCO15
 70
     0
  0
APPID
  2
ACDBATTR
 70
     0
  0
APPID
  2
ACADANNOTATIVE
 70
     0
  0
ENDTAB
  0
TABLE
  2
DIMSTYLE
 70
     1
  0
DIMSTYLE
  2
STANDARD
 70
     0
  3

  4

  5

  6

  7

 40
1.0
 41
0.1875
 42
0.0625
 43
0.38
 44
0.125
 45
0.0
 46
0.0
 47
0.01
 48
0.01
140
0.15625
141
0.09
142
0.0
143
25.3999999999999986
144
1.0
145
0.0
146
1.0
147
0.09
 71
     1
 72
     0
 73
     1
 74
     1
 75
     0
 76
     0
 77
     0
 78
     4
170
     0
171
     2
172
     0
173
     0
174
     0
175
     0
176
     0
177
     0
178
     0
  0
ENDTAB
  0
ENDSEC
  0
SECTION
  2
BLOCKS
  0
BLOCK
  8
0
  2
$MODEL_SPACE
 70
     0
 10
0.0
 20
0.0
 30
0.0
  3
$MODEL_SPACE
  1

  0
ENDBLK
  5
21
  8
0
  0
BLOCK
 67
     1
  8
0
  2
$PAPER_SPACE
 70
     0
 10
0.0
 20
0.0
 30
0.0
  3
$PAPER_SPACE
  1

  0
ENDBLK
  5
1D
 67
     1
  8
0
  0
ENDSEC
  0
SECTION
  2
ENTITIES
  0
ATTDEF
  5
829
  8
DEFPOINTS
 10
674.9673586076260108
 20
135.6945736745244915
 30
0.0
 40
0.001
  1
K-20932T-7
  3

  2
MODELNUMBER
 70
     0
1001
ACDBATTR
1070
     0
1070
     1
  0
ATTDEF
  5
82A
  8
DEFPOINTS
 10
674.9673586076260108
 20
135.6929070078577979
 30
0.0
 40
0.001
  1
BEITOU
  3

  2
TRADENAME
 70
     0
1001
ACDBATTR
1070
     0
1070
     1
  0
ATTDEF
  5
82B
  8
DEFPOINTS
 10
674.9673586076260108
 20
135.6912403411911896
 30
0.0
 40
0.001
  1
BATH AND SHOWER FAUCET
  3

  2
PRODUCT
 70
     0
1001
ACDBATTR
1070
     0
1070
     1
  0
LINE
  5
A7FD
  8
0
 10
674.6493707186075426
 20
136.6949305437146052
 30
0.0
 11
674.9643014273075323
 21
136.6949305437146052
 31
0.0
  0
LINE
  5
A7FE
  8
0
 10
674.6493707186075426
 20
134.6949305437146052
 30
0.0
 11
674.9643014273075323
 21
134.6949305437146052
 31
0.0
  0
LINE
  5
A7FF
  8
0
 10
672.3155309780174775
 20
135.0611315782145994
 30
0.0
 11
672.5673412234075386
 21
135.0611315782145994
 31
0.0
  0
LINE
  5
A800
  8
0
 10
672.3154120351066467
 20
136.3289869016145985
 30
0.0
 11
672.4755573566008024
 21
136.3289869016145985
 31
0.0
  0
LINE
  5
A801
  8
0
 10
674.609970718607542
 20
134.7343305437146057
 30
0.0
 11
674.609970718607542
 21
136.6555305437146046
 31
0.0
  0
ARC
  5
A802
  8
0
 10
674.6493707186075426
 20
134.7343305437146057
 30
0.0
 40
0.0394
 50
179.9999999999951115
 51
270.0000000000032969
  0
ARC
  5
A803
  8
0
 10
674.6493707186075426
 20
136.6555305437146046
 30
0.0
 40
0.0394
 50
89.9999999999967457
 51
180.0000000000104876
  0
LINE
  5
A804
  8
0
 10
674.9643014273075323
 20
134.6949305437146052
 30
0.0
 11
674.9643014273075323
 21
136.6949305437146052
 31
0.0
  0
ARC
  5
A805
  8
0
 10
689.215740913013633
 20
135.6966955771893026
 30
0.0
 40
16.9311276248983589
 50
177.9240486240003065
 51
182.0870258518039861
  0
ARC
  5
A806
  8
0
 10
672.3154120351066467
 20
136.3092869016145983
 30
0.0
 40
0.0197
 50
90.0000000000097771
 51
177.9240914152736082
  0
ARC
  5
A807
  8
0
 10
672.3155309780174775
 20
135.0808315782145996
 30
0.0
 40
0.0197
 50
182.0870037001230912
 51
269.9999999999869829
  0
LINE
  5
A808
  8
0
 10
673.1381901270075332
 20
135.475934610614587
 30
0.0
 11
673.1381901270075332
 21
101.0092409874865069
 31
0.0
  0
LINE
  5
A809
  8
0
 10
672.5673412234075386
 20
135.475934610614587
 30
0.0
 11
672.5673412234075386
 21
101.0119301342891021
 31
0.0
  0
LINE
  5
A80A
  8
0
 10
672.4952526683550786
 20
136.3097166630639947
 30
0.0
 11
672.5220581714576156
 21
135.0812613396639961
 31
0.0
  0
ARC
  5
A80B
  8
0
 10
672.4755573566008024
 20
136.3092869016145983
 30
0.0
 40
0.0197
 50
1.250023896077936
 51
90.0000000000032543
  0
ARC
  5
A80C
  8
0
 10
672.5023628597033394
 20
135.0808315782145996
 30
0.0
 40
0.0197
 50
270.0000000000032969
 51
1.250023896108869
  0
LINE
  5
A80D
  8
0
 10
673.2264569036077546
 20
135.475934610614587
 30
0.0
 11
672.5134462053670177
 21
135.475934610614587
 31
0.0
  0
LINE
  5
A80E
  8
0
 10
673.2529948496270435
 20
136.0611870111087001
 30
0.0
 11
673.236706235542556
 21
135.3147046673209957
 31
0.0
  0
ARC
  5
A80F
  8
0
 10
672.9495205105099558
 20
135.6943900866376111
 30
0.0
 40
0.5082320065117948
 50
291.7913305203941263
 51
51.1811099918935497
  0
ARC
  5
A810
  8
0
 10
673.2726901613814334
 20
136.0607572496614921
 30
0.0
 40
0.0197
 50
48.5847322302836204
 51
178.7499761101124136
  0
ARC
  5
A811
  8
0
 10
673.2564015472968322
 20
135.3142749058737024
 30
0.0
 40
0.0197
 50
178.7499761100602882
 51
308.9152199899148741
  0
LINE
  5
A812
  8
0
 10
673.2677397293812191
 20
136.0798251080366015
 30
0.0
 11
673.3030601400074602
 21
137.0824426130145923
 31
0.0
  0
LINE
  5
A813
  8
0
 10
672.4290140994073681
 20
136.3289869016145985
 30
0.0
 11
672.4024712104278478
 21
137.0824426130145923
 31
0.0
  0
ARC
  5
A814
  8
0
 10
673.2271411405133676
 20
135.494274863044609
 30
0.0
 40
0.0183530117233356
 50
267.8634038356212272
 51
316.0145439932767886
  0
LINE
  5
A815
  8
0
 10
673.8028841046021853
 20
136.2612978663146066
 30
0.0
 11
673.2741326881198347
 21
136.2612978663146066
 31
0.0
  0
ARC
  5
A816
  8
0
 10
673.6282099279040949
 20
117.2971044220440007
 30
0.0
 40
17.831752545340219
 50
89.438738542030805
 51
91.5746966684674248
  0
ARC
  5
A817
  8
0
 10
667.0648947627045118
 20
-289.5783091458960143
 30
0.0
 40
425.8929107189804881
 50
88.9849006314489372
 51
89.0934940478677362
  0
ARC
  5
A818
  8
0
 10
671.3044684091647696
 20
286.0929953090343929
 30
0.0
 40
150.9856664184920021
 50
270.9481378861686949
 51
271.1370028031145125
  0
ARC
  5
A819
  8
0
 10
674.4422502836383728
 20
134.5995685643229081
 30
0.0
 40
0.5558665626176547
 50
77.0665750045154567
 51
104.7742430799188043
  0
ARC
  5
A81A
  8
0
 10
674.5210080594022202
 20
138.8578482265976106
 30
0.0
 40
3.7167954131160088
 50
270.7038152813153147
 51
271.3715233584699718
  0
LINE
  5
A81B
  8
0
 10
674.1887022569575265
 20
112.1129207083146042
 30
0.0
 11
674.1887022569575265
 21
101.0105583372699982
 31
0.0
  0
LINE
  5
A81C
  8
0
 10
673.6178533533575319
 20
112.1129207083146042
 30
0.0
 11
673.6178533533575319
 21
101.0105586213032041
 31
0.0
  0
LINE
  5
A81D
  8
0
 10
673.5284732776862029
 20
112.1129207083146042
 30
0.0
 11
674.2780823326288555
 21
112.1129207083146042
 31
0.0
  0
LINE
  5
A81E
  8
0
 10
674.2977652541687803
 20
112.1318005865833953
 30
0.0
 11
674.3478228748429046
 21
113.3331834822658948
 31
0.0
  0
LINE
  5
A81F
  8
0
 10
673.5087903561462781
 20
112.1318005865833953
 30
0.0
 11
673.4587334648156229
 21
113.3331659780199061
 31
0.0
  0
ARC
  5
A820
  8
0
 10
673.5284732776862029
 20
112.1326207083146045
 30
0.0
 40
0.0197
 50
182.385944031378699
 51
270.0
  0
ARC
  5
A821
  8
0
 10
674.2780823326288555
 20
112.1326207083146045
 30
0.0
 40
0.0197
 50
270.0000000000097771
 51
357.6140559686220968
  0
LINE
  5
A822
  8
0
 10
673.4406793799574871
 20
113.3425155619272999
 30
0.0
 11
673.4406793799574871
 21
114.1132123592097969
 31
0.0
  0
LINE
  5
A823
  8
0
 10
674.3658762303493859
 20
113.3424676138303937
 30
0.0
 11
674.365876230776621
 21
114.1051382886547003
 31
0.0
  0
LINE
  5
A824
  8
0
 10
674.3658762303493859
 20
113.3424676138303937
 30
0.0
 11
674.3478228748429046
 21
113.3331834822658948
 31
0.0
  0
LINE
  5
A825
  8
0
 10
673.4406793799574871
 20
113.3425155619272999
 30
0.0
 11
673.4587334648156229
 21
113.3331659780199061
 31
0.0
  0
LINE
  5
A826
  8
0
 10
674.3658762303493859
 20
113.3425797487189044
 30
0.0
 11
673.4406793799574871
 21
113.342579748443697
 31
0.0
  0
ARC
  5
A827
  8
0
 10
729.7440960503977294
 20
100.4761827057051988
 30
0.0
 40
56.6084157748605321
 50
179.4604611213487999
 51
185.3035608645211028
  0
ARC
  5
A828
  8
0
 10
618.294115959065266
 20
100.422949219345
 30
0.0
 40
55.3268578909184612
 50
354.6285997746365979
 51
0.6085321486603696
  0
ARC
  5
A829
  8
0
 10
612.8018471935120033
 20
100.5492684173105005
 30
0.0
 40
61.388588214510321
 50
355.4186553163095255
 51
0.4305395358458993
  0
ARC
  5
A82A
  8
0
 10
664.6432406266088719
 20
96.3951971493015662
 30
0.0
 40
9.3810274066351536
 50
346.4174110109340177
 51
355.4186553163095255
  0
ARC
  5
A82B
  8
0
 10
673.2947598568898684
 20
94.2976040423620816
 30
0.0
 40
0.4789107417810281
 50
297.3561869066709846
 51
347.2725374993974015
  0
ARC
  5
A82C
  8
0
 10
673.3940570665911309
 20
94.2964377402359162
 30
0.0
 40
0.4410442783594336
 50
269.3543246563006051
 51
285.8924451601474743
  0
ARC
  5
A82D
  8
0
 10
673.4087600864153274
 20
94.2759579737748936
 30
0.0
 40
0.4209964195685413
 50
214.7754566291019955
 51
267.3215995242928784
  0
ARC
  5
A82E
  8
0
 10
680.5105735128230435
 20
96.3246684382296365
 30
0.0
 40
7.7913893468371116
 50
181.5192523214753919
 51
197.0834440884895002
  0
ARC
  5
A82F
  8
0
 10
737.6713147036458622
 20
100.6190152196803069
 30
0.0
 40
65.1051591277198298
 50
179.6542132255410991
 51
183.9641944325871918
  0
LINE
  5
A830
  8
0
 10
674.9643014273075323
 20
117.4784008238145958
 30
0.0
 11
674.9643014273075323
 21
114.1319441309146043
 31
0.0
  0
LINE
  5
A831
  8
0
 10
669.0300448156162929
 20
115.0133245147862056
 30
0.0
 11
669.4675406969588494
 21
114.7440962800906021
 31
0.0
  0
ARC
  5
A832
  8
0
 10
669.0919407215909587
 20
115.1139053619866957
 30
0.0
 40
0.1181
 50
168.8722085166137958
 51
238.3924977515501098
  0
LINE
  5
A833
  8
0
 10
674.9039409476324636
 20
117.498064879160296
 30
0.0
 11
674.904971327153703
 21
117.3799950842996935
 31
0.0
  0
ARC
  5
A834
  8
0
 10
674.8839639619112631
 20
117.4976167231563977
 30
0.0
 40
0.0199820123865593
 50
1.2851358748641399
 51
89.6538188903747653
  0
LINE
  5
A835
  8
0
 10
674.9643014273075323
 20
117.4784008238145958
 30
0.0
 11
674.9052463092075413
 21
117.4784008238145958
 31
0.0
  0
LINE
  5
A836
  8
0
 10
674.8854439900185298
 20
117.3601239216607013
 30
0.0
 11
673.1381901270075332
 21
117.3448758682146007
 31
0.0
  0
LINE
  5
A837
  8
0
 10
672.5673412234075386
 20
117.3398941453087048
 30
0.0
 11
669.4274948587468543
 21
117.3124931212248043
 31
0.0
  0
ARC
  5
A838
  8
0
 10
674.8852720772694056
 20
117.3798231715450981
 30
0.0
 40
0.0197
 50
270.4999999995583266
 51
0.500000015181445
  0
LINE
  5
A839
  8
0
 10
674.9052463092075413
 20
117.4784008238145958
 30
0.0
 11
674.9052463092075413
 21
114.1004312773145983
 31
0.0
  0
LINE
  5
A83A
  8
0
 10
674.9052463092075413
 20
117.3484852605145932
 30
0.0
 11
673.1381901270075332
 21
117.3330643949146008
 31
0.0
  0
LINE
  5
A83B
  8
0
 10
672.5673412234075386
 20
117.3280826720305043
 30
0.0
 11
669.4177219052048713
 21
117.3005963607935058
 31
0.0
  0
LINE
  5
A83C
  8
0
 10
669.4079608796536149
 20
117.3358256047775967
 30
0.0
 11
669.4271672775587376
 21
117.4381794813503035
 31
0.0
  0
ARC
  5
A83D
  8
0
 10
669.4273229459977301
 20
117.3321923711091017
 30
0.0
 40
0.0197
 50
169.3722084923869033
 51
270.4999999995649205
  0
ARC
  5
A83E
  8
0
 10
669.4658914101089522
 20
117.4309130141161006
 30
0.0
 40
0.0394
 50
90.5000303975121057
 51
169.3722086023473139
  0
LINE
  5
A83F
  8
0
 10
669.3985641943984319
 20
117.2846991699863963
 30
0.0
 11
668.9760611001782991
 21
115.1366984166576941
 31
0.0
  0
ARC
  5
A840
  8
0
 10
669.4178938179533134
 20
117.2808971109091942
 30
0.0
 40
0.0197
 50
90.4999999973761788
 51
168.8722085166093905
  0
LINE
  5
A841
  8
0
 10
669.4330137381059558
 20
117.3007298105968061
 30
0.0
 11
669.432910668707791
 21
117.312540384282201
 31
0.0
  0
LINE
  5
A842
  8
0
 10
674.8855620193082814
 20
117.3483134783199944
 30
0.0
 11
674.8854589499578651
 21
117.3601240578950069
 31
0.0
  0
LINE
  5
A843
  8
0
 10
670.444816474655795
 20
114.1393568585665008
 30
0.0
 11
672.5673412234075386
 21
114.1208338657987014
 31
0.0
  0
LINE
  5
A844
  8
0
 10
673.1381901270075332
 20
114.1158521429146049
 30
0.0
 11
674.9052463092075413
 21
114.1004312773145983
 31
0.0
  0
LINE
  5
A845
  8
0
 10
674.9052463092075413
 20
114.6910049456083982
 30
0.0
 11
673.1381901270075332
 21
114.7064258113007043
 31
0.0
  0
LINE
  5
A846
  8
0
 10
672.5673412234075386
 20
114.7114075342146009
 30
0.0
 11
669.4877432358545093
 21
114.7382827787206026
 31
0.0
  0
ARC
  5
A847
  8
0
 10
669.4880853160461811
 20
114.777481286104603
 30
0.0
 40
0.0392
 50
238.3924977515468129
 51
269.4999999996305746
  0
LINE
  5
A848
  8
0
 10
669.6689503643415264
 20
114.7367014080662955
 30
0.0
 11
670.420987662120865
 21
114.147694258632697
 31
0.0
  0
ARC
  5
A849
  8
0
 10
670.4451585548456478
 20
114.1785553659506007
 30
0.0
 40
0.0392
 50
231.9314079759080016
 51
269.5000000026237785
  0
LINE
  5
A84A
  8
0
 10
669.9861761552433563
 20
114.4736619408605947
 30
0.0
 11
669.9517154359610913
 21
114.4295542316810952
 31
0.0
  0
LINE
  5
A84B
  8
0
 10
669.9523875981431047
 20
114.424079909985096
 30
0.0
 11
670.0482939816756698
 21
114.3491496310145976
 31
0.0
  0
LINE
  5
A84C
  8
0
 10
670.1053523695103422
 20
114.3491496310145976
 30
0.0
 11
670.0482939816756698
 21
114.3491496310145976
 31
0.0
  0
LINE
  5
A84D
  8
0
 10
670.1217679765024968
 20
114.3677259998082008
 30
0.0
 11
670.1084256114523896
 21
114.3506485512646975
 31
0.0
  0
ARC
  5
A84E
  8
0
 10
670.1310751901074809
 20
114.360454407614597
 30
0.0
 40
0.0118110236000001
 50
69.4864566377466133
 51
142.0000000716225088
  0
ARC
  5
A84F
  8
0
 10
669.9768689416074494
 20
114.4809335331145945
 30
0.0
 40
0.0118110236000007
 50
322.0000000097024895
 51
38.652287141970497
  0
ARC
  5
A850
  8
0
 10
669.9547886778973407
 20
114.4271531519238039
 30
0.0
 40
0.0039
 50
141.9999999336139922
 51
231.9999999902657919
  0
ARC
  5
A851
  8
0
 10
670.1053523695103422
 20
114.3530496310145992
 30
0.0
 40
0.0039
 50
270.0000000000032969
 51
322.0000000716186719
  0
LINE
  5
A852
  8
0
 10
672.0391045769074481
 20
114.072894709414598
 30
0.0
 11
671.0154825296075387
 21
114.072894709414598
 31
0.0
  0
LINE
  5
A853
  8
0
 10
671.4019176178130692
 20
114.013839591314607
 30
0.0
 11
671.0252825296073524
 21
114.013839591314607
 31
0.0
  0
LINE
  5
A854
  8
0
 10
671.6526694234188426
 20
114.013839591314607
 30
0.0
 11
672.0293045769075206
 21
114.013839591314607
 31
0.0
  0
LINE
  5
A855
  8
0
 10
671.2392007585273177
 20
113.9598904957090042
 30
0.0
 11
671.2509203395730992
 21
113.825935071336005
 31
0.0
  0
LINE
  5
A856
  8
0
 10
671.8153863480915788
 20
113.9598904957526031
 30
0.0
 11
671.8036667669410917
 21
113.8259350713288001
 31
0.0
  0
LINE
  5
A857
  8
0
 10
671.2606830476145205
 20
113.8169891976146033
 30
0.0
 11
671.7939040589005799
 21
113.8169891976146033
 31
0.0
  0
ARC
  5
A858
  8
0
 10
671.874261454745124
 20
113.9547395913146062
 30
0.0
 40
0.0591
 50
89.9999999999967457
 51
174.9999999595094948
  0
ARC
  5
A859
  8
0
 10
671.1803256518699072
 20
113.9547395913146062
 30
0.0
 40
0.0591
 50
4.999999998043152
 51
90.0
  0
ARC
  5
A85A
  8
0
 10
671.2606830476145205
 20
113.8267891976146018
 30
0.0
 40
0.0098
 50
184.9999999980431085
 51
270.0000000000032969
  0
ARC
  5
A85B
  8
0
 10
671.7939040589005799
 20
113.8267891976146018
 30
0.0
 40
0.0098
 50
269.9999999999968168
 51
354.9999999595127065
  0
LINE
  5
A85C
  8
0
 10
671.0154825296075387
 20
114.0236395913146055
 30
0.0
 11
671.0154825296075387
 21
114.072894709414598
 31
0.0
  0
ARC
  5
A85D
  8
0
 10
671.0252825296073524
 20
114.0236395913146055
 30
0.0
 40
0.0098
 50
180.0
 51
269.9999999999968168
  0
LINE
  5
A85E
  8
0
 10
672.0391045769074481
 20
114.0236395913146055
 30
0.0
 11
672.0391045769074481
 21
114.072894709414598
 31
0.0
  0
ARC
  5
A85F
  8
0
 10
672.0293045769075206
 20
114.0236395913146055
 30
0.0
 40
0.0098
 50
269.9999999999935199
 51
0.0000000000016284
  0
LINE
  5
A860
  8
0
 10
669.465547584609908
 20
117.4703115138663065
 30
0.0
 11
672.5673412234075386
 21
117.4973804569145983
 31
0.0
  0
LINE
  5
A861
  8
0
 10
673.1381901270075332
 20
117.5023621798336961
 30
0.0
 11
674.8840846924989592
 21
117.5175983708145964
 31
0.0
  0
LINE
  5
A862
  8
0
 10
671.4744766198082289
 20
113.8279364247838004
 30
0.0
 11
671.4607027225411002
 21
113.9608323297879053
 31
0.0
  0
LINE
  5
A863
  8
0
 10
671.5801577174840986
 20
113.8283927647787976
 30
0.0
 11
671.5938843187343537
 21
113.9608323302090014
 31
0.0
  0
ARC
  5
A864
  8
0
 10
671.5662413853833641
 20
113.8296074527102064
 30
0.0
 40
0.0139692435695872
 50
295.4062685987702253
 51
355.0115770132135822
  0
ARC
  5
A865
  8
0
 10
671.4870427808460818
 20
113.8286074290358982
 30
0.0
 40
0.0125840633318789
 50
183.0565606840378905
 51
247.4058722474445915
  0
ARC
  5
A866
  8
0
 10
671.4019176178130692
 20
113.9547395913146062
 30
0.0
 40
0.0591
 50
5.9172508607700713
 51
90.0
  0
ARC
  5
A867
  8
0
 10
671.6526694234188426
 20
113.9547395913146062
 30
0.0
 40
0.0591
 50
90.0
 51
174.0827487287193094
  0
LINE
  5
A868
  8
0
 10
674.9643014273075323
 20
114.1319441309146043
 30
0.0
 11
674.9052463092075413
 21
114.1319441309146043
 31
0.0
  0
LINE
  5
A869
  8
0
 10
674.9643014273075323
 20
114.7303693278146
 30
0.0
 11
674.9052463092075413
 21
114.7303693278146
 31
0.0
  0
CIRCLE
  5
A86A
  8
0
 10
670.8304431596075119
 20
115.9213199056145953
 30
0.0
 40
0.9842519685339395
  0
ARC
  5
A86B
  8
0
 10
670.8304431596075119
 20
115.9213199057145971
 30
0.0
 40
0.9173228346
 50
301.003657513202711
 51
238.9963424867974027
  0
ARC
  5
A86C
  8
0
 10
670.8304431596075119
 20
115.9213199057145971
 30
0.0
 40
0.9055118110000002
 50
301.0019473257747791
 51
238.9980526742251925
  0
LINE
  5
A86D
  8
0
 10
671.2563068101187582
 20
115.1339183310145984
 30
0.0
 11
670.4045795090961519
 21
115.1339183310145984
 31
0.0
  0
LINE
  5
A86E
  8
0
 10
670.4046041867790109
 20
115.1221073074145949
 30
0.0
 11
670.7424914038408588
 21
115.1221073074145949
 31
0.0
  0
LINE
  5
A86F
  8
0
 10
670.9183949152741206
 20
115.1221073074145949
 30
0.0
 11
671.2562821324357856
 21
115.1221073074145949
 31
0.0
  0
ARC
  5
A870
  8
0
 10
670.4046041867790109
 20
115.212707307414604
 30
0.0
 40
0.0906
 50
238.99634248679709
 51
270.0
  0
ARC
  5
A871
  8
0
 10
671.2562821324357856
 20
115.212707307414604
 30
0.0
 40
0.0906
 50
269.9999999999968168
 51
301.003657513202711
  0
ARC
  5
A872
  8
0
 10
671.2563068101187582
 20
115.2126183310145962
 30
0.0
 40
0.0787
 50
270.0
 51
301.0019473257746085
  0
ARC
  5
A873
  8
0
 10
670.4045795090961519
 20
115.2126183310145962
 30
0.0
 40
0.0787
 50
238.9980526742251925
 51
270.0
  0
LINE
  5
A874
  8
0
 10
670.3629493762501852
 20
115.0551781735146051
 30
0.0
 11
671.2979369429648386
 21
115.0551781735146051
 31
0.0
  0
LINE
  5
A875
  8
0
 10
670.5745252502074436
 20
115.0029568199146013
 30
0.0
 11
670.5745252502074436
 21
115.0551781735146051
 31
0.0
  0
LINE
  5
A876
  8
0
 10
671.0863362738075466
 20
115.0029568199146013
 30
0.0
 11
671.0863362738075466
 21
115.0551781735146051
 31
0.0
  0
LINE
  5
A877
  8
0
 10
670.6021252502074503
 20
114.9753568199145946
 30
0.0
 11
671.0587362738075399
 21
114.9753568199145946
 31
0.0
  0
ARC
  5
A878
  8
0
 10
670.6021252502074503
 20
115.0029568199146013
 30
0.0
 40
0.0276
 50
180.0
 51
269.9999999999968168
  0
ARC
  5
A879
  8
0
 10
671.0587362738075399
 20
115.0029568199146013
 30
0.0
 40
0.0276
 50
269.9999999999968168
 51
0.0
  0
ARC
  5
A87A
  8
0
 10
670.7661134510075271
 20
115.1536033704146007
 30
0.0
 40
0.0393700786999977
 50
210.0000000840238101
 51
270.0
  0
ARC
  5
A87B
  8
0
 10
670.8947728681074523
 20
115.1536033704146007
 30
0.0
 40
0.0393700786999934
 50
270.0
 51
329.9999999159811068
  0
LINE
  5
A87C
  8
0
 10
670.7661134510075271
 20
115.1142332916145961
 30
0.0
 11
670.8947728681074523
 21
115.1142332916145961
 31
0.0
  0
LINE
  5
A87D
  8
0
 10
673.3574829018514265
 20
137.0824426130145923
 30
0.0
 11
672.3975825040753307
 21
137.0824426130145923
 31
0.0
  0
ARC
  5
A87E
  8
0
 10
576.1947706890927066
 20
140.2168718133877121
 30
0.0
 40
97.2323235760101738
 50
358.1639293836926754
 51
359.155586984727222
  0
ARC
  5
A87F
  8
0
 10
651.4803793271139511
 20
139.1072481829781111
 30
0.0
 40
21.9385380914267714
 50
359.155586984727222
 51
3.441728119072283
  0
ARC
  5
A880
  8
0
 10
660.8609447797326766
 20
139.6714126731394003
 30
0.0
 40
12.5410230058934307
 50
3.441728119072283
 51
11.6185828463132808
  0
ARC
  5
A881
  8
0
 10
659.836516669286766
 20
139.4607815043002006
 30
0.0
 40
13.5868807604463395
 50
11.6185828463132808
 51
19.5032901972661996
  0
ARC
  5
A882
  8
0
 10
661.1927966209182159
 20
140.5176634954829069
 30
0.0
 40
11.96791360558211
 50
16.9007441667949898
 51
31.203520119861949
  0
ARC
  5
A883
  8
0
 10
560.5998921380951288
 20
137.9104224399422094
 30
0.0
 40
111.7809121962048948
 50
359.5857676869715078
 51
0.2131617492314558
  0
ARC
  5
A884
  8
0
 10
654.2203745172582785
 20
138.2587272894598129
 30
0.0
 40
18.15978190407791
 50
0.2131617492314558
 51
7.2558487215720922
  0
ARC
  5
A885
  8
0
 10
670.5354305851053596
 20
140.8600835499804873
 30
0.0
 40
1.726949770568956
 50
349.7340848078943054
 51
358.072413445172117
  0
ARC
  5
A886
  8
0
 10
670.5352799059630797
 20
140.8365301029373029
 30
0.0
 40
1.7264686710327719
 50
358.8538244865334832
 51
16.2057362295619498
  0
ARC
  5
A887
  8
0
 10
678.0776287137368854
 20
142.5701291695615964
 30
0.0
 40
6.0161464471072339
 50
188.5133935414876021
 51
192.0091183304259062
  0
ARC
  5
A888
  8
0
 10
666.423497628027917
 20
144.8380661975438102
 30
0.0
 40
4.6922956485904708
 50
12.5832358420576291
 51
20.6356960680828188
  0
ARC
  5
A889
  8
0
 10
769.6972388335598225
 20
171.2622319943718878
 30
0.0
 40
101.910710014130899
 50
194.4335236701537042
 51
195.7764007202277128
  0
ARC
  5
A88A
  8
0
 10
831.1252624393118822
 20
187.2588968926177984
 30
0.0
 40
165.3791457697550982
 50
195.3235085417167909
 51
195.8664565917457026
  0
ARC
  5
A88B
  8
0
 10
668.2920582354465751
 20
141.0212184359345997
 30
0.0
 40
3.8917903422217051
 50
9.7381101094862412
 51
15.2499718247709701
  0
ARC
  5
A88C
  8
0
 10
670.8278530736095036
 20
146.4969337100594089
 30
0.0
 40
0.0141048927965532
 50
180.4161403698176116
 51
201.5737704657800862
  0
ARC
  5
A88D
  8
0
 10
671.8863081470738052
 20
146.5046214251875085
 30
0.0
 40
1.0725878843962171
 50
177.185153125531798
 51
180.4161403698176116
  0
ARC
  5
A88E
  8
0
 10
670.856595837128225
 20
146.5552502267460113
 30
0.0
 40
0.0416316696127951
 50
109.1529801261935972
 51
177.1851531255302064
  0
ARC
  5
A88F
  8
0
 10
1198.513661770329918
 20
-1588.3608273873298913
 30
0.0
 40
1813.4240129104109656
 50
106.9001195958203994
 51
106.9166563001561059
  0
ARC
  5
A890
  8
0
 10
671.3694613120896975
 20
146.6816797581161893
 30
0.0
 40
0.0700314216231716
 50
31.2353815523903009
 51
111.5819579657634932
  0
ARC
  5
A891
  8
0
 10
670.8394731733570779
 20
145.9818525920678951
 30
0.0
 40
0.0317195424434184
 50
105.8637933626593934
 51
186.5118751307211937
  0
ARC
  5
A892
  8
0
 10
671.0824690609000527
 20
145.9800429759584119
 30
0.0
 40
0.2745166080651888
 50
180.3731164563801883
 51
198.5061080707808969
  0
ARC
  5
A893
  8
0
 10
670.846481887247478
 20
145.906465741712509
 30
0.0
 40
0.0278552121598765
 50
209.1210494583013997
 51
286.5915079782150769
  0
ARC
  5
A894
  8
0
 10
670.8715546608945033
 20
145.8552292849473986
 30
0.0
 40
0.0288140832102491
 50
10.0635514368863603
 51
101.4422524723641033
  0
ARC
  5
A895
  8
0
 10
670.3823728443381924
 20
145.8927395793629103
 30
0.0
 40
0.5185704587835547
 50
356.4095205417334
 51
17.6200778832943712
  0
ARC
  5
A896
  8
0
 10
670.8468695009895555
 20
146.0476506234759029
 30
0.0
 40
0.0298162918981749
 50
289.319823698555922
 51
3.9660469881416751
  0
LINE
  5
A897
  8
0
 10
670.8308025915273447
 20
146.0123640716051057
 30
0.0
 11
670.8567339503573521
 21
146.0195133901146107
 31
0.0
  0
LINE
  5
A898
  8
0
 10
670.854435840787346
 20
145.8797702839030137
 30
0.0
 11
670.8658385178108574
 21
145.8834706924828026
 31
0.0
  0
ARC
  5
A899
  8
0
 10
670.6856344692132552
 20
145.9216955511579101
 30
0.0
 40
0.1322844934393932
 50
357.0432587664952848
 51
17.7900256421511003
  0
ARC
  5
A89A
  8
0
 10
670.9458179155091102
 20
145.9555643317291924
 30
0.0
 40
0.1343840797593677
 50
177.2070818789771067
 51
197.6262025296666991
  0
ARC
  5
A89B
  8
0
 10
670.7971650389066554
 20
146.0555223202507023
 30
0.0
 40
0.0317195424434184
 50
105.8637933626593934
 51
186.5118751307211937
  0
ARC
  5
A89C
  8
0
 10
671.0401609264497438
 20
146.0537127041411907
 30
0.0
 40
0.2745166080651888
 50
180.3731164563801883
 51
198.5061080707808969
  0
ARC
  5
A89D
  8
0
 10
670.8041737527970554
 20
145.9801354698952878
 30
0.0
 40
0.0278552121598765
 50
209.1210494583013997
 51
280.6293078904158733
  0
ARC
  5
A89E
  8
0
 10
670.3400647098877698
 20
145.966409307545689
 30
0.0
 40
0.5185704587835547
 50
5.8530966172883154
 51
17.6200778832943712
  0
ARC
  5
A89F
  8
0
 10
670.8045613665392466
 20
146.12132035165871
 30
0.0
 40
0.0298162918981749
 50
289.319823698555922
 51
3.9660469881416751
  0
LINE
  5
A8A0
  8
0
 10
670.7884944570769221
 20
146.0860337997879128
 30
0.0
 11
670.8144258159070432
 21
146.0931831182973895
 31
0.0
  0
ARC
  5
A8A1
  8
0
 10
670.6433263347629463
 20
145.9953652793406889
 30
0.0
 40
0.1322844934393932
 50
357.0432587664952848
 51
17.7900256421511003
  0
ARC
  5
A8A2
  8
0
 10
670.9035097810588013
 20
146.0292340599119996
 30
0.0
 40
0.1343840797593677
 50
177.2070818789771067
 51
197.6262025296666991
  0
ARC
  5
A8A3
  8
0
 10
670.7767956446127755
 20
146.07978035356129
 30
0.0
 40
0.0317195424434184
 50
105.8637933626593934
 51
186.5118751307211937
  0
ARC
  5
A8A4
  8
0
 10
671.0197915321556366
 20
146.0779707374518068
 30
0.0
 40
0.2745166080651888
 50
180.3731164563801883
 51
198.5061080707808969
  0
ARC
  5
A8A5
  8
0
 10
670.7838043585031755
 20
146.0043935032059039
 30
0.0
 40
0.0278552121598765
 50
209.1210494583013997
 51
254.6402526212042972
  0
ARC
  5
A8A6
  8
0
 10
670.31969531559389
 20
145.9906673408563904
 30
0.0
 40
0.5185704587835547
 50
12.2854615238083493
 51
17.6200778832943712
  0
ARC
  5
A8A7
  8
0
 10
670.7841919722452531
 20
146.1455783849692978
 30
0.0
 40
0.0298162918981749
 50
289.319823698555922
 51
3.9660469881416751
  0
LINE
  5
A8A8
  8
0
 10
670.7681250627829286
 20
146.1102918330985858
 30
0.0
 11
670.7940564216130497
 21
146.1174411516080909
 31
0.0
  0
ARC
  5
A8A9
  8
0
 10
670.6229569404688391
 20
146.0196233126513903
 30
0.0
 40
0.1322844934393932
 50
357.0432587664952848
 51
17.7900256421511003
  0
ARC
  5
A8AA
  8
0
 10
670.8831403867645804
 20
146.0534920932225873
 30
0.0
 40
0.1343840797593677
 50
177.2070818789771067
 51
197.6262025296666991
  0
ARC
  5
A8AB
  8
0
 10
670.8604846601732561
 20
145.5846585783322098
 30
0.0
 40
0.0317195424434184
 50
105.8637933626593934
 51
186.5118751307211937
  0
ARC
  5
A8AC
  8
0
 10
671.1034805477161171
 20
145.582848962222613
 30
0.0
 40
0.2745166080651888
 50
180.3731164563801883
 51
198.5061080707808969
  0
ARC
  5
A8AD
  8
0
 10
670.8674933740636561
 20
145.5092717279767953
 30
0.0
 40
0.0278552121598765
 50
209.1210494583013997
 51
286.5915079782150769
  0
ARC
  5
A8AE
  8
0
 10
670.8925661477105677
 20
145.4580352712117133
 30
0.0
 40
0.0288140832102491
 50
10.0635514368863603
 51
101.4422524723641033
  0
ARC
  5
A8AF
  8
0
 10
670.4033843311543706
 20
145.4955455656271965
 30
0.0
 40
0.5185704587835547
 50
356.4095205417334
 51
7.2601808139636193
  0
ARC
  5
A8B0
  8
0
 10
670.8678809878058473
 20
145.6504566097401892
 30
0.0
 40
0.0298162918981749
 50
289.319823698555922
 51
3.9660469881416751
  0
LINE
  5
A8B1
  8
0
 10
670.8518140783434092
 20
145.6151700578693919
 30
0.0
 11
670.8777454371736439
 21
145.622319376378897
 31
0.0
  0
LINE
  5
A8B2
  8
0
 10
670.8754473276035242
 20
145.4825762701671863
 30
0.0
 11
670.8868500046271492
 21
145.4862766787470889
 31
0.0
  0
ARC
  5
A8B3
  8
0
 10
670.7066459560294334
 20
145.5245015374221964
 30
0.0
 40
0.1322844934393932
 50
357.0432587664952848
 51
17.7900256421511003
  0
ARC
  5
A8B4
  8
0
 10
670.966829402325061
 20
145.5583703179935071
 30
0.0
 40
0.1343840797593677
 50
177.2070818789771067
 51
197.6262025296666991
  0
ARC
  5
A8B5
  8
0
 10
670.8934808445841327
 20
145.2019419394551107
 30
0.0
 40
0.0317195424434184
 50
105.8637933626593934
 51
186.5118751307211937
  0
ARC
  5
A8B6
  8
0
 10
671.1364767321269937
 20
145.2001323233455992
 30
0.0
 40
0.2745166080651888
 50
180.3731164563801883
 51
198.5061080707808969
  0
ARC
  5
A8B7
  8
0
 10
670.900489558474419
 20
145.1265550890996963
 30
0.0
 40
0.0278552121598765
 50
209.1210494583013997
 51
286.5915079782150769
  0
ARC
  5
A8B8
  8
0
 10
670.9255623321214443
 20
145.0753186323345858
 30
0.0
 40
0.0288140832102491
 50
10.0635514368863603
 51
101.4422524723641033
  0
ARC
  5
A8B9
  8
0
 10
670.4363805155651335
 20
145.1128289267502112
 30
0.0
 40
0.5185704587835547
 50
356.4095205417334
 51
5.45237697012994
  0
ARC
  5
A8BA
  8
0
 10
670.9008771722166102
 20
145.2677399708630901
 30
0.0
 40
0.0298162918981749
 50
289.319823698555922
 51
302.9292331551133088
  0
LINE
  5
A8BB
  8
0
 10
670.8848102627540584
 20
145.2324534189924066
 30
0.0
 11
670.9107416215845205
 21
145.2396027375019116
 31
0.0
  0
LINE
  5
A8BC
  8
0
 10
670.9084435120144008
 20
145.0998596312902009
 30
0.0
 11
670.9198461890380258
 21
145.1035600398701035
 31
0.0
  0
ARC
  5
A8BD
  8
0
 10
670.73964214044031
 20
145.141784898545211
 30
0.0
 40
0.1322844934393932
 50
357.0432587664952848
 51
17.7900256421511003
  0
ARC
  5
A8BE
  8
0
 10
670.9998255867360513
 20
145.1756536791164081
 30
0.0
 40
0.1343840797593677
 50
177.2070818789771067
 51
197.6262025296666991
  0
ARC
  5
A8BF
  8
0
 10
670.9740268792365896
 20
144.9090989525803934
 30
0.0
 40
0.0317195424434184
 50
105.8637933626593934
 51
186.5118751307211937
  0
ARC
  5
A8C0
  8
0
 10
671.2170227667794506
 20
144.9072893364709103
 30
0.0
 40
0.2745166080651888
 50
180.3731164563801883
 51
198.5061080707808969
  0
ARC
  5
A8C1
  8
0
 10
670.9810355931269896
 20
144.8337121022248937
 30
0.0
 40
0.0278552121598765
 50
209.1210494583013997
 51
286.5915079782150769
  0
ARC
  5
A8C2
  8
0
 10
671.0061083667739013
 20
144.7824756454598969
 30
0.0
 40
0.0288140832102491
 50
44.0518334313077631
 51
101.4422524723641033
  0
ARC
  5
A8C3
  8
0
 10
670.5169265502177041
 20
144.8199859398754086
 30
0.0
 40
0.5185704587835547
 50
1.5239633725362409
 51
17.6200778832943712
  0
ARC
  5
A8C4
  8
0
 10
670.9814232068690671
 20
144.9748969839884012
 30
0.0
 40
0.0298162918981749
 50
289.319823698555922
 51
3.9660469881416751
  0
LINE
  5
A8C5
  8
0
 10
670.9653562974067427
 20
144.939610432117604
 30
0.0
 11
670.9912876562367501
 21
144.946759750627109
 31
0.0
  0
LINE
  5
A8C6
  8
0
 10
670.988989546666744
 20
144.807016644415512
 30
0.0
 11
671.0003922236903691
 21
144.8107170529953009
 31
0.0
  0
ARC
  5
A8C7
  8
0
 10
670.8201881750926532
 20
144.8489419116704084
 30
0.0
 40
0.1322844934393932
 50
357.0432587664952848
 51
17.7900256421511003
  0
ARC
  5
A8C8
  8
0
 10
671.0803716213883945
 20
144.8828106922416907
 30
0.0
 40
0.1343840797593677
 50
177.2070818789771067
 51
197.6262025296666991
  0
ARC
  5
A8C9
  8
0
 10
669.6807109032504286
 20
150.1301687835617997
 30
0.0
 40
5.1513312804022338
 50
285.341180066538584
 51
285.6051617309452126
  0
ARC
  5
A8CA
  8
0
 10
671.0518735076892654
 20
145.1321588491136083
 30
0.0
 40
0.0313504764351029
 50
105.3411800665386977
 51
188.9555305479906053
  0
ARC
  5
A8CB
  8
0
 10
671.204664103292771
 20
145.1305413542305871
 30
0.0
 40
0.1837878567825926
 50
181.0172192049714113
 51
209.1955902606059112
  0
ARC
  5
A8CC
  8
0
 10
671.0694182575188051
 20
145.0697689674584865
 30
0.0
 40
0.0383229678631591
 50
228.8980915678822043
 51
280.2976704631208236
  0
ARC
  5
A8CD
  8
0
 10
671.3316520348523682
 20
144.1230008022484128
 30
0.0
 40
0.9442537430295987
 50
104.5096357965791043
 51
105.6916546862332069
  0
ARC
  5
A8CE
  8
0
 10
671.0895311876320193
 20
144.9963269924990925
 30
0.0
 40
0.0411860263418085
 50
26.7484183375935913
 51
82.2628073694118171
  0
ARC
  5
A8CF
  8
0
 10
670.8810725965241772
 20
145.0586428730200907
 30
0.0
 40
0.2491143783703611
 50
349.8783296390463988
 51
34.967174703468082
  0
ARC
  5
A8D0
  8
0
 10
671.0450373480205144
 20
145.2027470188749021
 30
0.0
 40
0.040201798289139
 50
302.1882660916544978
 51
358.0970860049175144
  0
ARC
  5
A8D1
  8
0
 10
670.9696260436337525
 20
145.0763482508806987
 30
0.0
 40
0.0687607054705846
 50
351.0062650473942085
 51
31.8885675540041618
  0
ARC
  5
A8D2
  8
0
 10
671.0958825362026801
 20
145.1019147777996068
 30
0.0
 40
0.0687205802379063
 50
170.9937955996039136
 51
211.9010370018004892
  0
ARC
  5
A8D3
  8
0
 10
669.5761813037664751
 20
150.2588033502842961
 30
0.0
 40
5.1513312804022338
 50
285.341180066538584
 51
285.6051617309452126
  0
ARC
  5
A8D4
  8
0
 10
670.9473439082055393
 20
145.2607934158361047
 30
0.0
 40
0.0313504764351029
 50
105.3411800665386977
 51
188.9555305479906053
  0
ARC
  5
A8D5
  8
0
 10
671.1001345038090449
 20
145.2591759209531119
 30
0.0
 40
0.1837878567825926
 50
181.0172192049714113
 51
209.1955902606059112
  0
ARC
  5
A8D6
  8
0
 10
670.9648886580350791
 20
145.1984035341808976
 30
0.0
 40
0.0383229678631591
 50
228.8980915678822043
 51
280.2976704631208236
  0
ARC
  5
A8D7
  8
0
 10
671.2271224353685284
 20
144.2516353689707955
 30
0.0
 40
0.9442537430295987
 50
104.5096357965791043
 51
105.6916546862332069
  0
ARC
  5
A8D8
  8
0
 10
670.9850015881481795
 20
145.1249615592215889
 30
0.0
 40
0.0411860263418085
 50
26.7484183375935913
 51
82.2628073694118171
  0
ARC
  5
A8D9
  8
0
 10
670.7765429970404512
 20
145.1872774397425871
 30
0.0
 40
0.2491143783703611
 50
349.8783296390463988
 51
34.967174703468082
  0
ARC
  5
A8DA
  8
0
 10
670.9405077485365609
 20
145.3313815855973132
 30
0.0
 40
0.040201798289139
 50
302.1882660916544978
 51
358.0970860049175144
  0
ARC
  5
A8DB
  8
0
 10
670.8650964441499127
 20
145.2049828176031099
 30
0.0
 40
0.0687607054705846
 50
351.0062650473942085
 51
31.8885675540041618
  0
ARC
  5
A8DC
  8
0
 10
670.9913529367188403
 20
145.2305493445221032
 30
0.0
 40
0.0687205802379063
 50
170.9937955996039136
 51
211.9010370018004892
  0
ARC
  5
A8DD
  8
0
 10
669.8055203608262218
 20
149.6305182214863976
 30
0.0
 40
5.1513312804022338
 50
285.341180066538584
 51
285.6051617309452126
  0
ARC
  5
A8DE
  8
0
 10
671.1766829652651722
 20
144.6325082870382062
 30
0.0
 40
0.0313504764351029
 50
105.3411800665386977
 51
188.9555305479906053
  0
ARC
  5
A8DF
  8
0
 10
671.3294735608687915
 20
144.6308907921552134
 30
0.0
 40
0.1837878567825926
 50
181.0172192049714113
 51
209.1955902606059112
  0
ARC
  5
A8E0
  8
0
 10
671.1942277150949394
 20
144.5701184053829991
 30
0.0
 40
0.0383229678631591
 50
228.8980915678822043
 51
280.2976704631208236
  0
ARC
  5
A8E1
  8
0
 10
671.4564614924282751
 20
143.623350240172897
 30
0.0
 40
0.9442537430295987
 50
104.5096357965791043
 51
105.6916546862332069
  0
ARC
  5
A8E2
  8
0
 10
671.2143406452079262
 20
144.4966764304236904
 30
0.0
 40
0.0411860263418085
 50
26.7484183375935913
 51
82.2628073694118171
  0
ARC
  5
A8E3
  8
0
 10
671.0058820540999704
 20
144.5589923109446886
 30
0.0
 40
0.2491143783703611
 50
349.8783296390463988
 51
34.967174703468082
  0
ARC
  5
A8E4
  8
0
 10
671.1698468055963076
 20
144.7030964567993863
 30
0.0
 40
0.040201798289139
 50
302.1882660916544978
 51
358.0970860049175144
  0
ARC
  5
A8E5
  8
0
 10
671.0944355012095457
 20
144.5766976888052113
 30
0.0
 40
0.0687607054705846
 50
351.0062650473942085
 51
31.8885675540041618
  0
ARC
  5
A8E6
  8
0
 10
671.2206919937784733
 20
144.6022642157242046
 30
0.0
 40
0.0687205802379063
 50
170.9937955996039136
 51
211.9010370018004892
  0
ARC
  5
A8E7
  8
0
 10
669.7072310780572479
 20
149.5135018826956923
 30
0.0
 40
5.1513312804022338
 50
285.341180066538584
 51
285.6051617309452126
  0
ARC
  5
A8E8
  8
0
 10
671.0783936824960847
 20
144.5154919482475009
 30
0.0
 40
0.0313504764351029
 50
105.3411800665386977
 51
188.9555305479906053
  0
ARC
  5
A8E9
  8
0
 10
671.231184278099704
 20
144.5138744533645081
 30
0.0
 40
0.1837878567825926
 50
181.0172192049714113
 51
209.1955902606059112
  0
ARC
  5
A8EA
  8
0
 10
671.0959384323258519
 20
144.4531020665922938
 30
0.0
 40
0.0383229678631591
 50
228.8980915678822043
 51
280.2976704631208236
  0
ARC
  5
A8EB
  8
0
 10
671.3581722096590738
 20
143.5063339013821917
 30
0.0
 40
0.9442537430295987
 50
104.5096357965791043
 51
105.6916546862332069
  0
ARC
  5
A8EC
  8
0
 10
671.1160513624388386
 20
144.3796600916330135
 30
0.0
 40
0.0411860263418085
 50
26.7484183375935913
 51
82.2628073694118171
  0
ARC
  5
A8ED
  8
0
 10
670.9075927713309966
 20
144.4419759721540117
 30
0.0
 40
0.2491143783703611
 50
349.8783296390463988
 51
34.967174703468082
  0
ARC
  5
A8EE
  8
0
 10
671.0715575228273337
 20
144.5860801180087094
 30
0.0
 40
0.040201798289139
 50
302.1882660916544978
 51
358.0970860049175144
  0
ARC
  5
A8EF
  8
0
 10
670.9961462184405718
 20
144.4596813500145061
 30
0.0
 40
0.0687607054705846
 50
351.0062650473942085
 51
31.8885675540041618
  0
ARC
  5
A8F0
  8
0
 10
671.1224027110094994
 20
144.4852478769334994
 30
0.0
 40
0.0687205802379063
 50
170.9937955996039136
 51
211.9010370018004892
  0
ARC
  5
A8F1
  8
0
 10
669.8050643617070818
 20
149.3560816911551115
 30
0.0
 40
5.1513312804022338
 50
285.341180066538584
 51
285.6051617309452126
  0
ARC
  5
A8F2
  8
0
 10
671.1762269661459186
 20
144.3580717567068916
 30
0.0
 40
0.0313504764351029
 50
105.3411800665386977
 51
188.9555305479906053
  0
ARC
  5
A8F3
  8
0
 10
671.3290175617495379
 20
144.3564542618238988
 30
0.0
 40
0.1837878567825926
 50
181.0172192049714113
 51
209.1955902606059112
  0
ARC
  5
A8F4
  8
0
 10
671.1937717159755721
 20
144.295681875051713
 30
0.0
 40
0.0383229678631591
 50
228.8980915678822043
 51
280.2976704631208236
  0
ARC
  5
A8F5
  8
0
 10
671.4560054933090214
 20
143.3489137098416109
 30
0.0
 40
0.9442537430295987
 50
104.5096357965791043
 51
105.6916546862332069
  0
ARC
  5
A8F6
  8
0
 10
671.2138846460885588
 20
144.2222399000922906
 30
0.0
 40
0.0411860263418085
 50
26.7484183375935913
 51
82.2628073694118171
  0
ARC
  5
A8F7
  8
0
 10
671.0054260549808305
 20
144.2845557806134025
 30
0.0
 40
0.2491143783703611
 50
349.8783296390463988
 51
34.967174703468082
  0
ARC
  5
A8F8
  8
0
 10
671.1693908064771676
 20
144.4286599264681001
 30
0.0
 40
0.040201798289139
 50
302.1882660916544978
 51
358.0970860049175144
  0
ARC
  5
A8F9
  8
0
 10
671.093979502090292
 20
144.3022611584738968
 30
0.0
 40
0.0687607054705846
 50
351.0062650473942085
 51
31.8885675540041618
  0
ARC
  5
A8FA
  8
0
 10
671.2202359946593333
 20
144.3278276853928048
 30
0.0
 40
0.0687205802379063
 50
170.9937955996039136
 51
211.9010370018004892
  0
ARC
  5
A8FB
  8
0
 10
669.9383718782122514
 20
149.1295508664948102
 30
0.0
 40
5.1513312804022338
 50
285.341180066538584
 51
285.6051617309452126
  0
ARC
  5
A8FC
  8
0
 10
671.3095344826513156
 20
144.1315409320465903
 30
0.0
 40
0.0313504764351029
 50
105.3411800665386977
 51
188.9555305479906053
  0
ARC
  5
A8FD
  8
0
 10
671.4623250782549349
 20
144.1299234371635976
 30
0.0
 40
0.1837878567825926
 50
181.0172192049714113
 51
209.1955902606059112
  0
ARC
  5
A8FE
  8
0
 10
671.327079232480969
 20
144.0691510503914117
 30
0.0
 40
0.0383229678631591
 50
228.8980915678822043
 51
280.2976704631208236
  0
ARC
  5
A8FF
  8
0
 10
671.5893130098144184
 20
143.1223828851813096
 30
0.0
 40
0.9442537430295987
 50
104.5096357965791043
 51
105.6916546862332069
  0
ARC
  5
A900
  8
0
 10
671.3471921625940695
 20
143.995709075432103
 30
0.0
 40
0.0411860263418085
 50
26.7484183375935913
 51
82.2628073694118171
  0
ARC
  5
A901
  8
0
 10
671.1387335714862274
 20
144.0580249559531012
 30
0.0
 40
0.2491143783703611
 50
349.8783296390463988
 51
34.967174703468082
  0
ARC
  5
A902
  8
0
 10
671.3026983229824509
 20
144.2021291018077989
 30
0.0
 40
0.040201798289139
 50
302.1882660916544978
 51
358.0970860049175144
  0
ARC
  5
A903
  8
0
 10
671.2272870185958027
 20
144.0757303338135955
 30
0.0
 40
0.0687607054705846
 50
351.0062650473942085
 51
31.8885675540041618
  0
ARC
  5
A904
  8
0
 10
671.3535435111647303
 20
144.1012968607325888
 30
0.0
 40
0.0687205802379063
 50
170.9937955996039136
 51
211.9010370018004892
  0
ARC
  5
A905
  8
0
 10
669.8161949248262772
 20
149.0957969048965026
 30
0.0
 40
5.1513312804022338
 50
285.341180066538584
 51
285.6051617309452126
  0
ARC
  5
A906
  8
0
 10
671.1873575292652276
 20
144.0977869704483112
 30
0.0
 40
0.0313504764351029
 50
105.3411800665386977
 51
188.9555305479906053
  0
ARC
  5
A907
  8
0
 10
671.3401481248688469
 20
144.09616947556529
 30
0.0
 40
0.1837878567825926
 50
181.0172192049714113
 51
209.1955902606059112
  0
ARC
  5
A908
  8
0
 10
671.2049022790948811
 20
144.0353970887931041
 30
0.0
 40
0.0383229678631591
 50
228.8980915678822043
 51
280.2976704631208236
  0
ARC
  5
A909
  8
0
 10
671.4671360564283304
 20
143.088628923583002
 30
0.0
 40
0.9442537430295987
 50
104.5096357965791043
 51
105.6916546862332069
  0
ARC
  5
A90A
  8
0
 10
671.2250152092079816
 20
143.9619551138337954
 30
0.0
 40
0.0411860263418085
 50
26.7484183375935913
 51
82.2628073694118171
  0
ARC
  5
A90B
  8
0
 10
671.0165566181001395
 20
144.0242709943547936
 30
0.0
 40
0.2491143783703611
 50
349.8783296390463988
 51
34.967174703468082
  0
ARC
  5
A90C
  8
0
 10
671.180521369596363
 20
144.1683751402094913
 30
0.0
 40
0.040201798289139
 50
302.1882660916544978
 51
358.0970860049175144
  0
ARC
  5
A90D
  8
0
 10
671.1051100652097148
 20
144.0419763722152879
 30
0.0
 40
0.0687607054705846
 50
351.0062650473942085
 51
31.8885675540041618
  0
ARC
  5
A90E
  8
0
 10
671.2313665577786423
 20
144.0675428991343097
 30
0.0
 40
0.0687205802379063
 50
170.9937955996039136
 51
211.9010370018004892
  0
ARC
  5
A90F
  8
0
 10
669.6864924879744194
 20
149.8097938826973916
 30
0.0
 40
5.1513312804022338
 50
285.341180066538584
 51
285.6051617309452126
  0
ARC
  5
A910
  8
0
 10
671.0576550924132562
 20
144.8117839482492002
 30
0.0
 40
0.0313504764351029
 50
105.3411800665386977
 51
188.9555305479906053
  0
ARC
  5
A911
  8
0
 10
671.2104456880168755
 20
144.8101664533662074
 30
0.0
 40
0.1837878567825926
 50
181.0172192049714113
 51
209.1955902606059112
  0
ARC
  5
A912
  8
0
 10
671.0751998422429097
 20
144.7493940665941068
 30
0.0
 40
0.0383229678631591
 50
228.8980915678822043
 51
280.2976704631208236
  0
ARC
  5
A913
  8
0
 10
671.3374336195762453
 20
143.802625901383891
 30
0.0
 40
0.9442537430295987
 50
104.5096357965791043
 51
105.6916546862332069
  0
ARC
  5
A914
  8
0
 10
671.0953127723560101
 20
144.6759520916347128
 30
0.0
 40
0.0411860263418085
 50
26.7484183375935913
 51
82.2628073694118171
  0
ARC
  5
A915
  8
0
 10
670.8868541812480544
 20
144.738267972155711
 30
0.0
 40
0.2491143783703611
 50
349.8783296390463988
 51
34.967174703468082
  0
ARC
  5
A916
  8
0
 10
671.0508189327445052
 20
144.8823721180104087
 30
0.0
 40
0.040201798289139
 50
302.1882660916544978
 51
358.0970860049175144
  0
ARC
  5
A917
  8
0
 10
670.9754076283577433
 20
144.7559733500162906
 30
0.0
 40
0.0687607054705846
 50
351.0062650473942085
 51
31.8885675540041618
  0
ARC
  5
A918
  8
0
 10
671.1016641209265572
 20
144.7815398769351987
 30
0.0
 40
0.0687205802379063
 50
170.9937955996039136
 51
211.9010370018004892
  0
ARC
  5
A919
  8
0
 10
669.5650999005115409
 20
150.6274111159681866
 30
0.0
 40
5.1513312804022338
 50
285.341180066538584
 51
285.6051617309452126
  0
ARC
  5
A91A
  8
0
 10
670.9362625049503777
 20
145.6294011815201088
 30
0.0
 40
0.0313504764351029
 50
105.3411800665386977
 51
188.9555305479906053
  0
ARC
  5
A91B
  8
0
 10
671.089053100553997
 20
145.6277836866370876
 30
0.0
 40
0.1837878567825926
 50
181.0172192049714113
 51
209.1955902606059112
  0
ARC
  5
A91C
  8
0
 10
670.9538072547800311
 20
145.5670112998649017
 30
0.0
 40
0.0383229678631591
 50
228.8980915678822043
 51
280.2976704631208236
  0
ARC
  5
A91D
  8
0
 10
671.2160410321134805
 20
144.6202431346547996
 30
0.0
 40
0.9442537430295987
 50
104.5096357965791043
 51
105.6916546862332069
  0
ARC
  5
A91E
  8
0
 10
670.9739201848931316
 20
145.4935693249055078
 30
0.0
 40
0.0411860263418085
 50
26.7484183375935913
 51
82.2628073694118171
  0
ARC
  5
A91F
  8
0
 10
670.7654615937852896
 20
145.5558852054265913
 30
0.0
 40
0.2491143783703611
 50
349.8783296390463988
 51
34.967174703468082
  0
ARC
  5
A920
  8
0
 10
670.9294263452816267
 20
145.6999893512812889
 30
0.0
 40
0.040201798289139
 50
302.1882660916544978
 51
358.0970860049175144
  0
ARC
  5
A921
  8
0
 10
670.8540150408947511
 20
145.573590583287114
 30
0.0
 40
0.0687607054705846
 50
351.0062650473942085
 51
31.8885675540041618
  0
ARC
  5
A922
  8
0
 10
670.9802715334637924
 20
145.5991571102059936
 30
0.0
 40
0.0687205802379063
 50
170.9937955996039136
 51
211.9010370018004892
  0
ARC
  5
A923
  8
0
 10
670.8288794196841991
 20
145.7379172527942899
 30
0.0
 40
0.0277723985345589
 50
285.8201192987252739
 51
5.6823047664238144
  0
ARC
  5
A924
  8
0
 10
670.2477141363215196
 20
147.7889625424035955
 30
0.0
 40
2.159565040095794
 50
285.0171120667790774
 51
285.8201192987252739
  0
ARC
  5
A925
  8
0
 10
670.8143459420359704
 20
145.6767873613850952
 30
0.0
 40
0.0272947173093082
 50
105.017112066789295
 51
187.582774488085505
  0
ARC
  5
A926
  8
0
 10
671.3763130954290546
 20
145.7039188487860883
 30
0.0
 40
0.5898244195319029
 50
182.9867931464131914
 51
190.8836839409150912
  0
ARC
  5
A927
  8
0
 10
670.8245844206680886
 20
145.5986997282680022
 30
0.0
 40
0.028165706223961
 50
192.6101993775832
 51
279.479788857914798
  0
ARC
  5
A928
  8
0
 10
670.1685364742595539
 20
145.5817817750109953
 30
0.0
 40
0.7060709066237653
 50
3.1963953524155011
 51
12.99391821818441
  0
ARC
  5
A929
  8
0
 10
670.8115046460845861
 20
145.7766306317051033
 30
0.0
 40
0.0277723985345589
 50
285.8201192987252739
 51
5.6823047664238144
  0
ARC
  5
A92A
  8
0
 10
670.2303393627220203
 20
147.8276759213144942
 30
0.0
 40
2.159565040095794
 50
285.0171120667790774
 51
285.8201192987252739
  0
ARC
  5
A92B
  8
0
 10
670.7969711684364711
 20
145.7155007402959939
 30
0.0
 40
0.0272947173093082
 50
105.017112066789295
 51
187.582774488085505
  0
ARC
  5
A92C
  8
0
 10
671.3589383218295552
 20
145.742632227696987
 30
0.0
 40
0.5898244195319029
 50
182.9867931464131914
 51
190.8836839409150912
  0
ARC
  5
A92D
  8
0
 10
670.8072096470687029
 20
145.6374131071789009
 30
0.0
 40
0.028165706223961
 50
192.6101993775832
 51
241.0460314238385138
  0
ARC
  5
A92E
  8
0
 10
670.1511617006601682
 20
145.6204951539218939
 30
0.0
 40
0.7060709066237653
 50
8.1087575571030381
 51
12.99391821818441
  0
ARC
  5
A92F
  8
0
 10
670.8614515263150224
 20
145.3972741111749087
 30
0.0
 40
0.0277723985345589
 50
285.8201192987252739
 51
5.6823047664238144
  0
ARC
  5
A930
  8
0
 10
670.2802862429523429
 20
147.448319400784186
 30
0.0
 40
2.159565040095794
 50
285.0171120667790774
 51
285.8201192987252739
  0
ARC
  5
A931
  8
0
 10
670.8469180486669075
 20
145.3361442197657141
 30
0.0
 40
0.0272947173093082
 50
105.017112066789295
 51
187.582774488085505
  0
ARC
  5
A932
  8
0
 10
671.4088852020599916
 20
145.3632757071667072
 30
0.0
 40
0.5898244195319029
 50
182.9867931464131914
 51
190.8836839409150912
  0
ARC
  5
A933
  8
0
 10
670.8571565272990256
 20
145.2580565866485927
 30
0.0
 40
0.028165706223961
 50
192.6101993775832
 51
279.479788857914798
  0
ARC
  5
A934
  8
0
 10
669.4274265993840345
 20
145.0971230024088925
 30
0.0
 40
1.4927024535455971
 50
5.5156261552244459
 51
11.7028577770038407
  0
ARC
  5
A935
  8
0
 10
670.8526983293027115
 20
145.4366167123434082
 30
0.0
 40
0.0277723985345589
 50
285.8201192987252739
 51
5.6823047664238144
  0
ARC
  5
A936
  8
0
 10
670.271533045940032
 20
147.4876620019527138
 30
0.0
 40
2.159565040095794
 50
285.0171120667790774
 51
285.8201192987252739
  0
ARC
  5
A937
  8
0
 10
670.8381648516545965
 20
145.3754868209342135
 30
0.0
 40
0.0272947173093082
 50
105.017112066789295
 51
187.582774488085505
  0
ARC
  5
A938
  8
0
 10
671.4001320050476807
 20
145.4026183083352066
 30
0.0
 40
0.5898244195319029
 50
182.9867931464131914
 51
190.8836839409150912
  0
ARC
  5
A939
  8
0
 10
670.8484033302867147
 20
145.2973991878170921
 30
0.0
 40
0.028165706223961
 50
192.6101993775832
 51
212.5089237076151107
  0
ARC
  5
A93A
  8
0
 10
670.1923553838779526
 20
145.2804812345601135
 30
0.0
 40
0.7060709066237653
 50
9.3166267181508147
 51
12.99391821818441
  0
ARC
  5
A93B
  8
0
 10
670.8305079378286564
 20
145.4484638884746062
 30
0.0
 40
0.2204202144010115
 50
278.160390987721712
 51
283.4157253794138001
  0
ARC
  5
A93C
  8
0
 10
670.8887584310498369
 20
145.2074284486666045
 30
0.0
 40
0.0275627478923468
 50
81.3851195877699354
 51
104.9482683192884025
  0
ARC
  5
A93D
  8
0
 10
670.9034058165736951
 20
145.0164059116011117
 30
0.0
 40
0.040132268543443
 50
285.7343233903537794
 51
1.9136561081854251
  0
ARC
  5
A93E
  8
0
 10
670.6023412476158683
 20
146.0850194322898972
 30
0.0
 40
1.1503460908679961
 50
285.0535801585349986
 51
285.7343233903537794
  0
ARC
  5
A93F
  8
0
 10
670.9083329391237385
 20
144.947299715964391
 30
0.0
 40
0.0278037587638171
 50
105.0535801585246958
 51
200.2900916037561103
  0
ARC
  5
A940
  8
0
 10
689.0751695204372709
 20
148.4518903416092996
 30
0.0
 40
18.529219830520919
 50
190.9328811247576994
 51
191.5540973033293994
  0
ARC
  5
A941
  8
0
 10
670.9483091834797506
 20
144.7462014529936027
 30
0.0
 40
0.0274580051039023
 50
191.7367467189174022
 51
229.3069455841275897
  0
ARC
  5
A942
  8
0
 10
670.9501652503619198
 20
144.8278160790432025
 30
0.0
 40
0.0393231822469461
 50
285.6174922533327276
 51
326.1537499297771774
  0
ARC
  5
A943
  8
0
 10
670.5329620733285765
 20
146.3203106068339991
 30
0.0
 40
1.5890323183147701
 50
285.1742081550248145
 51
285.6174922533327276
  0
ARC
  5
A944
  8
0
 10
670.9566141000988182
 20
144.7582332883104925
 30
0.0
 40
0.0294752006149881
 50
105.1742081550216028
 51
199.4124503190508051
  0
ARC
  5
A945
  8
0
 10
672.1820652262149451
 20
144.9297179578657904
 30
0.0
 40
1.266293859121973
 50
188.230679239430998
 51
197.5573913216923927
  0
ARC
  5
A946
  8
0
 10
670.9996359479349621
 20
144.5598273773528888
 30
0.0
 40
0.027661829171814
 50
205.9416813025034116
 51
286.0921854325351887
  0
ARC
  5
A947
  8
0
 10
671.1666611788236878
 20
143.959746082472094
 30
0.0
 40
0.5952318854845561
 50
104.9970908429405938
 51
105.5288727614374977
  0
ARC
  5
A948
  8
0
 10
671.0225649127463612
 20
144.4972297413669935
 30
0.0
 40
0.0387678229983597
 50
47.4474844233483708
 51
104.8440495161037944
  0
ARC
  5
A949
  8
0
 10
667.8861964113810927
 20
143.9789794948823953
 30
0.0
 40
3.2215865838471291
 50
10.0252150313045103
 51
14.9518325632962998
  0
ARC
  5
A94A
  8
0
 10
683.0784387966665463
 20
147.3005667688435096
 30
0.0
 40
12.3477782967232503
 50
190.2466918252245023
 51
191.0353473294429136
  0
ARC
  5
A94B
  8
0
 10
671.6813922755503654
 20
145.0746482392966925
 30
0.0
 40
0.7340153179128811
 50
187.52458215735831
 51
190.7545270886789126
  0
ARC
  5
A94C
  8
0
 10
670.4042499479252228
 20
144.8333573169134922
 30
0.0
 40
0.5683021524796531
 50
10.6850714261367106
 51
14.8000109730382494
  0
ARC
  5
A94D
  8
0
 10
670.9891382085050964
 20
144.5274099282787006
 30
0.0
 40
0.0201389325813789
 50
126.3253511799673987
 51
197.2112418588305047
  0
ARC
  5
A94E
  8
0
 10
675.2572937398499562
 20
145.471101218732997
 30
0.0
 40
4.3913063474816356
 50
192.4892774675194005
 51
194.0093301970281914
  0
ARC
  5
A94F
  8
0
 10
671.0147981359901905
 20
144.4110299997923903
 30
0.0
 40
0.018438833598059
 50
189.2873658057175987
 51
289.5544228018711124
  0
ARC
  5
A950
  8
0
 10
671.0530790516600064
 20
144.3032534806849867
 30
0.0
 40
0.0959342689016958
 50
101.2366924831945028
 51
109.5544228018743951
  0
ARC
  5
A951
  8
0
 10
671.0429039853213453
 20
144.3544691587619866
 30
0.0
 40
0.0437176273409905
 50
30.3845903188257402
 51
101.2366924831944033
  0
ARC
  5
A952
  8
0
 10
671.0429561301798458
 20
144.3885910935659069
 30
0.0
 40
0.0395293261771306
 50
286.2693010447399047
 51
13.4035107722937905
  0
ARC
  5
A953
  8
0
 10
670.8867012957233555
 20
144.9240057086230138
 30
0.0
 40
0.5972787173087893
 50
284.552316362841907
 51
286.2693010447399047
  0
ARC
  5
A954
  8
0
 10
671.0419206895867319
 20
144.3260696895885928
 30
0.0
 40
0.0204757186040607
 50
104.5523163628453034
 51
203.3080739033460986
  0
ARC
  5
A955
  8
0
 10
671.885633661370548
 20
144.4851927028969953
 30
0.0
 40
0.8785788880229768
 50
190.9723635556863996
 51
198.7688420325445122
  0
ARC
  5
A956
  8
0
 10
671.0709892893388542
 20
144.2126784709660967
 30
0.0
 40
0.019994714964958
 50
210.5704916342500042
 51
257.6089814093854216
  0
ARC
  5
A957
  8
0
 10
666.6204089620623563
 20
143.4028294341551089
 30
0.0
 40
4.5662784861789918
 50
12.3390060645411506
 51
12.9220256057662297
  0
ARC
  5
A958
  8
0
 10
670.0794974918144362
 20
148.6321030600948916
 30
0.0
 40
5.1513312804022338
 50
285.341180066538584
 51
285.6051617309452126
  0
ARC
  5
A959
  8
0
 10
671.450660096253273
 20
143.6340931256467002
 30
0.0
 40
0.0313504764351029
 50
105.3411800665386977
 51
188.9555305479906053
  0
ARC
  5
A95A
  8
0
 10
671.6034506918567786
 20
143.6324756307637074
 30
0.0
 40
0.1837878567825926
 50
181.0172192049714113
 51
209.1955902606059112
  0
ARC
  5
A95B
  8
0
 10
671.4682048460829265
 20
143.5717032439914931
 30
0.0
 40
0.0383229678631591
 50
228.8980915678822043
 51
280.2976704631208236
  0
ARC
  5
A95C
  8
0
 10
671.7304386234163758
 20
142.624935078781391
 30
0.0
 40
0.9442537430295987
 50
104.5096357965791043
 51
105.6916546862332069
  0
ARC
  5
A95D
  8
0
 10
671.4883177761960269
 20
143.4982612690322128
 30
0.0
 40
0.0411860263418085
 50
26.7484183375935913
 51
82.2628073694118171
  0
ARC
  5
A95E
  8
0
 10
671.2798591850881849
 20
143.560577149553211
 30
0.0
 40
0.2491143783703611
 50
349.8783296390463988
 51
34.967174703468082
  0
ARC
  5
A95F
  8
0
 10
671.443823936584522
 20
143.7046812954079087
 30
0.0
 40
0.040201798289139
 50
302.1882660916544978
 51
358.0970860049175144
  0
ARC
  5
A960
  8
0
 10
671.3684126321976464
 20
143.5782825274137053
 30
0.0
 40
0.0687607054705846
 50
351.0062650473942085
 51
31.8885675540041618
  0
ARC
  5
A961
  8
0
 10
671.4946691247666877
 20
143.6038490543326134
 30
0.0
 40
0.0687205802379063
 50
170.9937955996039136
 51
211.9010370018004892
  0
ARC
  5
A962
  8
0
 10
669.9366533541937088
 20
148.8671706167249056
 30
0.0
 40
5.1513312804022338
 50
285.341180066538584
 51
285.6051617309452126
  0
ARC
  5
A963
  8
0
 10
671.3078159586325455
 20
143.8691606822767142
 30
0.0
 40
0.0313504764351029
 50
105.3411800665386977
 51
188.9555305479906053
  0
ARC
  5
A964
  8
0
 10
671.4606065542360511
 20
143.8675431873938066
 30
0.0
 40
0.1837878567825926
 50
181.0172192049714113
 51
209.1955902606059112
  0
ARC
  5
A965
  8
0
 10
671.3253607084623127
 20
143.8067708006215923
 30
0.0
 40
0.0383229678631591
 50
228.8980915678822043
 51
280.2976704631208236
  0
ARC
  5
A966
  8
0
 10
671.5875944857956483
 20
142.8600026354114902
 30
0.0
 40
0.9442537430295987
 50
104.5096357965791043
 51
105.6916546862332069
  0
ARC
  5
A967
  8
0
 10
671.3454736385751858
 20
143.7333288256621984
 30
0.0
 40
0.0411860263418085
 50
26.7484183375935913
 51
82.2628073694118171
  0
ARC
  5
A968
  8
0
 10
671.1370150474674574
 20
143.7956447061833103
 30
0.0
 40
0.2491143783703611
 50
349.8783296390463988
 51
34.967174703468082
  0
ARC
  5
A969
  8
0
 10
671.3009797989637946
 20
143.939748852038008
 30
0.0
 40
0.040201798289139
 50
302.1882660916544978
 51
358.0970860049175144
  0
ARC
  5
A96A
  8
0
 10
671.2255684945770327
 20
143.8133500840438046
 30
0.0
 40
0.0687607054705846
 50
351.0062650473942085
 51
31.8885675540041618
  0
ARC
  5
A96B
  8
0
 10
671.3518249871459602
 20
143.8389166109627126
 30
0.0
 40
0.0687205802379063
 50
170.9937955996039136
 51
211.9010370018004892
  0
ARC
  5
A96C
  8
0
 10
670.2183043922585739
 20
148.1337233869039949
 30
0.0
 40
5.1513312804022338
 50
285.341180066538584
 51
285.6051617309452126
  0
ARC
  5
A96D
  8
0
 10
671.589466996697297
 20
143.1357134524558035
 30
0.0
 40
0.0313504764351029
 50
105.3411800665386977
 51
188.9555305479906053
  0
ARC
  5
A96E
  8
0
 10
671.7422575923010299
 20
143.1340959575728107
 30
0.0
 40
0.1837878567825926
 50
181.0172192049714113
 51
209.1955902606059112
  0
ARC
  5
A96F
  8
0
 10
671.6070117465270641
 20
143.0733235708005964
 30
0.0
 40
0.0383229678631591
 50
228.8980915678822043
 51
280.2976704631208236
  0
ARC
  5
A970
  8
0
 10
671.5604566509202868
 20
143.247900643294912
 30
0.0
 40
0.2188975627752378
 50
284.1213380235810178
 51
291.1594992367565169
  0
ARC
  5
A971
  8
0
 10
671.6246038907081584
 20
142.9851773885042121
 30
0.0
 40
0.0604409836064592
 50
40.3626706184894033
 51
75.7602991372739325
  0
ARC
  5
A972
  8
0
 10
671.4033904914466575
 20
143.045163223732601
 30
0.0
 40
0.2680785182029945
 50
355.5408121308656746
 51
36.9658733188898125
  0
ARC
  5
A973
  8
0
 10
671.5860577309149448
 20
143.1991549776763861
 30
0.0
 40
0.0323407769420249
 50
303.7950774133598202
 51
12.8896291709888793
  0
ARC
  5
A974
  8
0
 10
671.5150875218831743
 20
143.0752861730842085
 30
0.0
 40
0.0622602862662408
 50
354.3473858452945819
 51
38.9082411768451166
  0
ARC
  5
A975
  8
0
 10
671.6350518444495492
 20
143.1111125106700968
 30
0.0
 40
0.0715913811552946
 50
177.3758115992567923
 51
215.879815422883496
  0
ARC
  5
A976
  8
0
 10
670.1907628182798362
 20
147.9696328477816962
 30
0.0
 40
5.1513312804022338
 50
285.341180066538584
 51
285.6051617309452126
  0
ARC
  5
A977
  8
0
 10
671.561925422718673
 20
142.9716229133335048
 30
0.0
 40
0.0313504764351029
 50
105.3411800665386977
 51
188.9555305479906053
  0
ARC
  5
A978
  8
0
 10
671.7147160183222923
 20
142.970005418450512
 30
0.0
 40
0.1837878567825926
 50
181.0172192049714113
 51
209.1955902606059112
  0
ARC
  5
A979
  8
0
 10
671.5794701725485538
 20
142.9092330316782977
 30
0.0
 40
0.0383229678631591
 50
228.8980915678822043
 51
280.2976704631208236
  0
ARC
  5
A97A
  8
0
 10
671.5329150769416628
 20
143.0838101041726134
 30
0.0
 40
0.2188975627752378
 50
284.1213380235810178
 51
291.1594992367565169
  0
ARC
  5
A97B
  8
0
 10
671.5970623167295344
 20
142.8210868493819135
 30
0.0
 40
0.0604409836064592
 50
40.3626706184894033
 51
75.7602991372739325
  0
ARC
  5
A97C
  8
0
 10
671.4220654616505044
 20
142.8858463172547886
 30
0.0
 40
0.2225298247571234
 50
353.3897576018458722
 51
43.1380426299625697
  0
ARC
  5
A97D
  8
0
 10
671.5588746574007928
 20
143.0288500860660861
 30
0.0
 40
0.0271613309784693
 50
310.4732337597710057
 51
19.6930957765457393
  0
ARC
  5
A97E
  8
0
 10
671.4875459479044366
 20
142.9111956339619098
 30
0.0
 40
0.0622602862662408
 50
354.3473858452945819
 51
38.9082411768451166
  0
ARC
  5
A97F
  8
0
 10
671.6075102704709252
 20
142.9470219715477981
 30
0.0
 40
0.0715913811552946
 50
177.3758115992567923
 51
215.879815422883496
  0
ARC
  5
A980
  8
0
 10
670.3559297800189825
 20
147.6444695581849942
 30
0.0
 40
5.1513312804022338
 50
285.341180066538584
 51
285.6051617309452126
  0
ARC
  5
A981
  8
0
 10
671.7270923844578192
 20
142.6464596237368028
 30
0.0
 40
0.0313504764351029
 50
105.3411800665386977
 51
188.9555305479906053
  0
ARC
  5
A982
  8
0
 10
671.8798829800614385
 20
142.6448421288536963
 30
0.0
 40
0.1837878567825926
 50
181.0172192049714113
 51
209.1955902606059112
  0
ARC
  5
A983
  8
0
 10
671.7446371342875864
 20
142.5840697420815957
 30
0.0
 40
0.0383229678631591
 50
228.8980915678822043
 51
280.2976704631208236
  0
ARC
  5
A984
  8
0
 10
671.6980820386805817
 20
142.7586468145759113
 30
0.0
 40
0.2188975627752378
 50
284.1213380235810178
 51
291.1594992367565169
  0
ARC
  5
A985
  8
0
 10
671.7622292784685669
 20
142.4959235597850977
 30
0.0
 40
0.0604409836064592
 50
40.3626706184894033
 51
75.7602991372739325
  0
ARC
  5
A986
  8
0
 10
671.5410158792071798
 20
142.5559093950136003
 30
0.0
 40
0.2680785182029945
 50
355.5408121308656746
 51
36.9658733188898125
  0
ARC
  5
A987
  8
0
 10
671.7236831186753534
 20
142.7099011489574139
 30
0.0
 40
0.0323407769420249
 50
303.7950774133598202
 51
12.8896291709888793
  0
ARC
  5
A988
  8
0
 10
671.6527129096434692
 20
142.5860323443652078
 30
0.0
 40
0.0622602862662408
 50
354.3473858452945819
 51
38.9082411768451166
  0
ARC
  5
A989
  8
0
 10
671.7726772322100715
 20
142.6218586819510961
 30
0.0
 40
0.0715913811552946
 50
177.3758115992567923
 51
215.879815422883496
  0
ARC
  5
A98A
  8
0
 10
670.2598609091154458
 20
147.6499295507288139
 30
0.0
 40
5.1513312804022338
 50
285.341180066538584
 51
285.6051617309452126
  0
ARC
  5
A98B
  8
0
 10
671.6310235135542825
 20
142.651919616280594
 30
0.0
 40
0.0313504764351029
 50
105.3411800665386977
 51
188.9555305479906053
  0
ARC
  5
A98C
  8
0
 10
671.7838141091577882
 20
142.6503021213976012
 30
0.0
 40
0.1837878567825926
 50
181.0172192049714113
 51
209.1955902606059112
  0
ARC
  5
A98D
  8
0
 10
671.6485682633840497
 20
142.5895297346253869
 30
0.0
 40
0.0383229678631591
 50
228.8980915678822043
 51
280.2976704631208236
  0
ARC
  5
A98E
  8
0
 10
671.6020131677771587
 20
142.7641068071197026
 30
0.0
 40
0.2188975627752378
 50
284.1213380235810178
 51
291.1594992367565169
  0
ARC
  5
A98F
  8
0
 10
671.6661604075651439
 20
142.501383552328889
 30
0.0
 40
0.0604409836064592
 50
40.3626706184894033
 51
75.7602991372739325
  0
ARC
  5
A990
  8
0
 10
671.4449470083036431
 20
142.5613693875573915
 30
0.0
 40
0.2680785182029945
 50
355.5408121308656746
 51
1.410708282736947
  0
ARC
  5
A991
  8
0
 10
671.4449470083036431
 20
142.5613693875573915
 30
0.0
 40
0.2680785182029945
 50
20.1590467806642089
 51
36.9658733188898125
  0
ARC
  5
A992
  8
0
 10
671.6276142477719304
 20
142.7153611415012051
 30
0.0
 40
0.0323407769420249
 50
303.7950774133598202
 51
12.8896291709888793
  0
ARC
  5
A993
  8
0
 10
671.5566440387400462
 20
142.5914923369089991
 30
0.0
 40
0.0622602862662408
 50
354.3473858452945819
 51
38.9082411768451166
  0
ARC
  5
A994
  8
0
 10
671.6766083613065348
 20
142.6273186744948873
 30
0.0
 40
0.0715913811552946
 50
177.3758115992567923
 51
215.879815422883496
  0
ARC
  5
A995
  8
0
 10
670.4172811313603688
 20
147.3216204893219867
 30
0.0
 40
5.1513312804022338
 50
285.341180066538584
 51
285.6051617309452126
  0
ARC
  5
A996
  8
0
 10
671.7884437357993193
 20
142.3236105548737953
 30
0.0
 40
0.0313504764351029
 50
105.3411800665386977
 51
188.9555305479906053
  0
ARC
  5
A997
  8
0
 10
671.9412343314029386
 20
142.3219930599908025
 30
0.0
 40
0.1837878567825926
 50
181.0172192049714113
 51
209.1955902606059112
  0
ARC
  5
A998
  8
0
 10
671.8059884856289727
 20
142.2612206732185882
 30
0.0
 40
0.0383229678631591
 50
228.8980915678822043
 51
280.2976704631208236
  0
ARC
  5
A999
  8
0
 10
671.7594333900221955
 20
142.4357977457129039
 30
0.0
 40
0.2188975627752378
 50
284.1213380235810178
 51
291.1594992367565169
  0
ARC
  5
A99A
  8
0
 10
671.8235806298101807
 20
142.1730744909222039
 30
0.0
 40
0.0604409836064592
 50
40.3626706184894033
 51
75.7602991372739325
  0
ARC
  5
A99B
  8
0
 10
671.6023672305485661
 20
142.2330603261507065
 30
0.0
 40
0.2680785182029945
 50
355.5408121308656746
 51
36.9658733188898125
  0
ARC
  5
A99C
  8
0
 10
671.7850344700169671
 20
142.3870520800944064
 30
0.0
 40
0.0323407769420249
 50
303.7950774133598202
 51
12.8896291709888793
  0
ARC
  5
A99D
  8
0
 10
671.7140642609850829
 20
142.263183275502314
 30
0.0
 40
0.0622602862662408
 50
354.3473858452945819
 51
38.9082411768451166
  0
ARC
  5
A99E
  8
0
 10
671.8340285835514578
 20
142.2990096130880886
 30
0.0
 40
0.0715913811552946
 50
177.3758115992567923
 51
215.879815422883496
  0
ARC
  5
A99F
  8
0
 10
671.7855309757891291
 20
142.2166383578706075
 30
0.0
 40
0.0313504764351029
 50
111.6001149888858066
 51
188.9555305479906053
  0
ARC
  5
A9A0
  8
0
 10
671.9383215713927484
 20
142.2150208629875863
 30
0.0
 40
0.1837878567825926
 50
181.0172192049714113
 51
209.1955902606059112
  0
ARC
  5
A9A1
  8
0
 10
671.8030757256187826
 20
142.1542484762155141
 30
0.0
 40
0.0383229678631591
 50
228.8980915678822043
 51
280.2976704631208236
  0
ARC
  5
A9A2
  8
0
 10
671.7565206300120053
 20
142.3288255487098013
 30
0.0
 40
0.2188975627752378
 50
284.1213380235810178
 51
291.1594992367565169
  0
ARC
  5
A9A3
  8
0
 10
671.8206678697997631
 20
142.0661022939189877
 30
0.0
 40
0.0604409836064592
 50
40.3626706184894033
 51
75.7602991372739325
  0
ARC
  5
A9A4
  8
0
 10
671.599454470538376
 20
142.1260881291474902
 30
0.0
 40
0.2680785182029945
 50
355.5408121308656746
 51
22.5176887451818999
  0
ARC
  5
A9A5
  8
0
 10
671.7111515009747791
 20
142.1562110784990978
 30
0.0
 40
0.0622602862662408
 50
354.3473858452945819
 51
38.9082411768451166
  0
ARC
  5
A9A6
  8
0
 10
671.8311158235412677
 20
142.1920374160849008
 30
0.0
 40
0.0715913811552946
 50
177.3758115992567923
 51
215.879815422883496
  0
ARC
  5
A9A7
  8
0
 10
670.0645730517978791
 20
148.4104764513174075
 30
0.0
 40
5.1513312804022338
 50
285.341180066538584
 51
285.6051617309452126
  0
ARC
  5
A9A8
  8
0
 10
671.4357356562368295
 20
143.4124665168693014
 30
0.0
 40
0.0313504764351029
 50
105.3411800665386977
 51
188.9555305479906053
  0
ARC
  5
A9A9
  8
0
 10
671.5885262518404488
 20
143.4108490219863086
 30
0.0
 40
0.1837878567825926
 50
181.0172192049714113
 51
209.1955902606059112
  0
ARC
  5
A9AA
  8
0
 10
671.4532804060665967
 20
143.3500766352140943
 30
0.0
 40
0.0383229678631591
 50
228.8980915678822043
 51
280.2976704631208236
  0
ARC
  5
A9AB
  8
0
 10
671.7155141833999323
 20
142.4033084700039922
 30
0.0
 40
0.9442537430295987
 50
104.5096357965791043
 51
105.6916546862332069
  0
ARC
  5
A9AC
  8
0
 10
671.4733933361794698
 20
143.2766346602547003
 30
0.0
 40
0.0411860263418085
 50
26.7484183375935913
 51
82.2628073694118171
  0
ARC
  5
A9AD
  8
0
 10
671.2649347450717414
 20
143.3389505407758122
 30
0.0
 40
0.2491143783703611
 50
349.8783296390463988
 51
34.967174703468082
  0
ARC
  5
A9AE
  8
0
 10
671.4288994965678512
 20
143.4830546866303962
 30
0.0
 40
0.040201798289139
 50
302.1882660916544978
 51
358.0970860049175144
  0
ARC
  5
A9AF
  8
0
 10
671.3534881921813167
 20
143.3566559186363065
 30
0.0
 40
0.0687607054705846
 50
351.0062650473942085
 51
31.8885675540041618
  0
ARC
  5
A9B0
  8
0
 10
671.4797446847502442
 20
143.3822224455551861
 30
0.0
 40
0.0687205802379063
 50
170.9937955996039136
 51
211.9010370018004892
  0
ARC
  5
A9B1
  8
0
 10
670.0356025187360274
 20
148.2826973153393055
 30
0.0
 40
5.1513312804022338
 50
285.341180066538584
 51
285.6051617309452126
  0
ARC
  5
A9B2
  8
0
 10
671.4067651231747504
 20
143.2846873808911141
 30
0.0
 40
0.0313504764351029
 50
105.3411800665386977
 51
188.9555305479906053
  0
ARC
  5
A9B3
  8
0
 10
671.5595557187784834
 20
143.2830698860080929
 30
0.0
 40
0.1837878567825926
 50
181.0172192049714113
 51
209.1955902606059112
  0
ARC
  5
A9B4
  8
0
 10
671.4243098730046313
 20
143.222297499235907
 30
0.0
 40
0.0383229678631591
 50
228.8980915678822043
 51
280.2976704631208236
  0
ARC
  5
A9B5
  8
0
 10
671.6865436503380806
 20
142.2755293340258902
 30
0.0
 40
0.9442537430295987
 50
104.5096357965791043
 51
105.6916546862332069
  0
ARC
  5
A9B6
  8
0
 10
671.4444228031176181
 20
143.1488555242765983
 30
0.0
 40
0.0411860263418085
 50
26.7484183375935913
 51
82.2628073694118171
  0
ARC
  5
A9B7
  8
0
 10
671.235964212009776
 20
143.2111714047975966
 30
0.0
 40
0.2491143783703611
 50
349.8783296390463988
 51
24.1853453304834112
  0
ARC
  5
A9B8
  8
0
 10
671.3999289635061132
 20
143.3552755506522942
 30
0.0
 40
0.040201798289139
 50
302.1882660916544978
 51
310.6792382439676885
  0
ARC
  5
A9B9
  8
0
 10
671.3245176591193513
 20
143.2288767826580909
 30
0.0
 40
0.0687607054705846
 50
351.0062650473942085
 51
31.8885675540041618
  0
ARC
  5
A9BA
  8
0
 10
671.4507741516882788
 20
143.2544433095771126
 30
0.0
 40
0.0687205802379063
 50
170.9937955996039136
 51
211.9010370018004892
  0
ARC
  5
A9BB
  8
0
 10
671.0709220415186564
 20
144.3547885581538139
 30
0.0
 40
0.0420843475854034
 50
319.2255052606460026
 51
18.2070514550804212
  0
ARC
  5
A9BC
  8
0
 10
671.0757510078025234
 20
144.3506240560739116
 30
0.0
 40
0.0357076718885205
 50
284.1609802783431178
 51
319.2255052606489016
  0
ARC
  5
A9BD
  8
0
 10
671.140616285267356
 20
144.0935428987820046
 30
0.0
 40
0.229430453727433
 50
104.1609802783431036
 51
106.5196977983571003
  0
ARC
  5
A9BE
  8
0
 10
671.0838154451171249
 20
144.2850575180511044
 30
0.0
 40
0.0296701352566363
 50
106.5196977983465985
 51
182.549937903412399
  0
ARC
  5
A9BF
  8
0
 10
671.5467074286782463
 20
144.3056720508687931
 30
0.0
 40
0.4930209175030751
 50
182.5499379034116032
 51
208.5010640746839101
  0
ARC
  5
A9C0
  8
0
 10
671.1357818423723529
 20
144.0923036710977101
 30
0.0
 40
0.0312799534266989
 50
224.4089221183610903
 51
282.1099939411838022
  0
ARC
  5
A9C1
  8
0
 10
671.1563438608193337
 20
144.0354097395484132
 30
0.0
 40
0.0298029266353545
 50
100.9316100248361039
 51
118.0178519848526975
  0
ARC
  5
A9C2
  8
0
 10
671.1640747829270595
 20
143.99538257054121
 30
0.0
 40
0.0705698423313384
 50
94.2107467110056689
 51
100.9316100248361039
  0
ARC
  5
A9C3
  8
0
 10
671.5854413460432397
 20
144.3131170561536862
 30
0.0
 40
0.5261226194890494
 50
186.5916922133013998
 51
203.3636701726946967
  0
ARC
  5
A9C4
  8
0
 10
670.5561825214972487
 20
144.0377576603100067
 30
0.0
 40
0.5503339990080619
 50
6.9631075473796402
 51
22.9922548386170895
  0
ARC
  5
A9C5
  8
0
 10
670.7326727280410523
 20
144.2575641716204871
 30
0.0
 40
0.3758800622633052
 50
10.5818967024267003
 51
21.8981807045698815
  0
ARC
  5
A9C6
  8
0
 10
669.9988793565350989
 20
143.8911757702067007
 30
0.0
 40
1.209913486811464
 50
11.3683071564271305
 51
23.2065171156463883
  0
ARC
  5
A9C7
  8
0
 10
671.1877472059516094
 20
143.8531582505017923
 30
0.0
 40
0.0393904985756814
 50
14.2898876061678504
 51
105.1028361002109932
  0
ARC
  5
A9C8
  8
0
 10
671.595299785823272
 20
142.3429984555417889
 30
0.0
 40
1.603577735345515
 50
105.1028361002109932
 51
105.6888639857081955
  0
ARC
  5
A9C9
  8
0
 10
671.1562462002322036
 20
143.906147519059914
 30
0.0
 40
0.02006109327306
 50
199.2915357844175048
 51
285.6888639857182284
  0
ARC
  5
A9CA
  8
0
 10
672.0203369868588652
 20
144.2086045109815871
 30
0.0
 40
0.935557198942314
 50
191.8981267986544879
 51
199.2915357844175048
  0
ARC
  5
A9CB
  8
0
 10
671.1237551018076601
 20
144.0196956874019918
 30
0.0
 40
0.0192899779699741
 50
102.8912592373074943
 51
191.8981267986540047
  0
ARC
  5
A9CC
  8
0
 10
671.0816261847003261
 20
144.2037692356032039
 30
0.0
 40
0.1695430615225334
 50
282.8912592373073949
 51
288.2512729912356235
  0
ARC
  5
A9CD
  8
0
 10
671.1205620224529866
 20
144.0857014124723037
 30
0.0
 40
0.0452208578726498
 50
288.2512729912356235
 51
329.3078306069688779
  0
ARC
  5
A9CE
  8
0
 10
670.5445781499946634
 20
143.7635666760835136
 30
0.0
 40
0.6885409111753381
 50
8.2931969732257542
 51
20.0407099720890507
  0
ARC
  5
A9CF
  8
0
 10
671.6892080700349652
 20
142.4313297233948106
 30
0.0
 40
0.0275243167199529
 50
20.1378244392142314
 51
105.3461564232028991
  0
ARC
  5
A9D0
  8
0
 10
675.1075331969766467
 20
129.9754701803014996
 30
0.0
 40
12.9439241104221008
 50
105.3461564232028991
 51
105.4585963376141962
  0
ARC
  5
A9D1
  8
0
 10
671.6500223653866897
 20
142.4779278867584082
 30
0.0
 40
0.0278078422627608
 50
214.2671720069726007
 51
285.4585963376075028
  0
ARC
  5
A9D2
  8
0
 10
671.9836438318159253
 20
142.641101835175192
 30
0.0
 40
0.3989309674622206
 50
193.6142434052455883
 51
206.6331354614559928
  0
ARC
  5
A9D3
  8
0
 10
671.6252782017370464
 20
142.5502752030807869
 30
0.0
 40
0.0295170139146693
 50
110.611826595911495
 51
185.9802068597296909
  0
ARC
  5
A9D4
  8
0
 10
671.2754017794807169
 20
142.3753971631913942
 30
0.0
 40
0.4444869215617597
 50
8.4621096440644354
 51
24.4757873353482616
  0
ARC
  5
A9D5
  8
0
 10
671.6885054028084596
 20
142.3802518112532027
 30
0.0
 40
0.02753786352248
 50
20.0840588233354502
 51
105.3705601548908959
  0
ARC
  5
A9D6
  8
0
 10
672.3973212723185497
 20
139.7589686883470108
 30
0.0
 40
2.7429648754459368
 50
105.1337614609201978
 51
105.6622483682016025
  0
ARC
  5
A9D7
  8
0
 10
671.649515299140603
 20
142.4268167253090951
 30
0.0
 40
0.0277084083211994
 50
206.2242088840563952
 51
285.2721294357692159
  0
ARC
  5
A9D8
  8
0
 10
673.6819673002382842
 20
143.2158823308510023
 30
0.0
 40
2.2078530181489588
 50
199.0091720692786907
 51
201.2806210037234962
  0
ARC
  5
A9D9
  8
0
 10
671.6231683832867247
 20
142.4992458945594933
 30
0.0
 40
0.0287612693050229
 50
133.2192906243068933
 51
184.9953218063465954
  0
ARC
  5
A9DA
  8
0
 10
670.7463259206397197
 20
142.1044742283974074
 30
0.0
 40
1.009190393481846
 50
16.4176225117114214
 51
20.55309978320631
  0
ARC
  5
A9DB
  8
0
 10
671.5630424297223726
 20
142.7385870091360971
 30
0.0
 40
0.0275243167199529
 50
20.1378244392142314
 51
105.3461564232028991
  0
ARC
  5
A9DC
  8
0
 10
674.9813675566639404
 20
130.2827274660427861
 30
0.0
 40
12.9439241104221008
 50
105.3461564232028991
 51
105.4585963376141962
  0
ARC
  5
A9DD
  8
0
 10
671.5238567250739834
 20
142.7851851724996948
 30
0.0
 40
0.0278078422627608
 50
214.2671720069726007
 51
285.4585963376075028
  0
ARC
  5
A9DE
  8
0
 10
671.857478191503219
 20
142.9483591209163933
 30
0.0
 40
0.3989309674622206
 50
193.6142434052449914
 51
206.6331354614559928
  0
ARC
  5
A9DF
  8
0
 10
671.4991125614244538
 20
142.8575324888219882
 30
0.0
 40
0.0295170139146693
 50
110.611826595911495
 51
185.9802068597296909
  0
ARC
  5
A9E0
  8
0
 10
669.9199243084755153
 20
142.4108984162836009
 30
0.0
 40
1.7026763676856591
 50
11.4212211440786096
 51
15.9218933541554808
  0
ARC
  5
A9E1
  8
0
 10
671.5711640356953467
 20
142.7002404569082046
 30
0.0
 40
0.02753786352248
 50
20.0840588233354502
 51
105.3705601548908959
  0
ARC
  5
A9E2
  8
0
 10
672.2799799052055505
 20
140.0789573340020979
 30
0.0
 40
2.7429648754459368
 50
105.1337614609201978
 51
105.6622483682016025
  0
ARC
  5
A9E3
  8
0
 10
671.5321739320273764
 20
142.7468053709640969
 30
0.0
 40
0.0277084083211994
 50
206.2242088840563952
 51
285.2721294357692159
  0
ARC
  5
A9E4
  8
0
 10
673.5646259331250576
 20
143.5358709765060041
 30
0.0
 40
2.2078530181489588
 50
199.0091720692786907
 51
201.2806210037234962
  0
ARC
  5
A9E5
  8
0
 10
671.5058270161737255
 20
142.8192345402144952
 30
0.0
 40
0.0287612693050229
 50
166.7500727712431114
 51
184.9953218063465954
  0
ARC
  5
A9E6
  8
0
 10
670.6289845535267204
 20
142.4244628740524092
 30
0.0
 40
1.009190393481846
 50
16.4176225117114214
 51
19.3893300561887187
  0
ARC
  5
A9E7
  8
0
 10
671.5369458908517117
 20
142.8733946464082862
 30
0.0
 40
0.027359617198574
 50
72.9488020792105232
 51
105.205857336136205
  0
ARC
  5
A9E8
  8
0
 10
672.4836489453772401
 20
139.3903558766699007
 30
0.0
 40
3.6367647960263749
 50
105.205857336136205
 51
105.5858432821172954
  0
ARC
  5
A9E9
  8
0
 10
671.4988855433321078
 20
142.9207495748138967
 30
0.0
 40
0.0284007693884865
 50
200.084684026146391
 51
285.5858432821107158
  0
ARC
  5
A9EA
  8
0
 10
672.386850419811708
 20
143.2454294481599106
 30
0.0
 40
0.973862900844589
 50
194.9037873460700041
 51
200.084684026146391
  0
ARC
  5
A9EB
  8
0
 10
671.4738709417119935
 20
142.9945948321881133
 30
0.0
 40
0.0281240873619801
 50
103.0982760149639006
 51
179.2659197965899978
  0
ARC
  5
A9EC
  8
0
 10
671.3208673638215487
 20
143.5729079801348007
 30
0.0
 40
0.5701000480501404
 50
284.904016776564788
 51
286.7720384683066754
  0
ARC
  5
A9ED
  8
0
 10
671.4646725699158196
 20
143.0575090221423977
 30
0.0
 40
0.0368222122499725
 50
304.2156467793819843
 51
5.8147459025666448
  0
ARC
  5
A9EE
  8
0
 10
671.2276475495832528
 20
142.8980084413784937
 30
0.0
 40
0.3186423941897802
 50
15.9913499261206997
 51
30.8151908868740207
  0
ARC
  5
A9EF
  8
0
 10
671.4998054886898444
 20
142.9182570585005863
 30
0.0
 40
0.0280758784959257
 50
285.6956367387708156
 51
308.9668128536839049
  0
ARC
  5
A9F0
  8
0
 10
671.5735688967622536
 20
142.6557586422401869
 30
0.0
 40
0.2445895921997961
 50
105.6956367387708013
 51
110.2976281249688952
  0
ARC
  5
A9F1
  8
0
 10
671.4067007285880209
 20
143.1393847739005025
 30
0.0
 40
0.0398280039707991
 50
19.0146943164242508
 51
104.4796557719677992
  0
ARC
  5
A9F2
  8
0
 10
671.4418646483568409
 20
143.0032165443965937
 30
0.0
 40
0.180463305299211
 50
104.4796557719676997
 51
108.2329674955478964
  0
ARC
  5
A9F3
  8
0
 10
671.3770900822493104
 20
143.1998481181076102
 30
0.0
 40
0.0265625872709643
 50
196.1711287791513882
 51
288.2329674955511791
  0
ARC
  5
A9F4
  8
0
 10
674.3115957087218248
 20
144.2728269732133128
 30
0.0
 40
3.1510182395126871
 50
196.2976696675451933
 51
200.0515771109799914
  0
ARC
  5
A9F5
  8
0
 10
671.3110644122250505
 20
143.3973356674960087
 30
0.0
 40
0.0254293849909876
 50
101.2697718709086985
 51
200.1781179993716933
  0
ARC
  5
A9F6
  8
0
 10
671.4447320945031379
 20
142.9368503801642873
 30
0.0
 40
0.5048337305305934
 50
105.2636142077716954
 51
105.9393553509129049
  0
ARC
  5
A9F7
  8
0
 10
671.2973205751379737
 20
143.4638835707403928
 30
0.0
 40
0.042557138605855
 50
289.9331976877642774
 51
13.3690761553661002
  0
ARC
  5
A9F8
  8
0
 10
680.5428567885203393
 20
146.6888996855622054
 30
0.0
 40
9.7495337519599747
 50
199.2552653907804938
 51
200.2517342306890953
  0
ARC
  5
A9F9
  8
0
 10
671.2933504465111128
 20
143.4773082973169096
 30
0.0
 40
0.0393862036835351
 50
19.8623950563554814
 51
105.3728784627911068
  0
ARC
  5
A9FA
  8
0
 10
671.0162398795830541
 20
144.4852151501179094
 30
0.0
 40
1.00592068437685
 50
284.3510629243936023
 51
285.3728784627912205
  0
ARC
  5
A9FB
  8
0
 10
671.2605952399727585
 20
143.5301280022503079
 30
0.0
 40
0.0200702889450321
 50
198.9502470598625052
 51
284.3510629244001962
  0
ARC
  5
A9FC
  8
0
 10
673.525869351218148
 20
144.3079248136411934
 30
0.0
 40
2.415155815369614
 50
193.4505680139546087
 51
198.9502470598625052
  0
ARC
  5
A9FD
  8
0
 10
671.1944488395769213
 20
143.7503272001858932
 30
0.0
 40
0.017983168138507
 50
99.8452408420639159
 51
193.4505680139525907
  0
ARC
  5
A9FE
  8
0
 10
671.2421071782413264
 20
143.6176020822852024
 30
0.0
 40
0.1587674189320482
 50
102.6944234921433008
 51
108.6353730272352038
  0
ARC
  5
A9FF
  8
0
 10
671.1918678495829909
 20
143.8114876222794862
 30
0.0
 40
0.0419111850257645
 50
291.4845556773184967
 51
13.0200154282975493
  0
ARC
  5
AA00
  8
0
 10
671.0849864470486636
 20
143.7507854606392073
 30
0.0
 40
0.1635236669224984
 50
13.9428102475700104
 51
25.4012979331930886
  0
ARC
  5
AA01
  8
0
 10
671.213214846044707
 20
143.8137024926855077
 30
0.0
 40
0.0384947340549674
 50
285.396993930354995
 51
16.8927725582618393
  0
ARC
  5
AA02
  8
0
 10
626.7529998225203371
 20
305.2585791576930205
 30
0.0
 40
167.4934406786805994
 50
285.3947062076276211
 51
285.396993930354995
  0
ARC
  5
AA03
  8
0
 10
671.2250151341470428
 20
143.7456598334732121
 30
0.0
 40
0.0302390042511015
 50
105.3947062076308043
 51
203.984882272068603
  0
ARC
  5
AA04
  8
0
 10
672.0761778145305243
 20
143.910859283734311
 30
0.0
 40
0.8965356620641955
 50
191.4185560109478104
 51
204.8358787449921863
  0
ARC
  5
AA05
  8
0
 10
671.2838113153915174
 20
143.5532088857835902
 30
0.0
 40
0.0284495570450192
 50
221.6660427375126972
 51
285.0932265171380209
  0
ARC
  5
AA06
  8
0
 10
661.8436982908489199
 20
177.8440697411029987
 30
0.0
 40
35.5949906402957623
 50
285.3917414607486762
 51
285.4081714953140931
  0
ARC
  5
AA07
  8
0
 10
671.3110984014992937
 20
143.4900880118518955
 30
0.0
 40
0.0396549147827702
 50
22.6910339323175201
 51
104.6636631730127931
  0
ARC
  5
AA08
  8
0
 10
669.930253446816323
 20
148.6834718390558123
 30
0.0
 40
5.1513312804022338
 50
285.341180066538584
 51
285.6051617309452126
  0
ARC
  5
AA09
  8
0
 10
671.3014160512550461
 20
143.6854619046075925
 30
0.0
 40
0.0313504764351029
 50
105.3411800665386977
 51
188.9555305479906053
  0
ARC
  5
AA0A
  8
0
 10
671.4542066468586654
 20
143.6838444097245997
 30
0.0
 40
0.1837878567825926
 50
181.0172192049714113
 51
209.1955902606059112
  0
ARC
  5
AA0B
  8
0
 10
671.3189608010848133
 20
143.6230720229524138
 30
0.0
 40
0.0383229678631591
 50
228.8980915678822043
 51
280.2976704631208236
  0
ARC
  5
AA0C
  8
0
 10
671.5811945784181489
 20
142.6763038577423117
 30
0.0
 40
0.9442537430295987
 50
104.5096357965791043
 51
105.6916546862332069
  0
ARC
  5
AA0D
  8
0
 10
671.3390737311978
 20
143.5496300479931051
 30
0.0
 40
0.0411860263418085
 50
26.7484183375935913
 51
82.2628073694118171
  0
ARC
  5
AA0E
  8
0
 10
671.1306151400900717
 20
143.6119459285141033
 30
0.0
 40
0.2491143783703611
 50
349.8783296390463988
 51
34.967174703468082
  0
ARC
  5
AA0F
  8
0
 10
671.2945798915864088
 20
143.756050074368801
 30
0.0
 40
0.040201798289139
 50
302.1882660916544978
 51
358.0970860049175144
  0
ARC
  5
AA10
  8
0
 10
671.2191685871996469
 20
143.6296513063747113
 30
0.0
 40
0.0687607054705846
 50
351.0062650473942085
 51
31.8885675540041618
  0
ARC
  5
AA11
  8
0
 10
671.3454250797685745
 20
143.655217833293591
 30
0.0
 40
0.0687205802379063
 50
170.9937955996039136
 51
211.9010370018004892
  0
ARC
  5
AA12
  8
0
 10
671.1144257257459458
 20
143.5028404644864963
 30
0.0
 40
0.2332721215978358
 50
0.625083502732185
 51
21.1667575042579408
  0
ARC
  5
AA13
  8
0
 10
672.237520607304873
 20
140.5921059797007047
 30
0.0
 40
0.0119832167494929
 50
187.1183710705703902
 51
279.8254679318732769
  0
ARC
  5
AA14
  8
0
 10
668.1809610201042915
 20
140.0855138635874084
 30
0.0
 40
4.0760861633634411
 50
7.1183710705704062
 51
11.8361594101941705
  0
ARC
  5
AA15
  8
0
 10
670.627100755238871
 20
140.8208232675142995
 30
0.0
 40
1.5465665045203489
 50
3.7352136288825211
 51
25.0054246410362815
  0
ARC
  5
AA16
  8
0
 10
662.0013502020738088
 20
138.4271639366994862
 30
0.0
 40
10.4801941414754207
 50
16.9044788597219195
 51
20.612758421365001
  0
ARC
  5
AA17
  8
0
 10
647.1263454317059995
 20
133.3705153071190068
 30
0.0
 40
26.1872103780329404
 50
19.7991864575376617
 51
20.1702189205584403
  0
ARC
  5
AA18
  8
0
 10
683.1202323127340605
 20
146.8065629607789049
 30
0.0
 40
12.2311167790162205
 50
199.5340157414900943
 51
199.7486774482144085
  0
ARC
  5
AA19
  8
0
 10
684.0820481425864727
 20
147.3825385773081962
 30
0.0
 40
13.3295211194234593
 50
198.4470409641207027
 51
199.0733604118900928
  0
ARC
  5
AA1A
  8
0
 10
663.7615296972076067
 20
141.0565460492838099
 30
0.0
 40
7.9506451945017167
 50
17.6050988254622283
 51
18.1191698933706284
  0
ARC
  5
AA1B
  8
0
 10
671.8038371369030983
 20
143.818607178752103
 30
0.0
 40
0.607231858361336
 50
189.9572262031338994
 51
203.9545310532913902
  0
ARC
  5
AA1C
  8
0
 10
670.6789484983222565
 20
143.4756411893201005
 30
0.0
 40
0.5780575398603182
 50
9.6021025358627661
 51
24.3096547371492591
  0
ARC
  5
AA1D
  8
0
 10
960.4958722095884696
 20
223.5969719952298931
 30
0.0
 40
300.0644920325909197
 50
195.4059179935995871
 51
195.4205779630256075
  0
ARC
  5
AA1E
  8
0
 10
671.4650297410591975
 20
145.5489918880697076
 30
0.0
 40
0.5976982512298373
 50
186.4686185051797906
 51
191.5622662282362114
  0
ARC
  5
AA1F
  8
0
 10
691.4914885743728519
 20
147.5259730706603989
 30
0.0
 40
20.7272337953981811
 50
184.5422444634093893
 51
184.8571872415897985
  0
ARC
  5
AA20
  8
0
 10
677.7035081527419607
 20
146.4027127976629004
 30
0.0
 40
6.8942914355363571
 50
179.5660803607424896
 51
182.1202895938839106
  0
ARC
  5
AA21
  8
0
 10
670.8213374438314531
 20
146.4548347192342135
 30
0.0
 40
0.0119233575205212
 50
107.5279033472716037
 51
179.5660803607507034
  0
ARC
  5
AA22
  8
0
 10
670.8411028500164548
 20
146.3922531480345128
 30
0.0
 40
0.0775520428302127
 50
102.9886743192945033
 51
107.5279033472718027
  0
ARC
  5
AA23
  8
0
 10
671.2164408426339151
 20
144.5785875747486102
 30
0.0
 40
0.1548330035476025
 50
180.4809419730565878
 51
192.8813428076948071
  0
ARC
  5
AA24
  8
0
 10
670.9337770312133671
 20
144.5138549229544083
 30
0.0
 40
0.1427089869554903
 50
13.2004366520638392
 51
26.3908383168191989
  0
ARC
  5
AA25
  8
0
 10
671.4960227037331606
 20
144.630694278310699
 30
0.0
 40
0.4352041514143705
 50
188.0605180703693975
 51
191.2919983495027054
  0
ARC
  5
AA26
  8
0
 10
671.5866641997782835
 20
144.002535787093791
 30
0.0
 40
0.3605866861875298
 50
186.2947269955043055
 51
205.0935031331054006
  0
ARC
  5
AA27
  8
0
 10
670.9485487988504246
 20
143.8232403554301868
 30
0.0
 40
0.3126761188222256
 50
4.8382004718456804
 51
26.550029656763769
  0
ARC
  5
AA28
  8
0
 10
671.802492455188144
 20
144.0666670793044091
 30
0.0
 40
0.5818206984243351
 50
190.8400578514676056
 51
200.9815966626680961
  0
ARC
  5
AA29
  8
0
 10
670.0569269753052595
 20
141.110131972527995
 30
0.0
 40
2.025356482790146
 50
12.9202656590334097
 51
28.6926476623636511
  0
ARC
  5
AA2A
  8
0
 10
672.5560303184222448
 20
141.930284724847013
 30
0.0
 40
0.6407457945294225
 50
199.3334227989251133
 51
214.9756307888291076
  0
ARC
  5
AA2B
  8
0
 10
673.8972838078168479
 20
142.5687391787477054
 30
0.0
 40
2.1202010497959551
 50
193.25723232874941
 51
195.9332048496358993
  0
ARC
  5
AA2C
  8
0
 10
684.4940485787335547
 20
142.5514139037721861
 30
0.0
 40
11.4554953335705694
 50
189.7939030714869091
 51
194.6743305450524133
  0
ARC
  5
AA2D
  8
0
 10
670.479056699321518
 20
140.132140281312104
 30
0.0
 40
2.7667717937307281
 50
9.7939030714870832
 51
24.3051105926014692
  0
ARC
  5
AA2E
  8
0
 10
671.2667908762332445
 20
141.071088612216613
 30
0.0
 40
1.7452883157033361
 50
6.5750310351396477
 51
24.0684922017412113
  0
ARC
  5
AA2F
  8
0
 10
676.6856795673703573
 20
143.5432552598884115
 30
0.0
 40
4.2109595105252851
 50
194.1107132215558977
 51
204.711489770716895
  0
ARC
  5
AA30
  8
0
 10
6428.7285399684742515
 20
1751.0964984746169648
 30
0.0
 40
5976.6649936228723163
 50
195.5714842347994988
 51
195.6132997587669138
  0
ARC
  5
AA31
  8
0
 10
673.3574829018514265
 20
137.1021426130145926
 30
0.0
 40
0.0197
 50
270.0000000000227942
 51
358.1639073269772098
  0
ARC
  5
AA32
  8
0
 10
672.3975825040753307
 20
137.1021426130145926
 30
0.0
 40
0.0197
 50
179.5857676870382988
 51
270.000000000019611
  0
LINE
  5
AA34
  8
0
 10
671.1926478840075561
 20
114.072894709414598
 30
0.0
 11
671.1926478840075561
 21
114.1328306327614968
 31
0.0
  0
LINE
  5
AA35
  8
0
 10
671.8619392225075444
 20
114.072894709414598
 30
0.0
 11
671.8619392225075444
 21
114.126989815767601
 31
0.0
  0
ARC
  5
AA36
  8
0
 10
665.2928204802368555
 20
144.693318830706886
 30
0.0
 40
5.8282957807482267
 50
11.5504130172975294
 51
18.6517315694103516
  0
ENDSEC
  0
EOF
