  0
SECTION
  2
HEADER
  9
$ACADVER
  1
AC1009
  9
$INSBASE
 10
3601.1200453731657944
 20
196.2911198260997025
 30
0.0
  9
$EXTMIN
 10
3598.2275282303289714
 20
192.7349393244055022
 30
-0.0000000349181948
  9
$EXTMAX
 10
3603.9892535602971293
 20
199.8368670959571887
 30
0.0000000814935746
  9
$LIMMIN
 10
0.0
 20
0.0
  9
$LIMMAX
 10
11.6929133858000007
 20
8.2677165353999982
  9
$ORTHOMODE
 70
     0
  9
$REGENMODE
 70
     1
  9
$FILLMODE
 70
     1
  9
$QTEXTMODE
 70
     0
  9
$MIRRTEXT
 70
     0
  9
$DRAGMODE
 70
     2
  9
$LTSCALE
 40
0.6431102362
  9
$OSMODE
 70
  4095
  9
$ATTMODE
 70
     1
  9
$TEXTSIZE
 40
0.2
  9
$TRACEWID
 40
0.05
  9
$TEXTSTYLE
  7
STANDARD
  9
$CLAYER
  8
0
  9
$CELTYPE
  6
BYLAYER
  9
$CECOLOR
 62
   256
  9
$DIMSCALE
 40
1.0
  9
$DIMASZ
 40
0.1875
  9
$DIMEXO
 40
0.0625
  9
$DIMDLI
 40
0.4443307087
  9
$DIMRND
 40
0.0
  9
$DIMDLE
 40
0.0
  9
$DIMEXE
 40
0.125
  9
$DIMTP
 40
0.01
  9
$DIMTM
 40
0.01
  9
$DIMTXT
 40
2.0
  9
$DIMCEN
 40
0.1052362205
  9
$DIMTSZ
 40
0.0
  9
$DIMTOL
 70
     1
  9
$DIMLIM
 70
     0
  9
$DIMTIH
 70
     1
  9
$DIMTOH
 70
     1
  9
$DIMSE1
 70
     0
  9
$DIMSE2
 70
     0
  9
$DIMTAD
 70
     0
  9
$DIMZIN
 70
     0
  9
$DIMBLK
  1

  9
$DIMASO
 70
     1
  9
$DIMSHO
 70
     1
  9
$DIMPOST
  1
\X
  9
$DIMAPOST
  1

  9
$DIMALT
 70
     1
  9
$DIMALTD
 70
     2
  9
$DIMALTF
 40
25.3999999999999986
  9
$DIMLFAC
 40
1.0
  9
$DIMTOFL
 70
     0
  9
$DIMTVP
 40
0.0
  9
$DIMTIX
 70
     0
  9
$DIMSOXD
 70
     0
  9
$DIMSAH
 70
     0
  9
$DIMBLK1
  1

  9
$DIMBLK2
  1

  9
$DIMSTYLE
  2
STANDARD
  9
$DIMCLRD
 70
     0
  9
$DIMCLRE
 70
     0
  9
$DIMCLRT
 70
     0
  9
$DIMTFAC
 40
1.0
  9
$DIMGAP
 40
0.09
  9
$LUNITS
 70
     2
  9
$LUPREC
 70
     4
  9
$SKETCHINC
 40
0.1
  9
$FILLETRAD
 40
0.0
  9
$AUNITS
 70
     0
  9
$AUPREC
 70
     0
  9
$MENU
  1
.
  9
$ELEVATION
 40
0.0
  9
$PELEVATION
 40
0.0
  9
$THICKNESS
 40
0.0
  9
$LIMCHECK
 70
     0
  9
$BLIPMODE
 70
     0
  9
$CHAMFERA
 40
0.0
  9
$CHAMFERB
 40
0.0
  9
$SKPOLY
 70
     0
  9
$TDCREATE
 40
2458060.468368056230247
  9
$TDUPDATE
 40
2460181.6745254630222917
  9
$TDINDWG
 40
0.553884375
  9
$TDUSRTIMER
 40
0.553884375
  9
$USRTIMER
 70
     1
  9
$ANGBASE
 50
0.0
  9
$ANGDIR
 70
     0
  9
$PDMODE
 70
     0
  9
$PDSIZE
 40
0.3125
  9
$PLINEWID
 40
0.0
  9
$COORDS
 70
     1
  9
$SPLFRAME
 70
     0
  9
$SPLINETYPE
 70
     6
  9
$SPLINESEGS
 70
     8
  9
$ATTDIA
 70
     1
  9
$ATTREQ
 70
     1
  9
$HANDLING
 70
     1
  9
$HANDSEED
  5
B904
  9
$SURFTAB1
 70
     6
  9
$SURFTAB2
 70
     6
  9
$SURFTYPE
 70
     6
  9
$SURFU
 70
     6
  9
$SURFV
 70
     6
  9
$UCSNAME
  2

  9
$UCSORG
 10
0.0
 20
0.0
 30
0.0
  9
$UCSXDIR
 10
1.0
 20
0.0
 30
0.0
  9
$UCSYDIR
 10
0.0
 20
1.0
 30
0.0
  9
$PUCSNAME
  2

  9
$PUCSORG
 10
0.0
 20
0.0
 30
0.0
  9
$PUCSXDIR
 10
1.0
 20
0.0
 30
0.0
  9
$PUCSYDIR
 10
0.0
 20
1.0
 30
0.0
  9
$USERI1
 70
     0
  9
$USERI2
 70
     0
  9
$USERI3
 70
     0
  9
$USERI4
 70
     0
  9
$USERI5
 70
     0
  9
$USERR1
 40
0.0
  9
$USERR2
 40
0.0
  9
$USERR3
 40
0.0
  9
$USERR4
 40
0.0
  9
$USERR5
 40
0.0
  9
$WORLDVIEW
 70
     1
  9
$SHADEDGE
 70
     3
  9
$SHADEDIF
 70
    70
  9
$TILEMODE
 70
     1
  9
$MAXACTVP
 70
    64
  9
$PLIMCHECK
 70
     0
  9
$PEXTMIN
 10
1.0000000000000000E+20
 20
1.0000000000000000E+20
 30
1.0000000000000000E+20
  9
$PEXTMAX
 10
-1.0000000000000000E+20
 20
-1.0000000000000000E+20
 30
-1.0000000000000000E+20
  9
$PLIMMIN
 10
0.0
 20
0.0
  9
$PLIMMAX
 10
12.0
 20
9.0
  9
$UNITMODE
 70
     0
  9
$VISRETAIN
 70
     1
  9
$PLINEGEN
 70
     0
  9
$PSLTSCALE
 70
     1
  0
ENDSEC
  0
SECTION
  2
TABLES
  0
TABLE
  2
VPORT
 70
     1
  0
VPORT
  2
*ACTIVE
 70
     0
 10
0.0
 20
0.0
 11
1.0
 21
1.0
 12
297.4152756609382777
 22
1.024391634293635
 13
0.0
 23
0.0
 14
1.0
 24
1.0
 15
0.0
 25
0.0
 16
0.0
 26
0.0
 36
96.5995694866707311
 17
3303.693115234375
 27
195.2615115758877096
 37
0.0
 40
7.1622040416803401
 41
2.5251322751322749
 42
50.0
 43
0.0
 44
0.0
 50
0.0
 51
0.0
 71
     0
 72
   100
 73
     1
 74
     1
 75
     0
 76
     0
 77
     0
 78
     0
  0
ENDTAB
  0
TABLE
  2
LTYPE
 70
     2
  0
LTYPE
  2
CONTINUOUS
 70
     0
  3
Solid line
 72
    65
 73
     0
 40
0.0
  0
LTYPE
  2
PHANTOM2
 70
     0
  3
___ _ _ ___ _ _ ___ _ _ ___ _ _
 72
    65
 73
     6
 40
1.25
 49
0.625
 49
-0.125
 49
0.125
 49
-0.125
 49
0.125
 49
-0.125
  0
ENDTAB
  0
TABLE
  2
LAYER
 70
     2
  0
LAYER
  2
0
 70
     0
 62
   255
  6
CONTINUOUS
  0
LAYER
  2
DEFPOINTS
 70
     0
 62
     7
  6
CONTINUOUS
  0
ENDTAB
  0
TABLE
  2
STYLE
 70
     1
  0
STYLE
  2
STANDARD
 70
     0
 40
0.0
 41
0.8
 50
0.0
 71
     0
 42
0.2
  3
txt
  4

  0
ENDTAB
  0
TABLE
  2
VIEW
 70
     0
  0
ENDTAB
  0
TABLE
  2
UCS
 70
     0
  0
ENDTAB
  0
TABLE
  2
APPID
 70
     9
  0
APPID
  2
ACAD
 70
     0
  0
APPID
  2
ACAD_MLEADERVER
 70
     0
  0
APPID
  2
ACAD_EXEMPT_FROM_CAD_STANDARDS
 70
     0
  0
APPID
  2
ACAD_NAV_VCDISPLAY
 70
     0
  0
APPID
  2
ACAECLAYERSTANDARD
 70
     0
  0
APPID
  2
ACCMTRANSPARENCY
 70
     0
  0
APPID
  2
ACAD_DSTYLE_DIMJAG
 70
     0
  0
APPID
  2
ACAD_DSTYLE_DIMTALN
 70
     0
  0
APPID
  2
ACDBATTR
 70
     0
  0
ENDTAB
  0
TABLE
  2
DIMSTYLE
 70
     1
  0
DIMSTYLE
  2
STANDARD
 70
     0
  3

  4

  5

  6

  7

 40
1.0
 41
0.1875
 42
0.0625
 43
0.38
 44
0.125
 45
0.0
 46
0.0
 47
0.01
 48
0.01
140
0.15625
141
0.09
142
0.0
143
25.3999999999999986
144
1.0
145
0.0
146
1.0
147
0.09
 71
     1
 72
     0
 73
     1
 74
     1
 75
     0
 76
     0
 77
     0
 78
     4
170
     0
171
     2
172
     0
173
     0
174
     0
175
     0
176
     0
177
     0
178
     0
  0
ENDTAB
  0
ENDSEC
  0
SECTION
  2
BLOCKS
  0
BLOCK
  8
0
  2
$MODEL_SPACE
 70
     0
 10
0.0
 20
0.0
 30
0.0
  3
$MODEL_SPACE
  1

  0
ENDBLK
  5
21
  8
0
  0
BLOCK
 67
     1
  8
0
  2
$PAPER_SPACE
 70
     0
 10
0.0
 20
0.0
 30
0.0
  3
$PAPER_SPACE
  1

  0
ENDBLK
  5
1D
 67
     1
  8
0
  0
BLOCK
  8
0
  2
_FILLED
 70
     0
 10
0.0
 20
0.0
 30
0.0
  3
_FILLED
  1

  0
SOLID
  5
9E2C
  8
0
  6
BYBLOCK
 62
     0
 10
0.0
 20
0.0
 30
0.0
 11
-1.0
 21
0.1666666667
 31
0.0
 12
-1.0
 22
-0.1666666667
 32
0.0
 13
-1.0
 23
-0.1666666667
 33
0.0
  0
ENDBLK
  5
9E2D
  8
0
  6
BYBLOCK
 62
     0
  0
ENDSEC
  0
SECTION
  2
ENTITIES
  0
ATTDEF
  5
97D3
  8
DEFPOINTS
 10
3601.118762024022999
 20
196.2948047960636018
 30
0.0
 40
0.001
  1
K-20936T-3
  3

  2
MODELNUMBER
 70
     0
1001
ACDBATTR
1070
     0
1070
     1
  0
ATTDEF
  5
97D4
  8
DEFPOINTS
 10
3601.118762024022999
 20
196.2931381293969935
 30
0.0
 40
0.001
  1
MODULO
  3

  2
TRADENAME
 70
     0
1001
ACDBATTR
1070
     0
1070
     1
  0
ATTDEF
  5
97D5
  8
DEFPOINTS
 10
3601.118762024022999
 20
196.2914714627302999
 30
0.0
 40
0.001
  1
VALVE TRIM
  3

  2
PRODUCT
 70
     0
1001
ACDBATTR
1070
     0
1070
     1
  0
LINE
  5
B801
  8
0
 10
3598.4428320469328355
 20
199.8344269126932886
 30
0.0
 11
3603.7972982857381794
 21
199.8344269126932886
 31
0.0
  0
ARC
  5
B802
  8
0
 10
3598.4428122138251638
 20
199.7557545546883944
 30
0.0
 40
0.078672360504921
 50
89.9855558753819764
 51
180.0144441246245037
  0
LINE
  5
B803
  8
0
 10
3598.3641398558211222
 20
199.7557347215806089
 30
0.0
 11
3598.3641398558211222
 21
192.8265051507744943
 31
0.0
  0
ARC
  5
B804
  8
0
 10
3598.4428122138638173
 20
192.8264850975934905
 30
0.0
 40
0.0786723606001403
 50
179.9853955997351136
 51
270.0144440958791847
  0
ARC
  5
B805
  8
0
 10
3603.7972785215779368
 20
192.8264850974724141
 30
0.0
 40
0.078672360442197
 50
269.985679743695016
 51
0.0144441435535872
  0
LINE
  5
B806
  8
0
 10
3603.8759508795201327
 20
192.8265049306060916
 30
0.0
 11
3603.8759508795201327
 21
199.7557347215933135
 31
0.0
  0
ARC
  5
B807
  8
0
 10
3603.7972784870707983
 20
199.7557545201887876
 30
0.0
 40
0.0786723949958498
 50
359.9854206481065262
 51
89.9855809646761031
  0
ARC
  5
B808
  8
0
 10
3601.3365808008670683
 20
199.3188213198532139
 30
0.0
 40
0.0984251967537429
 50
359.9999999651676035
 51
89.0000000489111045
  0
LINE
  5
B809
  8
0
 10
3601.4350059976209195
 20
199.3188213197933862
 30
0.0
 11
3601.435260159120844
 21
197.9249780659934004
 31
0.0
  0
ARC
  5
B80A
  8
0
 10
3601.1202995292492233
 20
197.9249780659642113
 30
0.0
 40
0.3149606298708587
 50
179.9874615288736095
 51
0.0000000051442546
  0
LINE
  5
B80B
  8
0
 10
3600.8053389069209516
 20
197.9250469911933124
 30
0.0
 11
3600.8056439240090185
 21
199.3188526193933114
 31
0.0
  0
ARC
  5
B80C
  8
0
 10
3600.9040691186951335
 20
199.3188310802590877
 30
0.0
 40
0.0984251970424883
 50
91.0000002751855845
 51
179.9874615288736095
  0
LINE
  5
B80D
  8
0
 10
3600.902351361719866
 20
199.4172412865933097
 30
0.0
 11
3601.1200453677211044
 21
199.4210411495934068
 31
0.0
  0
LINE
  5
B80E
  8
0
 10
3601.1200453677211044
 20
199.4210411495934068
 30
0.0
 11
3601.3382985572320649
 21
199.4172315260595951
 31
0.0
  0
ARC
  5
B80F
  8
0
 10
3601.1200453677211044
 20
197.9249780937934133
 30
0.0
 40
0.6241307753145415
 50
120.2678200213702979
 51
59.6926193664339806
  0
ARC
  5
B810
  8
0
 10
3601.1200453399637809
 20
197.9248925972775055
 30
0.0
 40
0.6692058420796206
 50
118.0391914814372996
 51
61.9236063002687729
  0
LINE
  5
B811
  8
0
 10
3600.9035099346201605
 20
196.2714347867932929
 30
0.0
 11
3601.3365808007201849
 21
196.2714347866933053
 31
0.0
  0
ARC
  5
B812
  8
0
 10
3601.3365808006979023
 20
196.1730095897706008
 30
0.0
 40
0.0984251969227264
 50
0.0000000714414666
 51
89.9999999867639957
  0
LINE
  5
B813
  8
0
 10
3601.4350059976209195
 20
196.173009589893411
 30
0.0
 11
3601.4350059988719295
 21
195.169072581993305
 31
0.0
  0
ARC
  5
B814
  8
0
 10
3601.5137461564700061
 20
195.169072582091502
 30
0.0
 40
0.0787401575981797
 50
180.000000071443111
 51
269.9999990176705182
  0
LINE
  5
B815
  8
0
 10
3601.5137461551198612
 20
195.0903324244933117
 30
0.0
 11
3602.517683162882804
 21
195.0903324072810108
 31
0.0
  0
ARC
  5
B816
  8
0
 10
3602.5176831611947819
 20
194.9919072086557037
 30
0.0
 40
0.0984251986252765
 50
0.0000110240577845
 51
89.9999990176704756
  0
LINE
  5
B817
  8
0
 10
3602.6161083598199184
 20
194.9919072275934013
 30
0.0
 11
3602.616108443146004
 21
194.5588363614934053
 31
0.0
  0
ARC
  5
B818
  8
0
 10
3602.5176832651832228
 20
194.5588363425557077
 30
0.0
 40
0.0984251779624562
 50
269.9999404701061962
 51
0.0000110240561561
  0
LINE
  5
B819
  8
0
 10
3602.5176831629210028
 20
194.4604111645934097
 30
0.0
 11
3601.5137461551198612
 21
194.4604122076763133
 31
0.0
  0
ARC
  5
B81A
  8
0
 10
3601.5137460733108128
 20
194.3816721319782062
 30
0.0
 40
0.0787400756982296
 50
89.9999404701061962
 51
180.0008184577164059
  0
LINE
  5
B81B
  8
0
 10
3601.4350059976209195
 20
194.381671007193404
 30
0.0
 11
3601.4350203386411522
 21
193.3777339994958027
 31
0.0
  0
ARC
  5
B81C
  8
0
 10
3601.3365965462521672
 20
193.377732593533409
 30
0.0
 40
0.098423792399477
 50
269.9908339995907909
 51
0.0008184577164792
  0
LINE
  5
B81D
  8
0
 10
3601.3365808007201849
 20
193.2793088023933024
 30
0.0
 11
3600.9035099346201605
 21
193.2793088024934036
 31
0.0
  0
ARC
  5
B81E
  8
0
 10
3600.9036441636349082
 20
193.3778682284076069
 30
0.0
 40
0.0985595173180485
 50
180.0780316738409113
 51
269.9219683843693929
  0
LINE
  5
B81F
  8
0
 10
3600.8050847377207901
 20
193.3777339992934117
 30
0.0
 11
3600.8050847377207901
 21
194.3816706323204073
 31
0.0
  0
ARC
  5
B820
  8
0
 10
3600.7263444856671413
 20
194.3816709126400042
 30
0.0
 40
0.0787402520534613
 50
359.9997960239090844
 51
89.9999311252607868
  0
LINE
  5
B821
  8
0
 10
3600.7263445803209834
 20
194.460411164693312
 30
0.0
 11
3599.7224792317679203
 21
194.460411164693312
 31
0.0
  0
ARC
  5
B822
  8
0
 10
3599.7224076167258318
 20
194.5588363798455021
 30
0.0
 40
0.0984252412060087
 50
180.000010683242408
 51
270.0416888997247042
  0
LINE
  5
B823
  8
0
 10
3599.6239823755208818
 20
194.5588363614934053
 30
0.0
 11
3599.6239823758319289
 21
194.991907227655588
 31
0.0
  0
ARC
  5
B824
  8
0
 10
3599.7224075727399395
 20
194.9919072275847896
 30
0.0
 40
0.0984251969085035
 50
90.0000001860594807
 51
179.9999999588378046
  0
LINE
  5
B825
  8
0
 10
3599.7224075724211616
 20
195.0903324244933117
 30
0.0
 11
3600.7263445803209834
 21
195.0903324277535944
 31
0.0
  0
ARC
  5
B826
  8
0
 10
3600.7263445800649606
 20
195.1690725855092978
 30
0.0
 40
0.0787401577557041
 50
270.0000001860594807
 51
359.999997441613516
  0
LINE
  5
B827
  8
0
 10
3600.8050847378208346
 20
195.169072581993305
 30
0.0
 11
3600.8050847826489189
 21
196.173009589893411
 31
0.0
  0
ARC
  5
B828
  8
0
 10
3600.9035099839429677
 20
196.1730095854985052
 30
0.0
 40
0.098425201294922
 50
90.0000287121513338
 51
179.9999974416134876
  0
ARC
  5
B829
  8
0
 10
3601.1200453677211044
 20
194.7753717945934113
 30
0.0
 40
0.9143265184000002
 50
110.1496163977223972
 51
159.8503821004445911
  0
ARC
  5
B82A
  8
0
 10
3601.1200453677211044
 20
194.7753717945934113
 30
0.0
 40
0.9143265184000002
 50
200.1496177826703899
 51
249.8503822106497978
  0
ARC
  5
B82B
  8
0
 10
3601.1200453677211044
 20
194.7753717945934113
 30
0.0
 40
0.9143265184000002
 50
290.1500608425074006
 51
339.8504196104798893
  0
ARC
  5
B82C
  8
0
 10
3601.1200453677211044
 20
194.7753717945934113
 30
0.0
 40
0.9143265184000002
 50
20.1496172508895803
 51
69.8503821724602432
  0
ARC
  5
B82D
  8
0
 10
3601.1200453677211044
 20
194.7753717945934113
 30
0.0
 40
0.8211093777000003
 50
112.5555737775213032
 51
157.4444248355009108
  0
ARC
  5
B82E
  8
0
 10
3601.1200453677211044
 20
194.7753717945934113
 30
0.0
 40
0.8211093777000003
 50
202.5555750076107131
 51
247.444424984822092
  0
ARC
  5
B82F
  8
0
 10
3601.1200453677211044
 20
194.7753717945934113
 30
0.0
 40
0.8211093777000003
 50
292.5559685301233799
 51
337.4444751754750769
  0
ARC
  5
B830
  8
0
 10
3601.1200453677211044
 20
194.7753717945934113
 30
0.0
 40
0.8211093777000003
 50
22.5555745353064907
 51
67.44442493214828
  0
ARC
  5
B831
  8
0
 10
3601.1200453677211044
 20
194.7753717945934113
 30
0.0
 40
0.8661003600000003
 50
111.3247533445231028
 51
158.675245209269093
  0
ARC
  5
B832
  8
0
 10
3601.1200453677211044
 20
194.7753717945934113
 30
0.0
 40
0.8661003600000003
 50
201.3247546544922102
 51
248.6752453384204955
  0
ARC
  5
B833
  8
0
 10
3601.1200453677211044
 20
194.7753717945934113
 30
0.0
 40
0.8661003600000003
 50
291.3251737220074915
 51
338.6752889332087193
  0
ARC
  5
B834
  8
0
 10
3601.1200453677211044
 20
194.7753717945934113
 30
0.0
 40
0.8661003600000003
 50
21.3247541514940799
 51
68.6752452931928872
  0
LINE
  5
B835
  8
0
 10
3598.4428320469328355
 20
192.7478127394932983
 30
0.0
 11
3600.5585518027769467
 21
192.7478127394909961
 31
0.0
  0
LINE
  5
B836
  8
0
 10
3600.5585518027769467
 20
192.7478127394909961
 30
0.0
 11
3600.5688851094978418
 21
192.7519372397997017
 31
0.0
  0
LINE
  5
B837
  8
0
 10
3600.5688851094978418
 20
192.7519372397997017
 30
0.0
 11
3600.8838457393981116
 21
192.7519372397997017
 31
0.0
  0
LINE
  5
B838
  8
0
 10
3600.8838457393981116
 20
192.7519372397997017
 30
0.0
 11
3600.8941790460980883
 21
192.7478127394996932
 31
0.0
  0
LINE
  5
B839
  8
0
 10
3600.8941790460980883
 20
192.7478127394996932
 30
0.0
 11
3601.3459533775981072
 21
192.7478127394996932
 31
0.0
  0
LINE
  5
B83A
  8
0
 10
3601.3459533775981072
 20
192.7478127394996932
 30
0.0
 11
3601.3562866842980839
 21
192.7519372397997017
 31
0.0
  0
LINE
  5
B83B
  8
0
 10
3601.3562866842980839
 20
192.7519372397997017
 30
0.0
 11
3601.6712473141969895
 21
192.7519372397997017
 31
0.0
  0
LINE
  5
B83C
  8
0
 10
3601.6712473141969895
 20
192.7519372397997017
 30
0.0
 11
3601.6815806208978756
 21
192.7478127394996932
 31
0.0
  0
LINE
  5
B83D
  8
0
 10
3601.6815806208978756
 20
192.7478127394996932
 30
0.0
 11
3603.7972588585521407
 21
192.7478127394873866
 31
0.0
  0
ENDSEC
  0
EOF
