  0
SECTION
  2
HEADER
  9
$ACADVER
  1
AC1009
  9
$INSBASE
 10
3594.4342424961291727
 20
194.44011218786531
 30
0.0
  9
$EXTMIN
 10
3591.664515384266906
 20
190.892709576181602
 30
-0.0000000000112498
  9
$EXTMAX
 10
3597.4135397328141153
 20
197.9936130726771069
 30
0.0000000000002956
  9
$LIMMIN
 10
0.0
 20
0.0
  9
$LIMMAX
 10
11.6929133858000007
 20
8.2677165353999982
  9
$ORTHOMODE
 70
     0
  9
$REGENMODE
 70
     1
  9
$FILLMODE
 70
     1
  9
$QTEXTMODE
 70
     0
  9
$MIRRTEXT
 70
     0
  9
$DRAGMODE
 70
     2
  9
$LTSCALE
 40
0.6431102362
  9
$OSMODE
 70
  4095
  9
$ATTMODE
 70
     1
  9
$TEXTSIZE
 40
0.2
  9
$TRACEWID
 40
0.05
  9
$TEXTSTYLE
  7
STANDARD
  9
$CLAYER
  8
0
  9
$CELTYPE
  6
BYLAYER
  9
$CECOLOR
 62
   256
  9
$DIMSCALE
 40
1.0
  9
$DIMASZ
 40
0.1875
  9
$DIMEXO
 40
0.0625
  9
$DIMDLI
 40
0.4443307087
  9
$DIMRND
 40
0.0
  9
$DIMDLE
 40
0.0
  9
$DIMEXE
 40
0.125
  9
$DIMTP
 40
0.01
  9
$DIMTM
 40
0.01
  9
$DIMTXT
 40
2.0
  9
$DIMCEN
 40
0.1052362205
  9
$DIMTSZ
 40
0.0
  9
$DIMTOL
 70
     1
  9
$DIMLIM
 70
     0
  9
$DIMTIH
 70
     1
  9
$DIMTOH
 70
     1
  9
$DIMSE1
 70
     0
  9
$DIMSE2
 70
     0
  9
$DIMTAD
 70
     0
  9
$DIMZIN
 70
     0
  9
$DIMBLK
  1

  9
$DIMASO
 70
     1
  9
$DIMSHO
 70
     1
  9
$DIMPOST
  1
\X
  9
$DIMAPOST
  1

  9
$DIMALT
 70
     1
  9
$DIMALTD
 70
     2
  9
$DIMALTF
 40
25.3999999999999986
  9
$DIMLFAC
 40
1.0
  9
$DIMTOFL
 70
     0
  9
$DIMTVP
 40
0.0
  9
$DIMTIX
 70
     0
  9
$DIMSOXD
 70
     0
  9
$DIMSAH
 70
     0
  9
$DIMBLK1
  1

  9
$DIMBLK2
  1

  9
$DIMSTYLE
  2
STANDARD
  9
$DIMCLRD
 70
     0
  9
$DIMCLRE
 70
     0
  9
$DIMCLRT
 70
     0
  9
$DIMTFAC
 40
1.0
  9
$DIMGAP
 40
0.09
  9
$LUNITS
 70
     2
  9
$LUPREC
 70
     4
  9
$SKETCHINC
 40
0.1
  9
$FILLETRAD
 40
0.0
  9
$AUNITS
 70
     0
  9
$AUPREC
 70
     0
  9
$MENU
  1
.
  9
$ELEVATION
 40
0.0
  9
$PELEVATION
 40
0.0
  9
$THICKNESS
 40
0.0
  9
$LIMCHECK
 70
     0
  9
$BLIPMODE
 70
     0
  9
$CHAMFERA
 40
0.0
  9
$CHAMFERB
 40
0.0
  9
$SKPOLY
 70
     0
  9
$TDCREATE
 40
2458060.468368056230247
  9
$TDUPDATE
 40
2459690.5115740741603076
  9
$TDINDWG
 40
0.5583635417
  9
$TDUSRTIMER
 40
0.5583635417
  9
$USRTIMER
 70
     1
  9
$ANGBASE
 50
0.0
  9
$ANGDIR
 70
     0
  9
$PDMODE
 70
     0
  9
$PDSIZE
 40
0.3125
  9
$PLINEWID
 40
0.0
  9
$COORDS
 70
     1
  9
$SPLFRAME
 70
     0
  9
$SPLINETYPE
 70
     6
  9
$SPLINESEGS
 70
     8
  9
$ATTDIA
 70
     1
  9
$ATTREQ
 70
     1
  9
$HANDLING
 70
     1
  9
$HANDSEED
  5
D5BD
  9
$SURFTAB1
 70
     6
  9
$SURFTAB2
 70
     6
  9
$SURFTYPE
 70
     6
  9
$SURFU
 70
     6
  9
$SURFV
 70
     6
  9
$UCSNAME
  2

  9
$UCSORG
 10
0.0
 20
0.0
 30
0.0
  9
$UCSXDIR
 10
1.0
 20
0.0
 30
0.0
  9
$UCSYDIR
 10
0.0
 20
1.0
 30
0.0
  9
$PUCSNAME
  2

  9
$PUCSORG
 10
0.0
 20
0.0
 30
0.0
  9
$PUCSXDIR
 10
1.0
 20
0.0
 30
0.0
  9
$PUCSYDIR
 10
0.0
 20
1.0
 30
0.0
  9
$USERI1
 70
     0
  9
$USERI2
 70
     0
  9
$USERI3
 70
     0
  9
$USERI4
 70
     0
  9
$USERI5
 70
     0
  9
$USERR1
 40
0.0
  9
$USERR2
 40
0.0
  9
$USERR3
 40
0.0
  9
$USERR4
 40
0.0
  9
$USERR5
 40
0.0
  9
$WORLDVIEW
 70
     1
  9
$SHADEDGE
 70
     3
  9
$SHADEDIF
 70
    70
  9
$TILEMODE
 70
     1
  9
$MAXACTVP
 70
    64
  9
$PLIMCHECK
 70
     0
  9
$PEXTMIN
 10
1.0000000000000000E+20
 20
1.0000000000000000E+20
 30
1.0000000000000000E+20
  9
$PEXTMAX
 10
-1.0000000000000000E+20
 20
-1.0000000000000000E+20
 30
-1.0000000000000000E+20
  9
$PLIMMIN
 10
0.0
 20
0.0
  9
$PLIMMAX
 10
12.0
 20
9.0
  9
$UNITMODE
 70
     0
  9
$VISRETAIN
 70
     1
  9
$PLINEGEN
 70
     0
  9
$PSLTSCALE
 70
     1
  0
ENDSEC
  0
SECTION
  2
TABLES
  0
TABLE
  2
VPORT
 70
     1
  0
VPORT
  2
*ACTIVE
 70
     0
 10
0.0
 20
0.0
 11
1.0
 21
1.0
 12
290.8459123241655107
 22
-0.818350251458412
 13
0.0
 23
0.0
 14
1.0
 24
1.0
 15
0.0
 25
0.0
 16
0.0
 26
0.0
 36
96.5995694866707311
 17
3303.693115234375
 27
195.2615115758877096
 37
0.0
 40
7.1453767960560759
 41
2.005224660397074
 42
50.0
 43
0.0
 44
0.0
 50
0.0
 51
0.0
 71
     0
 72
   100
 73
     1
 74
     1
 75
     0
 76
     0
 77
     0
 78
     0
  0
ENDTAB
  0
TABLE
  2
LTYPE
 70
     2
  0
LTYPE
  2
CONTINUOUS
 70
     0
  3
Solid line
 72
    65
 73
     0
 40
0.0
  0
LTYPE
  2
PHANTOM2
 70
     0
  3
___ _ _ ___ _ _ ___ _ _ ___ _ _
 72
    65
 73
     6
 40
1.25
 49
0.625
 49
-0.125
 49
0.125
 49
-0.125
 49
0.125
 49
-0.125
  0
ENDTAB
  0
TABLE
  2
LAYER
 70
     2
  0
LAYER
  2
0
 70
     0
 62
   255
  6
CONTINUOUS
  0
LAYER
  2
DEFPOINTS
 70
     0
 62
     7
  6
CONTINUOUS
  0
ENDTAB
  0
TABLE
  2
STYLE
 70
     1
  0
STYLE
  2
STANDARD
 70
     0
 40
0.0
 41
0.8
 50
0.0
 71
     0
 42
0.2
  3
txt
  4

  0
ENDTAB
  0
TABLE
  2
VIEW
 70
     0
  0
ENDTAB
  0
TABLE
  2
UCS
 70
     0
  0
ENDTAB
  0
TABLE
  2
APPID
 70
     9
  0
APPID
  2
ACAD
 70
     0
  0
APPID
  2
ACAD_MLEADERVER
 70
     0
  0
APPID
  2
ACAD_EXEMPT_FROM_CAD_STANDARDS
 70
     0
  0
APPID
  2
ACAD_NAV_VCDISPLAY
 70
     0
  0
APPID
  2
ACAECLAYERSTANDARD
 70
     0
  0
APPID
  2
ACCMTRANSPARENCY
 70
     0
  0
APPID
  2
ACAD_DSTYLE_DIMJAG
 70
     0
  0
APPID
  2
ACAD_DSTYLE_DIMTALN
 70
     0
  0
APPID
  2
ACDBATTR
 70
     0
  0
ENDTAB
  0
TABLE
  2
DIMSTYLE
 70
     1
  0
DIMSTYLE
  2
STANDARD
 70
     0
  3

  4

  5

  6

  7

 40
1.0
 41
0.1875
 42
0.0625
 43
0.38
 44
0.125
 45
0.0
 46
0.0
 47
0.01
 48
0.01
140
0.15625
141
0.09
142
0.0
143
25.3999999999999986
144
1.0
145
0.0
146
1.0
147
0.09
 71
     1
 72
     0
 73
     1
 74
     1
 75
     0
 76
     0
 77
     0
 78
     4
170
     0
171
     2
172
     0
173
     0
174
     0
175
     0
176
     0
177
     0
178
     0
  0
ENDTAB
  0
ENDSEC
  0
SECTION
  2
BLOCKS
  0
BLOCK
  8
0
  2
$MODEL_SPACE
 70
     0
 10
0.0
 20
0.0
 30
0.0
  3
$MODEL_SPACE
  1

  0
ENDBLK
  5
21
  8
0
  0
BLOCK
 67
     1
  8
0
  2
$PAPER_SPACE
 70
     0
 10
0.0
 20
0.0
 30
0.0
  3
$PAPER_SPACE
  1

  0
ENDBLK
  5
1D
 67
     1
  8
0
  0
ENDSEC
  0
SECTION
  2
ENTITIES
  0
ATTDEF
  5
C28F
  8
DEFPOINTS
 10
3594.4296626166851638
 20
194.4455490320864044
 30
0.0
 40
0.001
  1
K-20938T-3
  3

  2
MODELNUMBER
 70
     0
1001
ACDBATTR
1070
     0
1070
     1
  0
ATTDEF
  5
C290
  8
DEFPOINTS
 10
3594.4296626166851638
 20
194.4438823654197108
 30
0.0
 40
0.001
  1
MODULO
  3

  2
TRADENAME
 70
     0
1001
ACDBATTR
1070
     0
1070
     1
  0
ATTDEF
  5
C291
  8
DEFPOINTS
 10
3594.4296626166851638
 20
194.4422156987529888
 30
0.0
 40
0.001
  1
VALVE TRIM
  3

  2
PRODUCT
 70
     0
1001
ACDBATTR
1070
     0
1070
     1
  0
LINE
  5
D477
  8
0
 10
3591.757029175390926
 20
197.9834192744636141
 30
0.0
 11
3597.1114954141958151
 21
197.9834192744636141
 31
0.0
  0
ARC
  5
D478
  8
0
 10
3591.7570093422827995
 20
197.9047469164586062
 30
0.0
 40
0.078672360504921
 50
89.9855558753819764
 51
180.0144441246245037
  0
LINE
  5
D479
  8
0
 10
3591.6783369842792126
 20
197.904727083350906
 30
0.0
 11
3591.6783369842792126
 21
190.9754975125447061
 31
0.0
  0
ARC
  5
D47A
  8
0
 10
3591.7570093423228172
 20
190.9754774593637876
 30
0.0
 40
0.0786723606001403
 50
179.9853955997351136
 51
270.0144440958791847
  0
LINE
  5
D47B
  8
0
 10
3591.757029175390926
 20
190.8968051012635954
 30
0.0
 11
3593.8727489312341277
 21
190.8968051012612079
 31
0.0
  0
ARC
  5
D47C
  8
0
 10
3597.1114756500369367
 20
190.9754774592425974
 30
0.0
 40
0.078672360442197
 50
269.985679743695016
 51
0.0144441435535872
  0
LINE
  5
D47D
  8
0
 10
3597.1901480079791327
 20
190.9754972923763034
 30
0.0
 11
3597.1901480079791327
 21
197.9047270833636105
 31
0.0
  0
ARC
  5
D47E
  8
0
 10
3597.1114756155639043
 20
197.904746882048812
 30
0.0
 40
0.078672394905986
 50
359.9855809509890037
 51
89.9855809895326928
  0
ARC
  5
D47F
  8
0
 10
3594.6507779293251588
 20
197.4678136816233973
 30
0.0
 40
0.0984251967537429
 50
359.9999999651676035
 51
89.0000000489111045
  0
LINE
  5
D480
  8
0
 10
3594.7492031260781005
 20
197.467813681563598
 30
0.0
 11
3594.7494572875789345
 21
196.0739704277636122
 31
0.0
  0
ARC
  5
D481
  8
0
 10
3594.4344966577082232
 20
196.0739704277345083
 30
0.0
 40
0.3149606298708587
 50
179.9874615288736095
 51
0.0000000051442546
  0
LINE
  5
D482
  8
0
 10
3594.1195360353781325
 20
196.0740393529636094
 30
0.0
 11
3594.1198410524680185
 21
197.4678449811634948
 31
0.0
  0
ARC
  5
D483
  8
0
 10
3594.218266247153224
 20
197.4678234420294132
 30
0.0
 40
0.0984251970424883
 50
91.0000002751855845
 51
179.9874615288736095
  0
LINE
  5
D484
  8
0
 10
3594.2165484901788659
 20
197.5662336483636068
 30
0.0
 11
3594.4342424961778306
 21
197.5700335113635902
 31
0.0
  0
LINE
  5
D485
  8
0
 10
3594.4342424961778306
 20
197.5700335113635902
 30
0.0
 11
3594.6524956856910649
 21
197.5662238878298922
 31
0.0
  0
ARC
  5
D486
  8
0
 10
3594.4342424961778306
 20
196.0739704555635967
 30
0.0
 40
0.6241307753145415
 50
120.267820009577207
 51
59.6760379723775571
  0
ARC
  5
D487
  8
0
 10
3594.4342424961778306
 20
196.0739704555635967
 30
0.0
 40
0.6241307753145415
 50
59.6760379723775571
 51
59.6926193664339806
  0
ARC
  5
D488
  8
0
 10
3594.4342424684218713
 20
196.0738849590476889
 30
0.0
 40
0.6692058420796206
 50
118.0391914696572968
 51
61.9093870965762605
  0
LINE
  5
D489
  8
0
 10
3594.2177070630791604
 20
194.42042714856359
 30
0.0
 11
3594.6507779291778206
 21
194.4204271484636024
 31
0.0
  0
ARC
  5
D48A
  8
0
 10
3594.6507779291559928
 20
194.3220019515408978
 30
0.0
 40
0.0984251969227264
 50
0.0000000714414666
 51
89.9999999867639957
  0
LINE
  5
D48B
  8
0
 10
3594.7492031260781005
 20
194.3220019516635944
 30
0.0
 11
3594.7492031273300199
 21
193.3180649437636021
 31
0.0
  0
ARC
  5
D48C
  8
0
 10
3594.8279432849280965
 20
193.3180649438617991
 30
0.0
 40
0.0787401575981797
 50
180.000000071443111
 51
269.9999990176705182
  0
LINE
  5
D48D
  8
0
 10
3594.8279432835779517
 20
193.2393247862636088
 30
0.0
 11
3595.8318802913408945
 21
193.2393247690511942
 31
0.0
  0
ARC
  5
D48E
  8
0
 10
3595.8318802896528723
 20
193.1408995704260008
 30
0.0
 40
0.0984251986252765
 50
0.0000110240577845
 51
89.9999990176704756
  0
LINE
  5
D48F
  8
0
 10
3595.9303054882789183
 20
193.1408995893636131
 30
0.0
 11
3595.9303055716040944
 21
192.7078287232635887
 31
0.0
  0
ARC
  5
D490
  8
0
 10
3595.8318803936408585
 20
192.7078287043260048
 30
0.0
 40
0.0984251779624562
 50
269.9999404701061962
 51
0.0000110240561561
  0
LINE
  5
D491
  8
0
 10
3595.8318802913781838
 20
192.6094035263635931
 30
0.0
 11
3594.8279432835788612
 21
192.6094045694466104
 31
0.0
  0
ARC
  5
D492
  8
0
 10
3594.8279432017689032
 20
192.5306644937483895
 30
0.0
 40
0.0787400756982296
 50
89.9999404701061962
 51
180.0008184577164059
  0
LINE
  5
D493
  8
0
 10
3594.7492031260781005
 20
192.5306633689635873
 30
0.0
 11
3594.7492174671001521
 21
191.526726361265986
 31
0.0
  0
ARC
  5
D494
  8
0
 10
3594.6507936747098029
 20
191.5267249553035924
 30
0.0
 40
0.098423792399477
 50
269.9908339995907909
 51
0.0008184577164792
  0
LINE
  5
D495
  8
0
 10
3594.6507779291778206
 20
191.4283011641635994
 30
0.0
 11
3594.2177070630791604
 21
191.428301164263587
 31
0.0
  0
ARC
  5
D496
  8
0
 10
3594.2178412920920891
 20
191.5268605901777903
 30
0.0
 40
0.0985595173180485
 50
180.0780316738409113
 51
269.9219683843693929
  0
LINE
  5
D497
  8
0
 10
3594.1192818661779711
 20
191.526726361063595
 30
0.0
 11
3594.1192818661779711
 21
192.5306629940905907
 31
0.0
  0
ARC
  5
D498
  8
0
 10
3594.0405416141261412
 20
192.5306632744101876
 30
0.0
 40
0.0787402520534613
 50
359.9997960239090844
 51
89.9999311252607868
  0
LINE
  5
D499
  8
0
 10
3594.0405417087781643
 20
192.6094035264636091
 30
0.0
 11
3593.0366763602260107
 21
192.6094035264636091
 31
0.0
  0
ARC
  5
D49A
  8
0
 10
3593.0366047451848317
 20
192.7078287416157991
 30
0.0
 40
0.0984252412060087
 50
180.000010683242408
 51
270.0416888997247042
  0
LINE
  5
D49B
  8
0
 10
3592.9381795039780627
 20
192.7078287232635887
 30
0.0
 11
3592.9381795042891099
 21
193.1408995894257998
 31
0.0
  0
ARC
  5
D49C
  8
0
 10
3593.0366047011980299
 20
193.1408995893550866
 30
0.0
 40
0.0984251969085035
 50
90.0000001860594807
 51
179.9999999588378046
  0
LINE
  5
D49D
  8
0
 10
3593.0366047008778878
 20
193.2393247862636088
 30
0.0
 11
3594.0405417087781643
 21
193.2393247895238062
 31
0.0
  0
ARC
  5
D49E
  8
0
 10
3594.0405417085230511
 20
193.3180649472795096
 30
0.0
 40
0.0787401577557041
 50
270.0000001860594807
 51
359.999997441613516
  0
LINE
  5
D49F
  8
0
 10
3594.119281866278925
 20
193.3180649437636021
 30
0.0
 11
3594.1192819111070094
 21
194.3220019516635944
 31
0.0
  0
ARC
  5
D4A0
  8
0
 10
3594.2177071124010581
 20
194.3220019472686886
 30
0.0
 40
0.098425201294922
 50
90.0000287121513338
 51
179.9999974416134876
  0
ARC
  5
D4A1
  8
0
 10
3594.4342424961778306
 20
192.9243641563635947
 30
0.0
 40
0.9143265184000002
 50
110.1496163976955955
 51
159.8503821004414931
  0
ARC
  5
D4A2
  8
0
 10
3594.4342424961778306
 20
192.9243641563635947
 30
0.0
 40
0.9143265184000002
 50
200.1496177826674057
 51
249.8503822106765142
  0
ARC
  5
D4A3
  8
0
 10
3594.4342424961778306
 20
192.9243641563635947
 30
0.0
 40
0.9143265184000002
 50
290.1500608425074006
 51
339.850419610482902
  0
ARC
  5
D4A4
  8
0
 10
3594.4342424961778306
 20
192.9243641563635947
 30
0.0
 40
0.9143265184000002
 50
20.1496172508926392
 51
69.8503821724602432
  0
ARC
  5
D4A5
  8
0
 10
3594.4342424961778306
 20
192.9243641563635947
 30
0.0
 40
0.8211093777000003
 50
112.5555737774948
 51
157.4444248355038951
  0
ARC
  5
D4A6
  8
0
 10
3594.4342424961778306
 20
192.9243641563635947
 30
0.0
 40
0.8211093777000003
 50
202.555575007618188
 51
247.444424984823911
  0
ARC
  5
D4A7
  8
0
 10
3594.4342424961778306
 20
192.9243641563635947
 30
0.0
 40
0.8211093777000003
 50
292.5559685301240052
 51
337.4444751754750769
  0
ARC
  5
D4A8
  8
0
 10
3594.4342424961778306
 20
192.9243641563635947
 30
0.0
 40
0.8211093777000003
 50
22.5555745353049808
 51
67.44442493214828
  0
ARC
  5
D4A9
  8
0
 10
3594.4342424961778306
 20
192.9243641563635947
 30
0.0
 40
0.8661003600000003
 50
111.3247533445218949
 51
158.6752452092644887
  0
ARC
  5
D4AA
  8
0
 10
3594.4342424961778306
 20
192.9243641563635947
 30
0.0
 40
0.8661003600000003
 50
201.3247546544845932
 51
248.6752453384216892
  0
ARC
  5
D4AB
  8
0
 10
3594.4342424961778306
 20
192.9243641563635947
 30
0.0
 40
0.8661003600000003
 50
291.3251737220062978
 51
338.6752889332025802
  0
ARC
  5
D4AC
  8
0
 10
3594.4342424961778306
 20
192.9243641563635947
 30
0.0
 40
0.8661003600000003
 50
21.3247541515001515
 51
68.6752452931928872
  0
LINE
  5
D4AD
  8
0
 10
3593.8727489312341277
 20
190.8968051012612079
 30
0.0
 11
3593.8830822379559322
 21
190.9009296015699135
 31
0.0
  0
LINE
  5
D4AE
  8
0
 10
3593.8830822379559322
 20
190.9009296015699135
 30
0.0
 11
3594.1980428678548378
 21
190.9009296015699135
 31
0.0
  0
LINE
  5
D4AF
  8
0
 10
3594.1980428678548378
 20
190.9009296015699135
 30
0.0
 11
3594.2083761745561787
 21
190.896805101269905
 31
0.0
  0
LINE
  5
D4B0
  8
0
 10
3594.2083761745561787
 20
190.896805101269905
 30
0.0
 11
3594.6601505060561976
 21
190.896805101269905
 31
0.0
  0
LINE
  5
D4B1
  8
0
 10
3594.6601505060561976
 20
190.896805101269905
 30
0.0
 11
3594.6704838127561743
 21
190.9009296015699135
 31
0.0
  0
LINE
  5
D4B2
  8
0
 10
3594.6704838127561743
 20
190.9009296015699135
 30
0.0
 11
3594.9854444426559894
 21
190.9009296015699135
 31
0.0
  0
LINE
  5
D4B3
  8
0
 10
3594.9854444426559894
 20
190.9009296015699135
 30
0.0
 11
3594.9957777493559661
 21
190.896805101269905
 31
0.0
  0
LINE
  5
D4B4
  8
0
 10
3594.9957777493559661
 20
190.896805101269905
 30
0.0
 11
3597.1114559870111407
 21
190.8968051012577121
 31
0.0
  0
ARC
  5
D4B5
  8
0
 10
3594.4345164563442268
 20
196.0739704277636122
 30
0.0
 40
0.6977911037875421
 50
116.8207757464330996
 51
63.180777530948653
  0
ENDSEC
  0
EOF
