  0
SECTION
  2
HEADER
  9
$ACADVER
  1
AC1009
  9
$INSBASE
 10
3591.3250967824710642
 20
193.1045448164244078
 30
0.0
  9
$EXTMIN
 10
3588.5117860922769069
 20
189.5605294310269073
 30
-0.0000000000000058
  9
$EXTMAX
 10
3594.258392102543894
 20
196.6497896315443938
 30
0.0000000000000104
  9
$LIMMIN
 10
0.0
 20
0.0
  9
$LIMMAX
 10
11.6929133858000007
 20
8.2677165353999982
  9
$ORTHOMODE
 70
     0
  9
$REGENMODE
 70
     1
  9
$FILLMODE
 70
     1
  9
$QTEXTMODE
 70
     0
  9
$MIRRTEXT
 70
     0
  9
$DRAGMODE
 70
     2
  9
$LTSCALE
 40
0.6431102362
  9
$OSMODE
 70
  4095
  9
$ATTMODE
 70
     1
  9
$TEXTSIZE
 40
0.2
  9
$TRACEWID
 40
0.05
  9
$TEXTSTYLE
  7
STANDARD
  9
$CLAYER
  8
0
  9
$CELTYPE
  6
BYLAYER
  9
$CECOLOR
 62
   256
  9
$DIMSCALE
 40
1.0
  9
$DIMASZ
 40
0.1875
  9
$DIMEXO
 40
0.0625
  9
$DIMDLI
 40
0.4443307087
  9
$DIMRND
 40
0.0
  9
$DIMDLE
 40
0.0
  9
$DIMEXE
 40
0.125
  9
$DIMTP
 40
0.01
  9
$DIMTM
 40
0.01
  9
$DIMTXT
 40
2.0
  9
$DIMCEN
 40
0.1052362205
  9
$DIMTSZ
 40
0.0
  9
$DIMTOL
 70
     1
  9
$DIMLIM
 70
     0
  9
$DIMTIH
 70
     1
  9
$DIMTOH
 70
     1
  9
$DIMSE1
 70
     0
  9
$DIMSE2
 70
     0
  9
$DIMTAD
 70
     0
  9
$DIMZIN
 70
     0
  9
$DIMBLK
  1

  9
$DIMASO
 70
     1
  9
$DIMSHO
 70
     1
  9
$DIMPOST
  1
\X
  9
$DIMAPOST
  1

  9
$DIMALT
 70
     1
  9
$DIMALTD
 70
     2
  9
$DIMALTF
 40
25.3999999999999986
  9
$DIMLFAC
 40
1.0
  9
$DIMTOFL
 70
     0
  9
$DIMTVP
 40
0.0
  9
$DIMTIX
 70
     0
  9
$DIMSOXD
 70
     0
  9
$DIMSAH
 70
     0
  9
$DIMBLK1
  1

  9
$DIMBLK2
  1

  9
$DIMSTYLE
  2
STANDARD
  9
$DIMCLRD
 70
     0
  9
$DIMCLRE
 70
     0
  9
$DIMCLRT
 70
     0
  9
$DIMTFAC
 40
1.0
  9
$DIMGAP
 40
0.09
  9
$LUNITS
 70
     2
  9
$LUPREC
 70
     4
  9
$SKETCHINC
 40
0.1
  9
$FILLETRAD
 40
0.0
  9
$AUNITS
 70
     0
  9
$AUPREC
 70
     0
  9
$MENU
  1
.
  9
$ELEVATION
 40
0.0
  9
$PELEVATION
 40
0.0
  9
$THICKNESS
 40
0.0
  9
$LIMCHECK
 70
     0
  9
$BLIPMODE
 70
     0
  9
$CHAMFERA
 40
0.0
  9
$CHAMFERB
 40
0.0
  9
$SKPOLY
 70
     0
  9
$TDCREATE
 40
2458060.468368056230247
  9
$TDUPDATE
 40
2460181.6642939820885658
  9
$TDINDWG
 40
0.560446875
  9
$TDUSRTIMER
 40
0.560446875
  9
$USRTIMER
 70
     1
  9
$ANGBASE
 50
0.0
  9
$ANGDIR
 70
     0
  9
$PDMODE
 70
     0
  9
$PDSIZE
 40
0.3125
  9
$PLINEWID
 40
0.0
  9
$COORDS
 70
     1
  9
$SPLFRAME
 70
     0
  9
$SPLINETYPE
 70
     6
  9
$SPLINESEGS
 70
     8
  9
$ATTDIA
 70
     1
  9
$ATTREQ
 70
     1
  9
$HANDLING
 70
     1
  9
$HANDSEED
  5
CA80
  9
$SURFTAB1
 70
     6
  9
$SURFTAB2
 70
     6
  9
$SURFTYPE
 70
     6
  9
$SURFU
 70
     6
  9
$SURFV
 70
     6
  9
$UCSNAME
  2

  9
$UCSORG
 10
0.0
 20
0.0
 30
0.0
  9
$UCSXDIR
 10
1.0
 20
0.0
 30
0.0
  9
$UCSYDIR
 10
0.0
 20
1.0
 30
0.0
  9
$PUCSNAME
  2

  9
$PUCSORG
 10
0.0
 20
0.0
 30
0.0
  9
$PUCSXDIR
 10
1.0
 20
0.0
 30
0.0
  9
$PUCSYDIR
 10
0.0
 20
1.0
 30
0.0
  9
$USERI1
 70
     0
  9
$USERI2
 70
     0
  9
$USERI3
 70
     0
  9
$USERI4
 70
     0
  9
$USERI5
 70
     0
  9
$USERR1
 40
0.0
  9
$USERR2
 40
0.0
  9
$USERR3
 40
0.0
  9
$USERR4
 40
0.0
  9
$USERR5
 40
0.0
  9
$WORLDVIEW
 70
     1
  9
$SHADEDGE
 70
     3
  9
$SHADEDIF
 70
    70
  9
$TILEMODE
 70
     1
  9
$MAXACTVP
 70
    64
  9
$PLIMCHECK
 70
     0
  9
$PEXTMIN
 10
1.0000000000000000E+20
 20
1.0000000000000000E+20
 30
1.0000000000000000E+20
  9
$PEXTMAX
 10
-1.0000000000000000E+20
 20
-1.0000000000000000E+20
 30
-1.0000000000000000E+20
  9
$PLIMMIN
 10
0.0
 20
0.0
  9
$PLIMMAX
 10
12.0
 20
9.0
  9
$UNITMODE
 70
     0
  9
$VISRETAIN
 70
     1
  9
$PLINEGEN
 70
     0
  9
$PSLTSCALE
 70
     1
  0
ENDSEC
  0
SECTION
  2
TABLES
  0
TABLE
  2
VPORT
 70
     1
  0
VPORT
  2
*ACTIVE
 70
     0
 10
0.0
 20
0.0
 11
1.0
 21
1.0
 12
287.6919738630348888
 22
-2.1563520446021012
 13
0.0
 23
0.0
 14
1.0
 24
1.0
 15
0.0
 25
0.0
 16
0.0
 26
0.0
 36
96.5995694866707311
 17
3303.693115234375
 27
195.2615115758877096
 37
0.0
 40
7.1461129767780927
 41
2.5251322751322749
 42
50.0
 43
0.0
 44
0.0
 50
0.0
 51
0.0
 71
     0
 72
   100
 73
     1
 74
     1
 75
     0
 76
     0
 77
     0
 78
     0
  0
ENDTAB
  0
TABLE
  2
LTYPE
 70
     2
  0
LTYPE
  2
CONTINUOUS
 70
     0
  3
Solid line
 72
    65
 73
     0
 40
0.0
  0
LTYPE
  2
PHANTOM2
 70
     0
  3
___ _ _ ___ _ _ ___ _ _ ___ _ _
 72
    65
 73
     6
 40
1.25
 49
0.625
 49
-0.125
 49
0.125
 49
-0.125
 49
0.125
 49
-0.125
  0
ENDTAB
  0
TABLE
  2
LAYER
 70
     2
  0
LAYER
  2
0
 70
     0
 62
   255
  6
CONTINUOUS
  0
LAYER
  2
DEFPOINTS
 70
     0
 62
     7
  6
CONTINUOUS
  0
ENDTAB
  0
TABLE
  2
STYLE
 70
     1
  0
STYLE
  2
STANDARD
 70
     0
 40
0.0
 41
0.8
 50
0.0
 71
     0
 42
0.2
  3
txt
  4

  0
ENDTAB
  0
TABLE
  2
VIEW
 70
     0
  0
ENDTAB
  0
TABLE
  2
UCS
 70
     0
  0
ENDTAB
  0
TABLE
  2
APPID
 70
     9
  0
APPID
  2
ACAD
 70
     0
  0
APPID
  2
ACAD_MLEADERVER
 70
     0
  0
APPID
  2
ACAD_EXEMPT_FROM_CAD_STANDARDS
 70
     0
  0
APPID
  2
ACAD_NAV_VCDISPLAY
 70
     0
  0
APPID
  2
ACAECLAYERSTANDARD
 70
     0
  0
APPID
  2
ACCMTRANSPARENCY
 70
     0
  0
APPID
  2
ACAD_DSTYLE_DIMJAG
 70
     0
  0
APPID
  2
ACAD_DSTYLE_DIMTALN
 70
     0
  0
APPID
  2
ACDBATTR
 70
     0
  0
ENDTAB
  0
TABLE
  2
DIMSTYLE
 70
     1
  0
DIMSTYLE
  2
STANDARD
 70
     0
  3

  4

  5

  6

  7

 40
1.0
 41
0.1875
 42
0.0625
 43
0.38
 44
0.125
 45
0.0
 46
0.0
 47
0.01
 48
0.01
140
0.15625
141
0.09
142
0.0
143
25.3999999999999986
144
1.0
145
0.0
146
1.0
147
0.09
 71
     1
 72
     0
 73
     1
 74
     1
 75
     0
 76
     0
 77
     0
 78
     4
170
     0
171
     2
172
     0
173
     0
174
     0
175
     0
176
     0
177
     0
178
     0
  0
ENDTAB
  0
ENDSEC
  0
SECTION
  2
BLOCKS
  0
BLOCK
  8
0
  2
$MODEL_SPACE
 70
     0
 10
0.0
 20
0.0
 30
0.0
  3
$MODEL_SPACE
  1

  0
ENDBLK
  5
21
  8
0
  0
BLOCK
 67
     1
  8
0
  2
$PAPER_SPACE
 70
     0
 10
0.0
 20
0.0
 30
0.0
  3
$PAPER_SPACE
  1

  0
ENDBLK
  5
1D
 67
     1
  8
0
  0
BLOCK
  8
0
  2
_FILLED
 70
     0
 10
0.0
 20
0.0
 30
0.0
  3
_FILLED
  1

  0
SOLID
  5
9E2C
  8
0
  6
BYBLOCK
 62
     0
 10
0.0
 20
0.0
 30
0.0
 11
-1.0
 21
0.1666666667
 31
0.0
 12
-1.0
 22
-0.1666666667
 32
0.0
 13
-1.0
 23
-0.1666666667
 33
0.0
  0
ENDBLK
  5
9E2D
  8
0
  6
BYBLOCK
 62
     0
  0
ENDSEC
  0
SECTION
  2
ENTITIES
  0
ATTDEF
  5
BAC8
  8
DEFPOINTS
 10
3591.3227969297608979
 20
193.1085612925515989
 30
0.0
 40
0.001
  1
K-20938T-9
  3

  2
MODELNUMBER
 70
     0
1001
ACDBATTR
1070
     0
1070
     1
  0
ATTDEF
  5
BAC9
  8
DEFPOINTS
 10
3591.3227969297608979
 20
193.1068946258849053
 30
0.0
 40
0.001
  1
MODULO
  3

  2
TRADENAME
 70
     0
1001
ACDBATTR
1070
     0
1070
     1
  0
ATTDEF
  5
BACA
  8
DEFPOINTS
 10
3591.3227969297608979
 20
193.1052279592182117
 30
0.0
 40
0.001
  1
VALVE TRIM
  3

  2
PRODUCT
 70
     0
1001
ACDBATTR
1070
     0
1070
     1
  0
LINE
  5
C960
  8
0
 10
3588.6478636630681649
 20
196.6478517929402017
 30
0.0
 11
3594.002329901873054
 21
196.6478517929402017
 31
0.0
  0
ARC
  5
C961
  8
0
 10
3588.6478438299609479
 20
196.5691794349351937
 30
0.0
 40
0.078672360504921
 50
89.9855558753819764
 51
180.0144441246245037
  0
LINE
  5
C962
  8
0
 10
3588.5691714719559968
 20
196.5691596018274936
 30
0.0
 11
3588.5691714719559968
 21
189.6399300310212936
 31
0.0
  0
ARC
  5
C963
  8
0
 10
3588.6478438300000562
 20
189.6399099778404036
 30
0.0
 40
0.0786723606001403
 50
179.9853955997351136
 51
270.0144440958791847
  0
ARC
  5
C964
  8
0
 10
3594.0023101377141757
 20
189.6399099777192134
 30
0.0
 40
0.078672360442197
 50
269.985679743695016
 51
0.0144441435535872
  0
LINE
  5
C965
  8
0
 10
3594.0809824956559169
 20
189.639929810852891
 30
0.0
 11
3594.0809824956559169
 21
196.5691593816395937
 31
0.0
  0
ARC
  5
C966
  8
0
 10
3594.0023101032070372
 20
196.569179400435587
 30
0.0
 40
0.0786723949958498
 50
359.9854206481065262
 51
89.9855809646761031
  0
ARC
  5
C967
  8
0
 10
3591.3249911133898422
 20
191.5886247309960879
 30
0.0
 40
0.8659697927139522
 50
89.9943128654273323
 51
270.0056871345727245
  0
ARC
  5
C968
  8
0
 10
3591.3251630243680665
 20
191.5886247309960879
 30
0.0
 40
0.8659697927139518
 50
269.9943128654272755
 51
90.0056871345726677
  0
CIRCLE
  5
C969
  8
0
 10
3591.3250769838559791
 20
191.5888220460464879
 30
0.0
 40
0.5723010775999998
  0
CIRCLE
  5
C96A
  8
0
 10
3591.3250769838559791
 20
191.5887966748464919
 30
0.0
 40
0.7446418276000005
  0
CIRCLE
  5
C96B
  8
0
 10
3591.3250769838559791
 20
194.7384029740464939
 30
0.0
 40
0.4378359215999997
  0
CIRCLE
  5
C96C
  8
0
 10
3591.3250769838559791
 20
194.7384029740464939
 30
0.0
 40
0.5772207539999999
  0
CIRCLE
  5
C96D
  8
0
 10
3591.3250769838559791
 20
194.7384029740464939
 30
0.0
 40
0.6693129666000043
  0
LINE
  5
C96E
  8
0
 10
3591.5509641495559663
 20
189.5612376197464926
 30
0.0
 11
3591.0991898180559474
 21
189.5612376197464926
 31
0.0
  0
LINE
  5
C96F
  8
0
 10
3591.0991898180559474
 20
189.5612376197464926
 30
0.0
 11
3591.0888565113559707
 21
189.5653621200465011
 31
0.0
  0
LINE
  5
C970
  8
0
 10
3591.0888565113559707
 20
189.5653621200465011
 30
0.0
 11
3590.7738958814570651
 21
189.5653621200465011
 31
0.0
  0
LINE
  5
C971
  8
0
 10
3590.7738958814570651
 20
189.5653621200465011
 30
0.0
 11
3590.7635625747561789
 21
189.5612376197464926
 31
0.0
  0
LINE
  5
C972
  8
0
 10
3590.7635625747561789
 20
189.5612376197464926
 30
0.0
 11
3588.6478636630681649
 21
189.5612376197402114
 31
0.0
  0
LINE
  5
C973
  8
0
 10
3591.5509641495559663
 20
189.5612376197464926
 30
0.0
 11
3591.561297456255943
 21
189.5653621200465011
 31
0.0
  0
LINE
  5
C974
  8
0
 10
3591.561297456255943
 20
189.5653621200465011
 30
0.0
 11
3591.8762580861562128
 21
189.5653621200465011
 31
0.0
  0
LINE
  5
C975
  8
0
 10
3591.8762580861562128
 20
189.5653621200465011
 30
0.0
 11
3591.886591392857099
 21
189.5612376197464926
 31
0.0
  0
LINE
  5
C976
  8
0
 10
3591.886591392857099
 20
189.5612376197464926
 30
0.0
 11
3594.0022904746879249
 21
189.561237619734186
 31
0.0
  0
CIRCLE
  5
C978
  8
0
 10
3591.3250967824710642
 20
194.7384029740402127
 30
0.0
 40
0.5549819856
  0
CIRCLE
  5
C979
  8
0
 10
3591.3250967824710642
 20
191.588827433940196
 30
0.0
 40
0.7253154960918727
  0
ENDSEC
  0
EOF
