  0
SECTION
  2
HEADER
  9
$ACADVER
  1
AC1009
  9
$INSBASE
 10
3745.7971185010969748
 20
19.1744125916658312
 30
0.0
  9
$EXTMIN
 10
3739.085132870896814
 20
16.0458996075202194
 30
-0.0015258207003583
  9
$EXTMAX
 10
3746.2302776471487959
 20
20.0693928999781797
 30
0.0000000349246037
  9
$LIMMIN
 10
0.0
 20
0.0
  9
$LIMMAX
 10
11.6929133858000007
 20
8.2677165353999982
  9
$ORTHOMODE
 70
     0
  9
$REGENMODE
 70
     1
  9
$FILLMODE
 70
     1
  9
$QTEXTMODE
 70
     0
  9
$MIRRTEXT
 70
     0
  9
$DRAGMODE
 70
     2
  9
$LTSCALE
 40
0.6431102362
  9
$OSMODE
 70
  4095
  9
$ATTMODE
 70
     1
  9
$TEXTSIZE
 40
0.2
  9
$TRACEWID
 40
0.05
  9
$TEXTSTYLE
  7
STANDARD
  9
$CLAYER
  8
0
  9
$CELTYPE
  6
BYLAYER
  9
$CECOLOR
 62
   256
  9
$DIMSCALE
 40
1.0
  9
$DIMASZ
 40
0.1875
  9
$DIMEXO
 40
0.0625
  9
$DIMDLI
 40
0.4443307087
  9
$DIMRND
 40
0.0
  9
$DIMDLE
 40
0.0
  9
$DIMEXE
 40
0.125
  9
$DIMTP
 40
0.01
  9
$DIMTM
 40
0.01
  9
$DIMTXT
 40
2.0
  9
$DIMCEN
 40
0.1052362205
  9
$DIMTSZ
 40
0.0
  9
$DIMTOL
 70
     1
  9
$DIMLIM
 70
     0
  9
$DIMTIH
 70
     1
  9
$DIMTOH
 70
     1
  9
$DIMSE1
 70
     0
  9
$DIMSE2
 70
     0
  9
$DIMTAD
 70
     0
  9
$DIMZIN
 70
     0
  9
$DIMBLK
  1

  9
$DIMASO
 70
     1
  9
$DIMSHO
 70
     1
  9
$DIMPOST
  1
\X
  9
$DIMAPOST
  1

  9
$DIMALT
 70
     1
  9
$DIMALTD
 70
     2
  9
$DIMALTF
 40
25.3999999999999986
  9
$DIMLFAC
 40
1.0
  9
$DIMTOFL
 70
     0
  9
$DIMTVP
 40
0.0
  9
$DIMTIX
 70
     0
  9
$DIMSOXD
 70
     0
  9
$DIMSAH
 70
     0
  9
$DIMBLK1
  1

  9
$DIMBLK2
  1

  9
$DIMSTYLE
  2
STANDARD
  9
$DIMCLRD
 70
     0
  9
$DIMCLRE
 70
     0
  9
$DIMCLRT
 70
     0
  9
$DIMTFAC
 40
1.0
  9
$DIMGAP
 40
0.09
  9
$LUNITS
 70
     2
  9
$LUPREC
 70
     4
  9
$SKETCHINC
 40
0.1
  9
$FILLETRAD
 40
0.0
  9
$AUNITS
 70
     0
  9
$AUPREC
 70
     0
  9
$MENU
  1
.
  9
$ELEVATION
 40
0.0
  9
$PELEVATION
 40
0.0
  9
$THICKNESS
 40
0.0
  9
$LIMCHECK
 70
     0
  9
$BLIPMODE
 70
     0
  9
$CHAMFERA
 40
0.0
  9
$CHAMFERB
 40
0.0
  9
$SKPOLY
 70
     0
  9
$TDCREATE
 40
2458060.468368056230247
  9
$TDUPDATE
 40
2459850.6349537041969597
  9
$TDINDWG
 40
0.4671366898
  9
$TDUSRTIMER
 40
0.4671366898
  9
$USRTIMER
 70
     1
  9
$ANGBASE
 50
0.0
  9
$ANGDIR
 70
     0
  9
$PDMODE
 70
     0
  9
$PDSIZE
 40
0.3125
  9
$PLINEWID
 40
0.0
  9
$COORDS
 70
     1
  9
$SPLFRAME
 70
     0
  9
$SPLINETYPE
 70
     6
  9
$SPLINESEGS
 70
     8
  9
$ATTDIA
 70
     1
  9
$ATTREQ
 70
     1
  9
$HANDLING
 70
     1
  9
$HANDSEED
  5
E4D3
  9
$SURFTAB1
 70
     6
  9
$SURFTAB2
 70
     6
  9
$SURFTYPE
 70
     6
  9
$SURFU
 70
     6
  9
$SURFV
 70
     6
  9
$UCSNAME
  2

  9
$UCSORG
 10
0.0
 20
0.0
 30
0.0
  9
$UCSXDIR
 10
1.0
 20
0.0
 30
0.0
  9
$UCSYDIR
 10
0.0
 20
1.0
 30
0.0
  9
$PUCSNAME
  2

  9
$PUCSORG
 10
0.0
 20
0.0
 30
0.0
  9
$PUCSXDIR
 10
1.0
 20
0.0
 30
0.0
  9
$PUCSYDIR
 10
0.0
 20
1.0
 30
0.0
  9
$USERI1
 70
     0
  9
$USERI2
 70
     0
  9
$USERI3
 70
     0
  9
$USERI4
 70
     0
  9
$USERI5
 70
     0
  9
$USERR1
 40
0.0
  9
$USERR2
 40
0.0
  9
$USERR3
 40
0.0
  9
$USERR4
 40
0.0
  9
$USERR5
 40
0.0
  9
$WORLDVIEW
 70
     1
  9
$SHADEDGE
 70
     3
  9
$SHADEDIF
 70
    70
  9
$TILEMODE
 70
     1
  9
$MAXACTVP
 70
    64
  9
$PLIMCHECK
 70
     0
  9
$PEXTMIN
 10
1.0000000000000000E+20
 20
1.0000000000000000E+20
 30
1.0000000000000000E+20
  9
$PEXTMAX
 10
-1.0000000000000000E+20
 20
-1.0000000000000000E+20
 30
-1.0000000000000000E+20
  9
$PLIMMIN
 10
0.0
 20
0.0
  9
$PLIMMAX
 10
12.0
 20
9.0
  9
$UNITMODE
 70
     0
  9
$VISRETAIN
 70
     1
  9
$PLINEGEN
 70
     0
  9
$PSLTSCALE
 70
     1
  0
ENDSEC
  0
SECTION
  2
TABLES
  0
TABLE
  2
VPORT
 70
     1
  0
VPORT
  2
*ACTIVE
 70
     0
 10
0.0
 20
0.0
 11
1.0
 21
1.0
 12
-86.670053530039695
 22
-72.8353972643172085
 13
0.0
 23
0.0
 14
1.0
 24
1.0
 15
0.0
 25
0.0
 16
0.0
 26
0.0
 36
327.1425206445442768
 17
3829.3277587890629547
 27
90.8930435180664063
 37
0.0
 40
4.0523011203275843
 41
2.2831541218637992
 42
50.0
 43
0.0
 44
0.0
 50
0.0
 51
0.0
 71
     0
 72
   100
 73
     1
 74
     1
 75
     0
 76
     0
 77
     0
 78
     1
  0
ENDTAB
  0
TABLE
  2
LTYPE
 70
     2
  0
LTYPE
  2
CONTINUOUS
 70
     0
  3
Solid line
 72
    65
 73
     0
 40
0.0
  0
LTYPE
  2
PHANTOM2
 70
     0
  3
___ _ _ ___ _ _ ___ _ _ ___ _ _
 72
    65
 73
     6
 40
1.25
 49
0.625
 49
-0.125
 49
0.125
 49
-0.125
 49
0.125
 49
-0.125
  0
ENDTAB
  0
TABLE
  2
LAYER
 70
     2
  0
LAYER
  2
0
 70
     0
 62
   255
  6
CONTINUOUS
  0
LAYER
  2
DEFPOINTS
 70
     0
 62
     7
  6
CONTINUOUS
  0
ENDTAB
  0
TABLE
  2
STYLE
 70
     1
  0
STYLE
  2
STANDARD
 70
     0
 40
0.0
 41
0.8
 50
0.0
 71
     0
 42
0.2
  3
txt
  4

  0
ENDTAB
  0
TABLE
  2
VIEW
 70
     0
  0
ENDTAB
  0
TABLE
  2
UCS
 70
     0
  0
ENDTAB
  0
TABLE
  2
APPID
 70
     9
  0
APPID
  2
ACAD
 70
     0
  0
APPID
  2
ACAD_MLEADERVER
 70
     0
  0
APPID
  2
ACAD_EXEMPT_FROM_CAD_STANDARDS
 70
     0
  0
APPID
  2
ACAD_NAV_VCDISPLAY
 70
     0
  0
APPID
  2
ACAECLAYERSTANDARD
 70
     0
  0
APPID
  2
ACCMTRANSPARENCY
 70
     0
  0
APPID
  2
ACAD_DSTYLE_DIMJAG
 70
     0
  0
APPID
  2
ACAD_DSTYLE_DIMTALN
 70
     0
  0
APPID
  2
ACDBATTR
 70
     0
  0
ENDTAB
  0
TABLE
  2
DIMSTYLE
 70
     1
  0
DIMSTYLE
  2
STANDARD
 70
     0
  3

  4

  5

  6

  7

 40
1.0
 41
0.1875
 42
0.0625
 43
0.38
 44
0.125
 45
0.0
 46
0.0
 47
0.01
 48
0.01
140
0.15625
141
0.09
142
0.0
143
25.3999999999999986
144
1.0
145
0.0
146
1.0
147
0.09
 71
     1
 72
     0
 73
     1
 74
     1
 75
     0
 76
     0
 77
     0
 78
     4
170
     0
171
     2
172
     0
173
     0
174
     0
175
     0
176
     0
177
     0
178
     0
  0
ENDTAB
  0
ENDSEC
  0
SECTION
  2
BLOCKS
  0
BLOCK
  8
0
  2
$MODEL_SPACE
 70
     0
 10
0.0
 20
0.0
 30
0.0
  3
$MODEL_SPACE
  1

  0
ENDBLK
  5
21
  8
0
  0
BLOCK
 67
     1
  8
0
  2
$PAPER_SPACE
 70
     0
 10
0.0
 20
0.0
 30
0.0
  3
$PAPER_SPACE
  1

  0
ENDBLK
  5
1D
 67
     1
  8
0
  0
ENDSEC
  0
SECTION
  2
ENTITIES
  0
ATTDEF
  5
BC50
  8
DEFPOINTS
 10
3745.7972408563650788
 20
19.1784220963415883
 30
0.0
 40
0.001
  1
K-20999T
  3

  2
MODELNUMBER
 70
     0
1001
ACDBATTR
1070
     0
1070
     1
  0
ATTDEF
  5
BC51
  8
DEFPOINTS
 10
3745.7972408563650788
 20
19.1767554296749303
 30
0.0
 40
0.001
  1
STATEMENT
  3

  2
TRADENAME
 70
     0
1001
ACDBATTR
1070
     0
1070
     1
  0
ATTDEF
  5
BC52
  8
DEFPOINTS
 10
3745.7972408563650788
 20
19.1750887630082616
 30
0.0
 40
0.001
  1
SHOWERHEAD
  3

  2
PRODUCT
 70
     0
1001
ACDBATTR
1070
     0
1070
     1
  0
LINE
  5
E333
  8
0
 10
3742.7009720070850562
 20
16.05207186115193
 30
0.0
 11
3739.2337937310871894
 21
19.5031595065542689
 31
0.0
  0
ARC
  5
E334
  8
0
 10
3739.2477075906640493
 20
19.5170733661319602
 30
0.0
 40
0.0196771689197334
 50
132.8747838968828887
 51
224.9999999999567137
  0
ARC
  5
E335
  8
0
 10
3740.756846711234175
 20
17.8274943329101099
 30
0.0
 40
2.2851046792681902
 50
117.2476366732166042
 51
131.7808638539353012
  0
ARC
  5
E336
  8
0
 10
3740.6171161651618604
 20
18.1544377415921403
 30
0.0
 40
1.9306342627297619
 50
101.3211056183715044
 51
118.0032805185928027
  0
ARC
  5
E337
  8
0
 10
3740.4053867880779762
 20
18.9989798544302317
 30
0.0
 40
1.0693761954078509
 50
80.8205438282134878
 51
88.984537952701956
  0
ARC
  5
E338
  8
0
 10
3740.4622202186501454
 20
18.8783783099620806
 30
0.0
 40
1.1904126878632699
 50
91.8235928828565164
 51
100.850995568316506
  0
ARC
  5
E339
  8
0
 10
3740.4269716986959793
 20
19.1025477577742215
 30
0.0
 40
0.9637031376734693
 50
71.8544440808547051
 51
81.1051253825141458
  0
ARC
  5
E33A
  8
0
 10
3740.6137455604839488
 20
19.6724482541954409
 30
0.0
 40
0.3639773242650878
 50
44.7457618009623488
 51
71.8544440808547051
  0
LINE
  5
E33B
  8
0
 10
3740.8722558871349975
 20
19.9286745284019418
 30
0.0
 11
3743.1249494789822165
 21
17.6759781710371904
 31
0.0
  0
ARC
  5
E33C
  8
0
 10
3743.6552093741929639
 20
18.2283442057463603
 30
0.0
 40
0.765691708755511
 50
226.1697600013972931
 51
230.3700346017951119
  0
ARC
  5
E33D
  8
0
 10
3743.268391643493942
 20
17.76125948291822
 30
0.0
 40
0.1592297601701828
 50
230.3700346017951119
 51
245.8417999351453034
  0
ARC
  5
E33E
  8
0
 10
3743.2265197528217868
 20
17.6679082148278184
 30
0.0
 40
0.0569179109906219
 50
245.8417999351453886
 51
270.4611103256343085
  0
ARC
  5
E33F
  8
0
 10
3743.2264323742479064
 20
17.6787653028921383
 30
0.0
 40
0.0677753506635605
 50
270.4611103256343085
 51
296.6104536465159072
  0
ARC
  5
E340
  8
0
 10
3743.1900685733139653
 20
17.7513490552238906
 30
0.0
 40
0.1489586440243455
 50
296.6104536465156798
 51
308.4066686150231931
  0
ARC
  5
E341
  8
0
 10
3742.4767554849281623
 20
18.5560721408387401
 30
0.0
 40
1.2241192682384121
 50
311.1712382920097184
 51
315.6034464548885126
  0
ARC
  5
E342
  8
0
 10
3743.3652040128358749
 20
17.6856128238019288
 30
0.0
 40
0.0196850408000013
 50
44.9837889354147578
 51
134.4992238478970989
  0
LINE
  5
E343
  8
0
 10
3745.1106901548350834
 20
17.0286259295019384
 30
0.0
 11
3743.906221848936184
 21
18.2330942354019392
 31
0.0
  0
ARC
  5
E344
  8
0
 10
3743.8989837474009619
 20
18.2258561338677012
 30
0.0
 40
0.0102362213555463
 50
44.9999999999982734
 51
134.5499952332365012
  0
LINE
  5
E345
  8
0
 10
3743.8918027170461755
 20
18.2331508600913388
 30
0.0
 11
3743.3718972001770453
 21
17.7213486095337807
 31
0.0
  0
ARC
  5
E346
  8
0
 10
3743.3790782296919133
 20
17.7140538841625812
 30
0.0
 40
0.0102362201593729
 50
134.5499952332347107
 51
225.0003411863816041
  0
LINE
  5
E347
  8
0
 10
3743.3718401721062037
 20
17.7068157403726687
 30
0.0
 11
3744.5841720274161162
 21
16.4944983234260008
 31
0.0
  0
ARC
  5
E348
  8
0
 10
3744.6018496413698813
 20
16.5121761479151203
 30
0.0
 40
0.0250000702751455
 50
225.0003411863822862
 51
315.4264387983495226
  0
LINE
  5
E349
  8
0
 10
3744.6196584407939554
 20
16.4946304881431196
 30
0.0
 11
3745.1110329301750426
 21
16.9933743277725995
 31
0.0
  0
ARC
  5
E34A
  8
0
 10
3745.0917251031169144
 20
17.0108140519995601
 30
0.0
 40
0.0260179969802606
 50
317.9101897557443976
 51
43.2040269275798323
  0
ARC
  5
E34B
  8
0
 10
3744.3084495655361934
 20
16.7423674974019399
 30
0.0
 40
0.0196850394000001
 50
315.5000000004058052
 51
44.9999999999956799
  0
ARC
  5
E34C
  8
0
 10
3742.924250705320901
 20
17.9064182712502813
 30
0.0
 40
1.82285946954756
 50
298.2587577805182946
 51
315.4999998975113726
  0
ARC
  5
E34D
  8
0
 10
3743.1628088824368206
 20
17.57899695007292
 30
0.0
 40
1.4225821195620729
 50
261.1512147978173175
 51
296.0387023243422959
  0
ARC
  5
E34E
  8
0
 10
3742.8773270699871318
 20
15.8326484163847603
 30
0.0
 40
0.3471564003255455
 50
78.931159341634384
 51
88.0010323400265548
  0
ARC
  5
E34F
  8
0
 10
3742.8861320632818206
 20
16.0849207557022389
 30
0.0
 40
0.0947304486255692
 50
88.0010323400265548
 51
128.4359607568993908
  0
ARC
  5
E350
  8
0
 10
3743.0891429217817858
 20
15.8672656344246494
 30
0.0
 40
0.392137849242421
 50
131.9032642512364077
 51
140.5870736169619875
  0
ARC
  5
E351
  8
0
 10
3741.1252103704191541
 20
17.5431613894099314
 30
0.0
 40
2.189735129081571
 50
317.1010308025107065
 51
319.3344091257662853
  0
ARC
  5
E352
  8
0
 10
3742.7155729243058886
 20
16.0676374760451601
 30
0.0
 40
0.0213418638018564
 50
226.8316415899575986
 51
268.1911715672750915
  0
ARC
  5
E353
  8
0
 10
3742.7131728540921358
 20
16.0699319662503193
 30
0.0
 40
0.023688713496536
 50
274.1793873787510734
 51
312.9457488337233144
  0
LINE
  5
E354
  8
0
 10
3743.929849853036103
 20
18.2543535937019392
 30
0.0
 11
3744.8770624321550713
 21
17.3071410156488987
 31
0.0
  0
ARC
  5
E355
  8
0
 10
3744.8854111580358222
 20
17.3154955985019399
 30
0.0
 40
0.0118110235999991
 50
225.0200906171212978
 51
315.4999999998066187
  0
LINE
  5
E356
  8
0
 10
3744.8938353759222082
 20
17.3072171426398107
 30
0.0
 11
3745.5513549310749113
 21
17.9763139029815804
 31
0.0
  0
ARC
  5
E357
  8
0
 10
3745.5232742047342072
 20
18.0039087559038009
 30
0.0
 40
0.0393700787357836
 50
315.4999999997874056
 51
44.9999999963132424
  0
LINE
  5
E358
  8
0
 10
3745.5511130543859508
 20
18.0317476055519386
 30
0.0
 11
3744.6544535151929267
 21
18.9284071448595199
 31
0.0
  0
ARC
  5
E359
  8
0
 10
3744.626614665417037
 20
18.9005682950879113
 30
0.0
 40
0.0393700789104096
 50
44.9999999963128019
 51
134.4999998672049912
  0
LINE
  5
E35A
  8
0
 10
3744.59901981243911
 20
18.9286490216179502
 30
0.0
 11
3743.9299230506080676
 21
18.2711294680559106
 31
0.0
  0
ARC
  5
E35B
  8
0
 10
3743.9382015115897957
 20
18.2627052500760811
 30
0.0
 40
0.0118110272539416
 50
134.5000173996070032
 51
224.9999925228318034
  0
LINE
  5
E35C
  8
0
 10
3743.9682276662570075
 20
18.2159757805237206
 30
0.0
 11
3743.9459798481348116
 21
18.1933362362019402
 31
0.0
  0
LINE
  5
E35D
  8
0
 10
3744.8386816899310361
 20
17.3455217568062992
 30
0.0
 11
3744.8160421457350822
 21
17.3232739386019396
 31
0.0
  0
LINE
  5
E35E
  8
0
 10
3744.2244060384359727
 20
16.6287591792019285
 30
0.0
 11
3744.3224899287288281
 21
16.7285700709184688
 31
0.0
  0
ARC
  5
E35F
  8
0
 10
3742.0184232251767753
 20
17.3244514378900298
 30
0.0
 40
1.3392094784121751
 50
6.6394016089255219
 51
14.6442288006710104
  0
ARC
  5
E360
  8
0
 10
3742.483502774281078
 20
17.3785871147683117
 30
0.0
 40
0.8709898093405001
 50
347.5833126627708225
 51
6.6394016089255219
  0
ARC
  5
E361
  8
0
 10
3740.9065981834669401
 20
17.7257735788285586
 30
0.0
 40
2.485662076197074
 50
336.4901969469269147
 51
347.5833126627708225
  0
ARC
  5
E362
  8
0
 10
3834.6619995815131006
 20
-23.0593104853506397
 30
0.0
 40
99.7566890970371958
 50
156.4901969469268863
 51
156.8410392239927091
  0
ARC
  5
E363
  8
0
 10
3744.9142179065729579
 20
18.2645816898932303
 30
0.0
 40
0.5039598273295804
 50
90.9984426028909184
 51
100.4629748776914937
  0
ARC
  5
E364
  8
0
 10
3744.9049794813690824
 20
18.7984615233235388
 30
0.0
 40
0.0300000008605328
 50
270.8724762890823854
 51
314.9999992504294255
  0
LINE
  5
E365
  8
0
 10
3744.9261926851349926
 20
18.7772483190019415
 30
0.0
 11
3745.0621398971488816
 21
18.9131955309875899
 31
0.0
  0
ARC
  5
E366
  8
0
 10
3745.0409266930228114
 20
18.9344087345215186
 30
0.0
 40
0.0300000005581407
 50
315.0000008003694916
 51
22.4999993546142392
  0
LINE
  5
E367
  8
0
 10
3745.0686430796431523
 20
18.945889237393871
 30
0.0
 11
3745.0336891427350565
 21
19.0302755060019386
 31
0.0
  0
ARC
  5
E368
  8
0
 10
3745.0706443194048916
 20
19.0455828413664783
 30
0.0
 40
0.0399999949833295
 50
134.9999951731778083
 51
202.499999984097002
  0
LINE
  5
E369
  8
0
 10
3745.0423600540880216
 20
19.0738671114493989
 30
0.0
 11
3745.4574140737531707
 21
19.488921061183639
 31
0.0
  0
ARC
  5
E36A
  8
0
 10
3745.4700111532010851
 20
19.4763239796143104
 30
0.0
 40
0.0178149621008761
 50
45.0001638602535294
 51
134.9999951731784904
  0
LINE
  5
E36B
  8
0
 10
3745.4826081976821115
 20
19.4889210961487684
 30
0.0
 11
3746.1116288045109286
 21
18.8599040871828798
 31
0.0
  0
ARC
  5
E36C
  8
0
 10
3746.0990317969281023
 20
18.847307007546739
 30
0.0
 40
0.0178149099189157
 50
314.9916548281681798
 51
45.0001638602552632
  0
LINE
  5
E36D
  8
0
 10
3746.1116270056350004
 20
18.8347081293019407
 30
0.0
 11
3745.6965125724250356
 21
18.4197146019181197
 31
0.0
  0
ARC
  5
E36E
  8
0
 10
3745.668188513162022
 20
18.4480469132219689
 30
0.0
 40
0.0400621042496991
 50
247.6918313062363097
 51
314.991654828149592
  0
LINE
  5
E36F
  8
0
 10
3745.6529814165951393
 20
18.4109832327393903
 30
0.0
 11
3745.5684785913149426
 21
18.4456544420606683
 31
0.0
  0
ARC
  5
E370
  8
0
 10
3745.5569577468568241
 20
18.4175751242262891
 30
0.0
 40
0.0303509134466485
 50
67.6918313062363239
 51
133.9286358914066
  0
LINE
  5
E371
  8
0
 10
3745.5359014404998561
 20
18.4394339876375284
 30
0.0
 11
3745.3999542285278039
 21
18.3034867755941306
 31
0.0
  0
ARC
  5
E372
  8
0
 10
3745.4211674316238714
 20
18.2822735722101584
 30
0.0
 40
0.0299999997240985
 50
134.9999996124838901
 51
179.127521894763504
  0
ARC
  5
E373
  8
0
 10
3744.9125578123639571
 20
18.2900190826628908
 30
0.0
 40
0.4786685935049357
 50
349.17823187498999
 51
359.127521894763504
  0
LINE
  5
E374
  8
0
 10
3745.6052634724351265
 20
19.1845343091019416
 30
0.0
 11
3745.8072402185857754
 21
18.9825575629519392
 31
0.0
  0
LINE
  5
E375
  8
0
 10
3745.8072402185857754
 20
18.9825575629519392
 30
0.0
 11
3745.4704549106099876
 21
18.6457722548274702
 31
0.0
  0
ARC
  5
E376
  8
0
 10
3745.4612564575468241
 20
18.6549707078861893
 30
0.0
 40
0.0130085770713748
 50
286.3284088444216877
 51
315.0000000126568125
  0
ARC
  5
E377
  8
0
 10
3745.457901395277986
 20
18.6664230439597389
 30
0.0
 40
0.024942245592349
 50
254.5961260774834898
 51
286.3284088443961082
  0
ARC
  5
E378
  8
0
 10
3745.480617539258219
 20
18.7488717102850408
 30
0.0
 40
0.1104630370769182
 50
242.7904897113928087
 51
254.5961260775085861
  0
ARC
  5
E379
  8
0
 10
3745.5078275733008013
 20
18.80179510105296
 30
0.0
 40
0.1699716183318361
 50
228.1203548041603142
 51
242.7904897113926097
  0
ARC
  5
E37A
  8
0
 10
3745.795215349134196
 20
19.1668415717977787
 30
0.0
 40
0.6343140117494963
 50
215.1646498615351959
 51
230.8057855435087049
  0
ARC
  5
E37B
  8
0
 10
3745.3638053763479547
 20
18.85547161084245
 30
0.0
 40
0.1024902334927099
 50
197.4054842081447134
 51
211.761493291399205
  0
ARC
  5
E37C
  8
0
 10
3745.3000969191989498
 20
18.8356154932671203
 30
0.0
 40
0.035759445666612
 50
174.1421714857382881
 51
197.5822239771534043
  0
ARC
  5
E37D
  8
0
 10
3745.2791583395110138
 20
18.8376081195919092
 30
0.0
 40
0.0147276480622832
 50
136.4837065536889043
 51
173.5400186901163977
  0
LINE
  5
E37E
  8
0
 10
3745.2684781644347822
 20
18.8477490011019384
 30
0.0
 11
3745.6052634724351265
 21
19.1845343091019416
 31
0.0
  0
ARC
  5
E37F
  8
0
 10
3745.913905222053927
 20
19.2209853678744196
 30
0.0
 40
0.3107867585552891
 50
186.7355185000137112
 51
200.760921336620811
  0
LINE
  5
E380
  8
0
 10
3745.6232985749361433
 20
19.1108210091019401
 30
0.0
 11
3745.7335275166351494
 21
19.0005920895019393
 31
0.0
  0
ARC
  5
E381
  8
0
 10
3745.8436956689570252
 20
19.2912228889887984
 30
0.0
 40
0.31081068739071
 50
249.2400029680472926
 51
263.2641872622430128
  0
LINE
  5
E382
  8
0
 10
3745.0336891440388172
 20
19.030275502898899
 30
0.0
 11
3745.6529814368482221
 21
18.4109832244295291
 31
0.0
  0
LINE
  5
E383
  8
0
 10
3745.0686430796108652
 20
18.9458892374622003
 30
0.0
 11
3745.5684785913149426
 21
18.4456544420606683
 31
0.0
  0
LINE
  5
E384
  8
0
 10
3745.3911677159708233
 20
18.2825235788876483
 30
0.0
 11
3744.9054363022828511
 21
18.7684650007536895
 31
0.0
  0
LINE
  5
E386
  8
0
 10
3741.055158712435059
 20
17.9274604374019404
 30
0.0
 11
3741.0334432552349426
 21
17.8940215657019408
 31
0.0
  0
LINE
  5
E387
  8
0
 10
3741.0334432552349426
 20
17.8940215657019408
 30
0.0
 11
3741.0918340661360162
 21
17.8356307548019402
 31
0.0
  0
LINE
  5
E388
  8
0
 10
3741.0918340661360162
 20
17.8356307548019402
 30
0.0
 11
3741.1252729378361437
 21
17.8573462120019393
 31
0.0
  0
LINE
  5
E389
  8
0
 10
3741.1252729378361437
 20
17.8573462120019393
 30
0.0
 11
3741.055158712435059
 21
17.9274604374019404
 31
0.0
  0
ENDSEC
  0
EOF
