  0
SECTION
  2
HEADER
  9
$ACADVER
  1
AC1009
  9
$INSBASE
 10
338.1556082268494947
 20
22.2214593501844284
 30
0.0
  9
$EXTMIN
 10
330.279167970888011
 20
-1.8396626889569061
 30
-0.0015258207003583
  9
$EXTMAX
 10
346.0504323981999732
 20
22.2275050667220491
 30
0.0000000349246037
  9
$LIMMIN
 10
0.0
 20
0.0
  9
$LIMMAX
 10
22.0
 20
17.0
  9
$ORTHOMODE
 70
     0
  9
$REGENMODE
 70
     1
  9
$FILLMODE
 70
     1
  9
$QTEXTMODE
 70
     0
  9
$MIRRTEXT
 70
     0
  9
$DRAGMODE
 70
     2
  9
$LTSCALE
 40
1.2099999999999991
  9
$OSMODE
 70
     7
  9
$ATTMODE
 70
     1
  9
$TEXTSIZE
 40
0.2
  9
$TRACEWID
 40
0.05
  9
$TEXTSTYLE
  7
STANDARD
  9
$CLAYER
  8
0
  9
$CELTYPE
  6
BYLAYER
  9
$CECOLOR
 62
   256
  9
$DIMSCALE
 40
1.0
  9
$DIMASZ
 40
0.1875
  9
$DIMEXO
 40
0.0625
  9
$DIMDLI
 40
0.38
  9
$DIMRND
 40
0.0
  9
$DIMDLE
 40
0.0
  9
$DIMEXE
 40
0.125
  9
$DIMTP
 40
1.5
  9
$DIMTM
 40
1.5
  9
$DIMTXT
 40
1.5
  9
$DIMCEN
 40
0.09
  9
$DIMTSZ
 40
0.0
  9
$DIMTOL
 70
     0
  9
$DIMLIM
 70
     0
  9
$DIMTIH
 70
     1
  9
$DIMTOH
 70
     1
  9
$DIMSE1
 70
     0
  9
$DIMSE2
 70
     0
  9
$DIMTAD
 70
     0
  9
$DIMZIN
 70
     4
  9
$DIMBLK
  1

  9
$DIMASO
 70
     1
  9
$DIMSHO
 70
     1
  9
$DIMPOST
  1

  9
$DIMAPOST
  1

  9
$DIMALT
 70
     0
  9
$DIMALTD
 70
     2
  9
$DIMALTF
 40
25.3999999999999986
  9
$DIMLFAC
 40
1.0
  9
$DIMTOFL
 70
     0
  9
$DIMTVP
 40
0.0
  9
$DIMTIX
 70
     0
  9
$DIMSOXD
 70
     0
  9
$DIMSAH
 70
     0
  9
$DIMBLK1
  1

  9
$DIMBLK2
  1

  9
$DIMSTYLE
  2
STANDARD
  9
$DIMCLRD
 70
     0
  9
$DIMCLRE
 70
     0
  9
$DIMCLRT
 70
     0
  9
$DIMTFAC
 40
1.0
  9
$DIMGAP
 40
0.09
  9
$LUNITS
 70
     2
  9
$LUPREC
 70
     4
  9
$SKETCHINC
 40
0.1
  9
$FILLETRAD
 40
0.0
  9
$AUNITS
 70
     0
  9
$AUPREC
 70
     0
  9
$MENU
  1
.
  9
$ELEVATION
 40
0.0
  9
$PELEVATION
 40
0.0
  9
$THICKNESS
 40
0.0
  9
$LIMCHECK
 70
     0
  9
$BLIPMODE
 70
     0
  9
$CHAMFERA
 40
0.0
  9
$CHAMFERB
 40
0.0
  9
$SKPOLY
 70
     0
  9
$TDCREATE
 40
2457827.4934837957844138
  9
$TDUPDATE
 40
2459457.8800231488421559
  9
$TDINDWG
 40
0.3879765046
  9
$TDUSRTIMER
 40
0.3879765046
  9
$USRTIMER
 70
     1
  9
$ANGBASE
 50
0.0
  9
$ANGDIR
 70
     0
  9
$PDMODE
 70
     0
  9
$PDSIZE
 40
0.3125
  9
$PLINEWID
 40
0.0
  9
$COORDS
 70
     1
  9
$SPLFRAME
 70
     0
  9
$SPLINETYPE
 70
     6
  9
$SPLINESEGS
 70
     8
  9
$ATTDIA
 70
     1
  9
$ATTREQ
 70
     1
  9
$HANDLING
 70
     1
  9
$HANDSEED
  5
5E54
  9
$SURFTAB1
 70
     6
  9
$SURFTAB2
 70
     6
  9
$SURFTYPE
 70
     6
  9
$SURFU
 70
     6
  9
$SURFV
 70
     6
  9
$UCSNAME
  2

  9
$UCSORG
 10
0.0
 20
0.0
 30
0.0
  9
$UCSXDIR
 10
1.0
 20
0.0
 30
0.0
  9
$UCSYDIR
 10
0.0
 20
1.0
 30
0.0
  9
$PUCSNAME
  2

  9
$PUCSORG
 10
0.0
 20
0.0
 30
0.0
  9
$PUCSXDIR
 10
1.0
 20
0.0
 30
0.0
  9
$PUCSYDIR
 10
0.0
 20
1.0
 30
0.0
  9
$USERI1
 70
     0
  9
$USERI2
 70
     0
  9
$USERI3
 70
     0
  9
$USERI4
 70
     0
  9
$USERI5
 70
     0
  9
$USERR1
 40
0.0
  9
$USERR2
 40
0.0
  9
$USERR3
 40
0.0
  9
$USERR4
 40
0.0
  9
$USERR5
 40
0.0
  9
$WORLDVIEW
 70
     1
  9
$SHADEDGE
 70
     3
  9
$SHADEDIF
 70
    70
  9
$TILEMODE
 70
     1
  9
$MAXACTVP
 70
    48
  9
$PLIMCHECK
 70
     0
  9
$PEXTMIN
 10
1.0000000000000000E+20
 20
1.0000000000000000E+20
 30
1.0000000000000000E+20
  9
$PEXTMAX
 10
-1.0000000000000000E+20
 20
-1.0000000000000000E+20
 30
-1.0000000000000000E+20
  9
$PLIMMIN
 10
0.0
 20
0.0
  9
$PLIMMAX
 10
12.0
 20
9.0
  9
$UNITMODE
 70
     0
  9
$VISRETAIN
 70
     1
  9
$PLINEGEN
 70
     0
  9
$PSLTSCALE
 70
     1
  0
ENDSEC
  0
SECTION
  2
TABLES
  0
TABLE
  2
VPORT
 70
     1
  0
VPORT
  2
*ACTIVE
 70
     0
 10
0.0
 20
0.0
 11
1.0
 21
1.0
 12
127.1858725722393046
 22
2.9914720033220088
 13
0.0
 23
0.0
 14
1.0
 24
1.0
 15
0.0
 25
0.0
 16
-0.0000000000000284
 26
0.0
 36
157.2215818301446859
 17
210.9789276123046875
 27
7.2024491855605604
 37
0.0
 40
24.2569220349615691
 41
2.5092105263157891
 42
50.0
 43
0.0
 44
0.0
 50
0.0
 51
0.0
 71
     0
 72
   100
 73
     1
 74
     1
 75
     0
 76
     0
 77
     0
 78
     0
  0
ENDTAB
  0
TABLE
  2
LTYPE
 70
     2
  0
LTYPE
  2
CONTINUOUS
 70
     0
  3
Solid line
 72
    65
 73
     0
 40
0.0
  0
LTYPE
  2
PHANTOM2
 70
     0
  3
___ _ _ ___ _ _ ___ _ _ ___ _ _
 72
    65
 73
     6
 40
1.25
 49
0.625
 49
-0.125
 49
0.125
 49
-0.125
 49
0.125
 49
-0.125
  0
ENDTAB
  0
TABLE
  2
LAYER
 70
     2
  0
LAYER
  2
0
 70
     0
 62
     7
  6
CONTINUOUS
  0
LAYER
  2
DEFPOINTS
 70
     0
 62
     7
  6
CONTINUOUS
  0
ENDTAB
  0
TABLE
  2
STYLE
 70
     1
  0
STYLE
  2
STANDARD
 70
     0
 40
0.0
 41
0.8
 50
0.0
 71
     0
 42
0.2
  3
txt
  4

  0
ENDTAB
  0
TABLE
  2
VIEW
 70
     0
  0
ENDTAB
  0
TABLE
  2
UCS
 70
     0
  0
ENDTAB
  0
TABLE
  2
APPID
 70
     9
  0
APPID
  2
ACAD
 70
     0
  0
APPID
  2
ACAD_MLEADERVER
 70
     0
  0
APPID
  2
ACAD_EXEMPT_FROM_CAD_STANDARDS
 70
     0
  0
APPID
  2
ACAD_NAV_VCDISPLAY
 70
     0
  0
APPID
  2
ACADANNOMONITORALERTICONDI
 70
     0
  0
APPID
  2
ACAD_DSTYLE_DIMJAG
 70
     0
  0
APPID
  2
ACAD_DSTYLE_DIMTALN
 70
     0
  0
APPID
  2
ACDBATTR
 70
     0
  0
APPID
  2
DCO15
 70
     0
  0
ENDTAB
  0
TABLE
  2
DIMSTYLE
 70
     1
  0
DIMSTYLE
  2
STANDARD
 70
     0
  3

  4

  5

  6

  7

 40
1.0
 41
0.1875
 42
0.0625
 43
0.38
 44
0.125
 45
0.0
 46
0.0
 47
1.5
 48
1.5
140
1.5
141
0.09
142
0.0
143
25.3999999999999986
144
1.0
145
0.0
146
1.0
147
0.09
 71
     0
 72
     0
 73
     1
 74
     1
 75
     0
 76
     0
 77
     0
 78
     4
170
     0
171
     2
172
     0
173
     0
174
     0
175
     0
176
     0
177
     0
178
     0
  0
ENDTAB
  0
ENDSEC
  0
SECTION
  2
BLOCKS
  0
BLOCK
  8
0
  2
$MODEL_SPACE
 70
     0
 10
0.0
 20
0.0
 30
0.0
  3
$MODEL_SPACE
  1

  0
ENDBLK
  5
21
  8
0
  0
BLOCK
 67
     1
  8
0
  2
$PAPER_SPACE
 70
     0
 10
0.0
 20
0.0
 30
0.0
  3
$PAPER_SPACE
  1

  0
ENDBLK
  5
1D
 67
     1
  8
0
  0
ENDSEC
  0
SECTION
  2
ENTITIES
  0
ATTDEF
  5
4EF9
  8
DEFPOINTS
 10
338.1556115459193279
 20
22.2248337059934009
 30
0.0
 40
0.001
  1
K-21001A
  3

  2
MODELNUMBER
 70
     0
1001
ACDBATTR
1070
     0
1070
     1
  0
ATTDEF
  5
4EFA
  8
DEFPOINTS
 10
338.1556115459193279
 20
22.2231670393267216
 30
0.0
 40
0.001
  1
REACHUP
  3

  2
TRADENAME
 70
     0
1001
ACDBATTR
1070
     0
1070
     1
  0
ATTDEF
  5
4EFB
  8
DEFPOINTS
 10
338.1556115459193279
 20
22.2215003726600386
 30
0.0
 40
0.001
  1
TOILET
  3

  2
PRODUCT
 70
     0
1001
ACDBATTR
1070
     0
1070
     1
  0
LINE
  5
5D5D
  8
0
 10
330.5924441491495145
 20
22.2214593501844284
 30
0.0
 11
345.7187723045494749
 21
22.2214593501844284
 31
0.0
  0
ARC
  5
5D5E
  8
0
 10
330.5924726029425074
 20
22.025349471686269
 30
0.0
 40
0.1961098805623587
 50
90.008313106135617
 51
113.1038593434600017
  0
ARC
  5
5D5F
  8
0
 10
330.6019677934544916
 20
21.900559061466371
 30
0.0
 40
0.3171795655299738
 50
90.184097546427509
 51
117.496636551561906
  0
ARC
  5
5D60
  8
0
 10
330.6007948084210284
 20
21.903831100366709
 30
0.0
 40
0.3137359321153797
 50
117.5825077369726017
 51
170.0758160267232029
  0
ARC
  5
5D61
  8
0
 10
330.5629067899158144
 20
21.9081434774745709
 30
0.0
 40
0.2756810730585608
 50
169.6015434017485006
 51
180.9497345053910067
  0
ARC
  5
5D62
  8
0
 10
2138.819838578773215
 20
20.5172499778011002
 30
0.0
 40
1808.5331063299449852
 50
179.9560801386788
 51
180.0367112596019012
  0
ARC
  5
5D63
  8
0
 10
347.3648198571664238
 20
19.3469877580343201
 30
0.0
 40
17.0777202288980803
 50
179.9614958944343073
 51
183.7790327297879003
  0
ARC
  5
5D64
  8
0
 10
332.2688058291411721
 20
18.336063570615611
 30
0.0
 40
1.9479500489401551
 50
183.3741062125857013
 51
264.1098408111989215
  0
LINE
  5
5D65
  8
0
 10
330.9278824797495986
 20
16.9231113547844494
 30
0.0
 11
330.9310511719282886
 21
13.9797208688844403
 31
0.0
  0
ARC
  5
5D66
  8
0
 10
725.0438730649432273
 20
10.3028397656997601
 30
0.0
 40
394.1132352839728128
 50
180.0829865375490897
 51
180.7129176740396872
  0
LINE
  5
5D67
  8
0
 10
330.9717819954494757
 20
13.9336831777824699
 30
0.0
 11
330.9717819954494757
 21
13.9257043132692502
 31
0.0
  0
LINE
  5
5D68
  8
0
 10
330.9771408601690155
 20
14.0064408147765498
 30
0.0
 11
330.9771408601690155
 21
13.9779026880605102
 31
0.0
  0
LINE
  5
5D69
  8
0
 10
331.1677294029125846
 20
14.1286917910844299
 30
0.0
 11
333.8171216065854878
 21
14.1286917910844299
 31
0.0
  0
ARC
  5
5D6A
  8
0
 10
331.1681491614810966
 20
13.9323203445541104
 30
0.0
 40
0.1963718951623989
 50
90.1224738024840946
 51
179.6023605157718919
  0
LINE
  5
5D6B
  8
0
 10
331.1743972797494848
 20
14.2036497098844396
 30
0.0
 11
331.3200608151483948
 21
14.2036497098844396
 31
0.0
  0
ARC
  5
5D6C
  8
0
 10
331.1744653961723088
 20
14.0063251517397305
 30
0.0
 40
0.1973245699016133
 50
90.019778498026966
 51
179.9664157168099052
  0
ARC
  5
5D6D
  8
0
 10
333.7850036931985187
 20
14.1413537585026994
 30
0.0
 40
0.0791170432638141
 50
5.2327560170811411
 51
89.2847046138238483
  0
ARC
  5
5D6E
  8
0
 10
333.6587492483208166
 20
14.1288055980344591
 30
0.0
 40
0.205992065999601
 50
2.223443989106205
 51
5.5056785246362159
  0
LINE
  5
5D6F
  8
0
 10
333.888802315650878
 20
14.2207850734344401
 30
0.0
 11
333.8840582278494935
 21
14.1452963437844499
 31
0.0
  0
ARC
  5
5D70
  8
0
 10
333.870046706301423
 20
14.1564927708048192
 30
0.0
 40
0.0179355154404663
 50
287.9737267708140962
 51
321.3720971918430109
  0
ARC
  5
5D71
  8
0
 10
333.7652100978774001
 20
14.5756974471092295
 30
0.0
 40
0.4500098457306318
 50
276.6241811699298978
 51
284.1974293035045775
  0
LINE
  5
5D72
  8
0
 10
333.888802315650878
 20
14.2207850734344401
 30
0.0
 11
334.4104559427303229
 21
14.2207850734344401
 31
0.0
  0
ARC
  5
5D73
  8
0
 10
333.3812258985727794
 20
-28.2226364095376603
 30
0.0
 40
42.4450310577523098
 50
89.4536061108242393
 51
90.2485996156317611
  0
ARC
  5
5D74
  8
0
 10
326.5323097488912936
 20
600.0916218757196248
 30
0.0
 40
585.9075340775768836
 50
270.4681984211849226
 51
270.6517588827920804
  0
LINE
  5
5D75
  8
0
 10
334.4104559427303229
 20
14.2207850734344401
 30
0.0
 11
334.4152661451495874
 21
14.1432963261844407
 31
0.0
  0
ARC
  5
5D76
  8
0
 10
334.4212293304881882
 20
14.1449363828745494
 30
0.0
 40
0.0061846071282503
 50
195.3778655738952068
 51
239.2184750633302031
  0
ARC
  5
5D77
  8
0
 10
334.4877147130637809
 20
14.3424106694008309
 30
0.0
 40
0.2144155109391829
 50
251.0441977213206997
 51
265.9737071394080203
  0
LINE
  5
5D78
  8
0
 10
334.5334266968495172
 20
14.1250495883844405
 30
0.0
 11
341.7777897568494723
 21
14.1250495883844405
 31
0.0
  0
ARC
  5
5D79
  8
0
 10
334.1435633423183162
 20
7.8401645354445293
 30
0.0
 40
6.2969654250181444
 50
86.4503822572593634
 51
87.0042036406091484
  0
ARC
  5
5D7A
  8
0
 10
335.4826695077288718
 20
13.1475228698722599
 30
0.0
 40
1.0881016787769451
 50
90.7223287341522848
 51
99.8520504388483658
  0
LINE
  5
5D7B
  8
0
 10
334.4548208240544795
 20
14.2195781660844407
 30
0.0
 11
341.8563956296445099
 21
14.2195781660844407
 31
0.0
  0
ARC
  5
5D7C
  8
0
 10
334.4548208240544795
 20
14.1802080885794002
 30
0.0
 40
0.0393700775050405
 50
89.9999982609488285
 51
180.0000007203275061
  0
LINE
  5
5D7D
  8
0
 10
334.4154507464494941
 20
14.1802080880844397
 30
0.0
 11
334.4154507464494941
 21
14.1427324473405207
 31
0.0
  0
LINE
  5
5D7E
  8
0
 10
330.9717819954494757
 20
13.9257043132692502
 30
0.0
 11
330.9864310919494983
 21
5.4111639882344491
 31
0.0
  0
ARC
  5
5D80
  8
0
 10
345.7187438507565957
 20
22.025349471686269
 30
0.0
 40
0.1961098805623587
 50
66.8961406565469332
 51
89.9916868938644257
  0
ARC
  5
5D81
  8
0
 10
345.7092486602444978
 20
21.9005590614662786
 30
0.0
 40
0.3171795655300733
 50
62.503363448434861
 51
89.8159024529015539
  0
ARC
  5
5D82
  8
0
 10
345.7104216452780179
 20
21.903831100366709
 30
0.0
 40
0.3137359321153797
 50
9.9241839732766923
 51
62.4174922630273628
  0
ARC
  5
5D83
  8
0
 10
345.7483096637832887
 20
21.9081434774745709
 30
0.0
 40
0.2756810730585608
 50
359.0502654946081975
 51
10.3984565982514994
  0
ARC
  5
5D84
  8
0
 10
-1462.5086221250739982
 20
20.5172499778011002
 30
0.0
 40
1808.5331063299449852
 50
359.9632887403981272
 51
0.0439198613211655
  0
ARC
  5
5D85
  8
0
 10
328.9463965965326224
 20
19.3469877580343201
 30
0.0
 40
17.0777202288980803
 50
356.2209672702111902
 51
0.0385041055656522
  0
ARC
  5
5D86
  8
0
 10
344.0424106245578741
 20
18.336063570615611
 30
0.0
 40
1.9479500489401551
 50
275.8901591888010785
 51
356.6258937874143271
  0
LINE
  5
5D87
  8
0
 10
345.3394344582495137
 20
13.9336831777824699
 30
0.0
 11
345.3394344582495137
 21
13.9257043132692502
 31
0.0
  0
LINE
  5
5D88
  8
0
 10
345.3340755935300876
 20
14.0064408147765498
 30
0.0
 11
345.3340755935300876
 21
13.9779026880605102
 31
0.0
  0
LINE
  5
5D89
  8
0
 10
345.1434870507864048
 20
14.1286917910844299
 30
0.0
 11
342.4940948471135016
 21
14.1286917910844299
 31
0.0
  0
ARC
  5
5D8A
  8
0
 10
345.1430672922178928
 20
13.9323203445541104
 30
0.0
 40
0.1963718951623989
 50
0.3976394842280529
 51
89.8775261975159054
  0
LINE
  5
5D8B
  8
0
 10
345.1368191739493909
 20
14.2036497098844396
 30
0.0
 11
344.9911556385505946
 21
14.2036497098844396
 31
0.0
  0
ARC
  5
5D8C
  8
0
 10
345.1367510575267943
 20
14.0063251517397305
 30
0.0
 40
0.1973245699016133
 50
0.0335842822928274
 51
89.980221501973034
  0
ARC
  5
5D8D
  8
0
 10
342.5262127605005844
 20
14.1413537585026994
 30
0.0
 40
0.0791170432638141
 50
90.7152953861728832
 51
174.7672439829188136
  0
ARC
  5
5D8E
  8
0
 10
342.6524672053781728
 20
14.1288055980344591
 30
0.0
 40
0.205992065999601
 50
174.4943214753637903
 51
177.7765560108938132
  0
LINE
  5
5D8F
  8
0
 10
342.4224141380481115
 20
14.2207850734344401
 30
0.0
 11
342.4271582258494959
 21
14.1452963437844499
 31
0.0
  0
ARC
  5
5D90
  8
0
 10
342.4411697473976233
 20
14.1564927708048192
 30
0.0
 40
0.0179355154404663
 50
218.6279028081569891
 51
252.0262732291859038
  0
ARC
  5
5D91
  8
0
 10
342.546006355821703
 20
14.5756974471092295
 30
0.0
 40
0.4500098457306318
 50
255.802570696495394
 51
263.3758188300701022
  0
LINE
  5
5D92
  8
0
 10
342.4224141380481115
 20
14.2207850734344401
 30
0.0
 11
341.9007605109687802
 21
14.2207850734344401
 31
0.0
  0
ARC
  5
5D93
  8
0
 10
342.92999055512621
 20
-28.2226364095376603
 30
0.0
 40
42.4450310577523098
 50
89.7514003843682389
 51
90.5463938891725064
  0
ARC
  5
5D94
  8
0
 10
349.7789067048076959
 20
600.0916218757196248
 30
0.0
 40
585.9075340775768836
 50
269.3482411172079196
 51
269.5318015788150774
  0
LINE
  5
5D95
  8
0
 10
341.9007605109687802
 20
14.2207850734344401
 30
0.0
 11
341.8959503085495157
 21
14.1432963261844407
 31
0.0
  0
ARC
  5
5D96
  8
0
 10
341.8899871232108012
 20
14.1449363828745494
 30
0.0
 40
0.0061846071282503
 50
300.7815249366697117
 51
344.6221344261048216
  0
ARC
  5
5D97
  8
0
 10
341.8235017406353222
 20
14.3424106694008309
 30
0.0
 40
0.2144155109391829
 50
274.0262928605919797
 51
288.9558022786791867
  0
ARC
  5
5D98
  8
0
 10
342.1676531113806732
 20
7.8401645354445293
 30
0.0
 40
6.2969654250181444
 50
92.9957963593908374
 51
93.5496177427406366
  0
ARC
  5
5D99
  8
0
 10
340.8285469459701176
 20
13.1475228698722599
 30
0.0
 40
1.0881016787769451
 50
80.1479495611516199
 51
89.2776712658477436
  0
ARC
  5
5D9A
  8
0
 10
341.8563956296445099
 20
14.1802080885794002
 30
0.0
 40
0.0393700775050405
 50
359.9999992796725223
 51
90.0000017390511573
  0
LINE
  5
5D9B
  8
0
 10
341.8957657072494953
 20
14.1802080880844397
 30
0.0
 11
341.8957657072494953
 21
14.1427324473405207
 31
0.0
  0
LINE
  5
5D9C
  8
0
 10
345.3394344582495137
 20
13.9257043132692502
 30
0.0
 11
345.3247853617494911
 21
5.4111639882344491
 31
0.0
  0
ARC
  5
5D9D
  8
0
 10
338.1556082268494947
 20
-1159.2764736047449787
 30
0.0
 40
1173.5150871162300064
 50
89.8688264088350763
 51
90.1311735911649379
  0
ARC
  5
5D9E
  8
0
 10
338.1556082268494947
 20
5.3312085376319649
 30
0.0
 40
7.1696229793242283
 50
179.3610256992261895
 51
0.6389743007738184
  0
ARC
  5
5D9F
  8
0
 10
338.1556082268494947
 20
5.4297724776868961
 30
0.0
 40
7.1945274242640851
 50
180.2441935813664884
 51
195.0158109424945962
  0
ARC
  5
5DA0
  8
0
 10
338.1556082268494947
 20
5.4297724776868961
 30
0.0
 40
7.1945274242640851
 50
344.9841890575078196
 51
359.7558064186334832
  0
ARC
  5
5DA1
  8
0
 10
338.1556082268494947
 20
75.3744542313982322
 30
0.0
 40
59.2893177642361167
 50
264.1075730167120241
 51
275.8924269832879759
  0
CIRCLE
  5
5DA2
  8
0
 10
338.1556082268494947
 20
19.4655538383844302
 30
0.0
 40
0.9448818898000004
  0
CIRCLE
  5
5DA3
  8
0
 10
338.1556082268494947
 20
19.4655538383844302
 30
0.0
 40
0.6822648631999968
  0
ARC
  5
5DA4
  8
0
 10
338.1556082268494947
 20
19.4655538383844302
 30
0.0
 40
0.6692913385999973
 50
269.7014644439287849
 51
90.2985340690373732
  0
ARC
  5
5DA5
  8
0
 10
341.8662381481495913
 20
19.4655538383844302
 30
0.0
 40
3.8162633976999998
 50
170.2012010616780913
 51
189.9308065391994944
  0
ARC
  5
5DA6
  8
0
 10
341.8662381481495913
 20
19.4655538383844302
 30
0.0
 40
3.8282233706999991
 50
170.3333571122001899
 51
189.6666428880643025
  0
ARC
  5
5DA7
  8
0
 10
338.1482747471696939
 20
20.1279338973673703
 30
0.0
 40
0.0079014988922865
 50
60.8714501076894621
 51
90.5832397172938926
  0
ARC
  5
5DA8
  8
0
 10
338.1556082268500063
 20
19.4655538383684892
 30
0.0
 40
0.6703221495159563
 50
90.633716914424852
 51
92.7348443357747243
  0
ARC
  5
5DA9
  8
0
 10
338.1245270616229277
 20
20.1162186382549599
 30
0.0
 40
0.0189154250778503
 50
92.7348443357616929
 51
183.5746275479037877
  0
ARC
  5
5DAA
  8
0
 10
338.1482807531626804
 20
18.8031501024812684
 30
0.0
 40
0.0078778868116217
 50
269.3712912374027724
 51
299.1741056285273999
  0
LINE
  5
5DAB
  8
0
 10
338.1481943105466144
 20
18.7952726899434595
 30
0.0
 11
338.1236245326319931
 21
18.79599515730078
 31
0.0
  0
ARC
  5
5DAC
  8
0
 10
338.1245270617935716
 20
18.8148890387291914
 30
0.0
 40
0.0189154253010257
 50
203.3042331825334941
 51
267.2651551719330882
  0
ARC
  5
5DAD
  8
0
 10
338.1556082268494947
 20
19.4655538383844302
 30
0.0
 40
0.6692913385999999
 50
97.4942612180878996
 51
262.5041814510116183
  0
ARC
  5
5DAE
  8
0
 10
338.0709038281644894
 20
20.1072688972976685
 30
0.0
 40
0.0214946949805036
 50
2.9412028513126578
 51
54.3486332196647624
  0
ARC
  5
5DAF
  8
0
 10
338.070862881798007
 20
20.1096893571181283
 30
0.0
 40
0.0196050009520894
 50
50.1245852055858592
 51
97.4683872515486058
  0
ARC
  5
5DB0
  8
0
 10
338.0709038281494827
 20
18.8238387794844186
 30
0.0
 40
0.0214946949999717
 50
306.3048905884992905
 51
357.0587970695002014
  0
ARC
  5
5DB1
  8
0
 10
338.0708549116213248
 20
18.8215239414416082
 30
0.0
 40
0.0197086826055526
 50
262.5416117965065155
 51
310.4074384380072047
  0
ARC
  5
5DB2
  8
0
 10
338.028593806949516
 20
19.8623452306844399
 30
0.0
 40
0.0357824095000002
 50
320.8625746388458992
 51
27.33123797961834
  0
ARC
  5
5DB3
  8
0
 10
337.7717499591494743
 20
19.4655538383844302
 30
0.0
 40
0.2791457053000003
 50
343.1228359609133918
 51
355.5059677665109916
  0
ARC
  5
5DB4
  8
0
 10
337.7717499591494743
 20
19.4655538383844302
 30
0.0
 40
0.2791457053000003
 50
4.4940322334889613
 51
16.8771640390865088
  0
ARC
  5
5DB5
  8
0
 10
338.0285927192495024
 20
19.0687699170844382
 30
0.0
 40
0.0357789404999998
 50
332.6779444074023786
 51
39.1280189281017812
  0
ARC
  5
5DB6
  8
0
 10
337.987630590749518
 20
20.092454911084431
 30
0.0
 40
0.0333271255000007
 50
109.020361809477393
 51
158.6860800395504043
  0
ARC
  5
5DB7
  8
0
 10
337.987630590749518
 20
20.092454911084431
 30
0.0
 40
0.0333271255000007
 50
51.3139199495039477
 51
100.9796381795786004
  0
ARC
  5
5DB8
  8
0
 10
337.6966847903494795
 20
19.9244772748844206
 30
0.0
 40
0.0333271254999983
 50
81.3139200298712552
 51
130.9796390631391034
  0
ARC
  5
5DB9
  8
0
 10
337.6966847903494795
 20
19.9244772748844206
 30
0.0
 40
0.0333271254999983
 50
139.0203609368545017
 51
188.6860799701368876
  0
ARC
  5
5DBA
  8
0
 10
337.5287071541495152
 20
19.63353147458443
 30
0.0
 40
0.0333271254999996
 50
111.3139198950163973
 51
160.9796375147298022
  0
ARC
  5
5DBB
  8
0
 10
337.5287071541495152
 20
19.63353147458443
 30
0.0
 40
0.0333271254999996
 50
169.0203624791622019
 51
218.6860800988777953
  0
ARC
  5
5DBC
  8
0
 10
337.7717499591494743
 20
19.4655538383844302
 30
0.0
 40
0.2969642898999998
 50
158.7033731452953873
 51
201.296626854704499
  0
ARC
  5
5DBD
  8
0
 10
337.5287071541495152
 20
19.297576202184441
 30
0.0
 40
0.0333271255000002
 50
199.0203624852827886
 51
248.6860801049838869
  0
ARC
  5
5DBE
  8
0
 10
337.5287071541495152
 20
19.297576202184441
 30
0.0
 40
0.0333271255000002
 50
141.3139199011222047
 51
190.9796375208242978
  0
ARC
  5
5DBF
  8
0
 10
337.6966847903494795
 20
19.0066304018844185
 30
0.0
 40
0.0333271255000004
 50
229.0203609371720006
 51
278.6860799701551059
  0
ARC
  5
5DC0
  8
0
 10
337.6966847903494795
 20
19.0066304018844185
 30
0.0
 40
0.0333271255000004
 50
171.3139200298384139
 51
220.9796390628337974
  0
ARC
  5
5DC1
  8
0
 10
337.987630590749518
 20
18.8386527656844294
 30
0.0
 40
0.0333271254999981
 50
201.3139199604385112
 51
250.9796381904154998
  0
ARC
  5
5DC2
  8
0
 10
337.987630590749518
 20
18.8386527656844294
 30
0.0
 40
0.0333271254999981
 50
259.0203618205309226
 51
308.6860800505006068
  0
ARC
  5
5DC3
  8
0
 10
338.2120535799494974
 20
18.8203805004844504
 30
0.0
 40
0.0343579363999978
 50
222.8970343023943883
 51
327.102965701934977
  0
ARC
  5
5DC4
  8
0
 10
338.5631798974495155
 20
18.9622447412844402
 30
0.0
 40
0.0343579364000014
 50
256.8970341731712779
 51
1.102965827737912
  0
ARC
  5
5DC5
  8
0
 10
338.7749473306495247
 20
19.2762028721844416
 30
0.0
 40
0.0343579363999998
 50
290.8970341821301986
 51
35.102965827815602
  0
ARC
  5
5DC6
  8
0
 10
338.5394664946495027
 20
19.4655538383844302
 30
0.0
 40
0.2969642899000004
 50
338.7033730538793179
 51
21.2966269461207389
  0
ARC
  5
5DC7
  8
0
 10
338.7749473306495247
 20
19.6549048045844508
 30
0.0
 40
0.0343579364000006
 50
324.8970341721831119
 51
69.1029658178770347
  0
ARC
  5
5DC8
  8
0
 10
338.5631798974495155
 20
19.9688629354844416
 30
0.0
 40
0.0343579363999976
 50
358.8970341722621242
 51
103.1029658268220004
  0
ARC
  5
5DC9
  8
0
 10
338.2120535799494974
 20
20.1107271762844313
 30
0.0
 40
0.0343579363999972
 50
32.897034298066778
 51
137.1029656976056117
  0
LINE
  5
5DCA
  8
0
 10
338.1059656807814235
 20
20.1198612262267886
 30
0.0
 11
338.0893021979603077
 21
20.1183829380192911
 31
0.0
  0
LINE
  5
5DCB
  8
0
 10
338.1064912998525074
 20
18.8112068682337501
 30
0.0
 11
338.089302248230922
 21
18.812724821969109
 31
0.0
  0
LINE
  5
5DCC
  8
0
 10
345.7102677908006854
 20
22.2177369897065091
 30
0.0
 11
330.600948662901601
 21
22.2177369897065091
 31
0.0
  0
LINE
  5
5DCD
  8
0
 10
330.9310511719282886
 20
13.9797208688844403
 30
0.0
 11
330.9310511719282886
 21
9.7320109604709444
 31
0.0
  0
LINE
  5
5DCE
  8
0
 10
345.3833339739495045
 20
16.9231113547844494
 30
0.0
 11
345.3801652817707009
 21
13.9797208688844403
 31
0.0
  0
ARC
  5
5DCF
  8
0
 10
-48.732656611244181
 20
10.3028397656997601
 30
0.0
 40
394.1132352839728128
 50
359.2870823259593749
 51
359.9170134624499724
  0
LINE
  5
5DD0
  8
0
 10
345.3801652817707009
 20
13.9797208688844403
 30
0.0
 11
345.3801652817707009
 21
9.7320109604709444
 31
0.0
  0
ENDSEC
  0
EOF
