  0
SECTION
  2
HEADER
  9
$ACADVER
  1
AC1009
  9
$INSBASE
 10
3413.9932100742357761
 20
59.0890561029632124
 30
0.0
  9
$EXTMIN
 10
3372.5959206831130359
 20
34.1549822303201296
 30
0.0
  9
$EXTMAX
 10
3425.9306102986220139
 20
85.4456104650746653
 30
0.0
  9
$LIMMIN
 10
0.0
 20
0.0
  9
$LIMMAX
 10
11.6929133858000007
 20
8.2677165353999982
  9
$ORTHOMODE
 70
     0
  9
$REGENMODE
 70
     1
  9
$FILLMODE
 70
     1
  9
$QTEXTMODE
 70
     0
  9
$MIRRTEXT
 70
     0
  9
$DRAGMODE
 70
     2
  9
$LTSCALE
 40
0.6431102362
  9
$OSMODE
 70
  4095
  9
$ATTMODE
 70
     1
  9
$TEXTSIZE
 40
0.2
  9
$TRACEWID
 40
0.05
  9
$TEXTSTYLE
  7
STANDARD
  9
$CLAYER
  8
0
  9
$CELTYPE
  6
BYLAYER
  9
$CECOLOR
 62
   256
  9
$DIMSCALE
 40
1.0
  9
$DIMASZ
 40
0.1875
  9
$DIMEXO
 40
0.0625
  9
$DIMDLI
 40
0.4443307087
  9
$DIMRND
 40
0.0
  9
$DIMDLE
 40
0.0
  9
$DIMEXE
 40
0.125
  9
$DIMTP
 40
0.01
  9
$DIMTM
 40
0.01
  9
$DIMTXT
 40
2.0
  9
$DIMCEN
 40
0.1052362205
  9
$DIMTSZ
 40
0.0
  9
$DIMTOL
 70
     1
  9
$DIMLIM
 70
     0
  9
$DIMTIH
 70
     1
  9
$DIMTOH
 70
     1
  9
$DIMSE1
 70
     0
  9
$DIMSE2
 70
     0
  9
$DIMTAD
 70
     0
  9
$DIMZIN
 70
     0
  9
$DIMBLK
  1

  9
$DIMASO
 70
     1
  9
$DIMSHO
 70
     1
  9
$DIMPOST
  1
\X
  9
$DIMAPOST
  1

  9
$DIMALT
 70
     1
  9
$DIMALTD
 70
     2
  9
$DIMALTF
 40
25.3999999999999986
  9
$DIMLFAC
 40
1.0
  9
$DIMTOFL
 70
     0
  9
$DIMTVP
 40
0.0
  9
$DIMTIX
 70
     0
  9
$DIMSOXD
 70
     0
  9
$DIMSAH
 70
     0
  9
$DIMBLK1
  1

  9
$DIMBLK2
  1

  9
$DIMSTYLE
  2
STANDARD
  9
$DIMCLRD
 70
     0
  9
$DIMCLRE
 70
     0
  9
$DIMCLRT
 70
     0
  9
$DIMTFAC
 40
1.0
  9
$DIMGAP
 40
0.09
  9
$LUNITS
 70
     2
  9
$LUPREC
 70
     4
  9
$SKETCHINC
 40
0.1
  9
$FILLETRAD
 40
0.0
  9
$AUNITS
 70
     0
  9
$AUPREC
 70
     0
  9
$MENU
  1
.
  9
$ELEVATION
 40
0.0
  9
$PELEVATION
 40
0.0
  9
$THICKNESS
 40
0.0
  9
$LIMCHECK
 70
     0
  9
$BLIPMODE
 70
     0
  9
$CHAMFERA
 40
0.0
  9
$CHAMFERB
 40
0.0
  9
$SKPOLY
 70
     0
  9
$TDCREATE
 40
2458060.468368056230247
  9
$TDUPDATE
 40
2459983.4701736108399928
  9
$TDINDWG
 40
0.3353311343
  9
$TDUSRTIMER
 40
0.3353311343
  9
$USRTIMER
 70
     1
  9
$ANGBASE
 50
0.0
  9
$ANGDIR
 70
     0
  9
$PDMODE
 70
     0
  9
$PDSIZE
 40
0.3125
  9
$PLINEWID
 40
0.0
  9
$COORDS
 70
     1
  9
$SPLFRAME
 70
     0
  9
$SPLINETYPE
 70
     6
  9
$SPLINESEGS
 70
     8
  9
$ATTDIA
 70
     1
  9
$ATTREQ
 70
     1
  9
$HANDLING
 70
     1
  9
$HANDSEED
  5
8759
  9
$SURFTAB1
 70
     6
  9
$SURFTAB2
 70
     6
  9
$SURFTYPE
 70
     6
  9
$SURFU
 70
     6
  9
$SURFV
 70
     6
  9
$UCSNAME
  2

  9
$UCSORG
 10
0.0
 20
0.0
 30
0.0
  9
$UCSXDIR
 10
1.0
 20
0.0
 30
0.0
  9
$UCSYDIR
 10
0.0
 20
1.0
 30
0.0
  9
$PUCSNAME
  2

  9
$PUCSORG
 10
0.0
 20
0.0
 30
0.0
  9
$PUCSXDIR
 10
1.0
 20
0.0
 30
0.0
  9
$PUCSYDIR
 10
0.0
 20
1.0
 30
0.0
  9
$USERI1
 70
     0
  9
$USERI2
 70
     0
  9
$USERI3
 70
     0
  9
$USERI4
 70
     0
  9
$USERI5
 70
     0
  9
$USERR1
 40
0.0
  9
$USERR2
 40
0.0
  9
$USERR3
 40
0.0
  9
$USERR4
 40
0.0
  9
$USERR5
 40
0.0
  9
$WORLDVIEW
 70
     1
  9
$SHADEDGE
 70
     3
  9
$SHADEDIF
 70
    70
  9
$TILEMODE
 70
     1
  9
$MAXACTVP
 70
    64
  9
$PLIMCHECK
 70
     0
  9
$PEXTMIN
 10
1.0000000000000000E+20
 20
1.0000000000000000E+20
 30
1.0000000000000000E+20
  9
$PEXTMAX
 10
-1.0000000000000000E+20
 20
-1.0000000000000000E+20
 30
-1.0000000000000000E+20
  9
$PLIMMIN
 10
0.0
 20
0.0
  9
$PLIMMAX
 10
12.0
 20
9.0
  9
$UNITMODE
 70
     0
  9
$VISRETAIN
 70
     1
  9
$PLINEGEN
 70
     0
  9
$PSLTSCALE
 70
     1
  0
ENDSEC
  0
SECTION
  2
TABLES
  0
TABLE
  2
VPORT
 70
     1
  0
VPORT
  2
*ACTIVE
 70
     0
 10
0.0
 20
0.0
 11
1.0
 21
1.0
 12
410.0187844969440221
 22
-12.4632429171209598
 13
0.0
 23
0.0
 14
1.0
 24
1.0
 15
0.0
 25
0.0
 16
0.0
 26
0.0
 36
238.8063968625259008
 17
3002.96630859375
 27
54.8220901489257813
 37
0.0
 40
67.2418425364181758
 41
2.8493975903614448
 42
50.0
 43
0.0
 44
0.0
 50
0.0
 51
0.0
 71
     0
 72
   100
 73
     1
 74
     1
 75
     0
 76
     0
 77
     0
 78
     0
  0
ENDTAB
  0
TABLE
  2
LTYPE
 70
     2
  0
LTYPE
  2
CONTINUOUS
 70
     0
  3
Solid line
 72
    65
 73
     0
 40
0.0
  0
LTYPE
  2
PHANTOM2
 70
     0
  3
___ _ _ ___ _ _ ___ _ _ ___ _ _
 72
    65
 73
     6
 40
1.25
 49
0.625
 49
-0.125
 49
0.125
 49
-0.125
 49
0.125
 49
-0.125
  0
ENDTAB
  0
TABLE
  2
LAYER
 70
     2
  0
LAYER
  2
0
 70
     0
 62
   255
  6
CONTINUOUS
  0
LAYER
  2
DEFPOINTS
 70
     0
 62
     7
  6
CONTINUOUS
  0
ENDTAB
  0
TABLE
  2
STYLE
 70
     1
  0
STYLE
  2
STANDARD
 70
     0
 40
0.0
 41
0.8
 50
0.0
 71
     0
 42
0.2
  3
txt
  4

  0
ENDTAB
  0
TABLE
  2
VIEW
 70
     0
  0
ENDTAB
  0
TABLE
  2
UCS
 70
     0
  0
ENDTAB
  0
TABLE
  2
APPID
 70
     9
  0
APPID
  2
ACAD
 70
     0
  0
APPID
  2
ACAD_MLEADERVER
 70
     0
  0
APPID
  2
ACAD_EXEMPT_FROM_CAD_STANDARDS
 70
     0
  0
APPID
  2
ACAD_NAV_VCDISPLAY
 70
     0
  0
APPID
  2
ACAECLAYERSTANDARD
 70
     0
  0
APPID
  2
ACCMTRANSPARENCY
 70
     0
  0
APPID
  2
ACAD_DSTYLE_DIMJAG
 70
     0
  0
APPID
  2
ACAD_DSTYLE_DIMTALN
 70
     0
  0
APPID
  2
ACDBATTR
 70
     0
  0
ENDTAB
  0
TABLE
  2
DIMSTYLE
 70
     1
  0
DIMSTYLE
  2
STANDARD
 70
     0
  3

  4

  5

  6

  7

 40
1.0
 41
0.1875
 42
0.0625
 43
0.38
 44
0.125
 45
0.0
 46
0.0
 47
0.01
 48
0.01
140
0.15625
141
0.09
142
0.0
143
25.3999999999999986
144
1.0
145
0.0
146
1.0
147
0.09
 71
     1
 72
     0
 73
     1
 74
     1
 75
     0
 76
     0
 77
     0
 78
     4
170
     0
171
     2
172
     0
173
     0
174
     0
175
     0
176
     0
177
     0
178
     0
  0
ENDTAB
  0
ENDSEC
  0
SECTION
  2
BLOCKS
  0
BLOCK
  8
0
  2
$MODEL_SPACE
 70
     0
 10
0.0
 20
0.0
 30
0.0
  3
$MODEL_SPACE
  1

  0
ENDBLK
  5
21
  8
0
  0
BLOCK
 67
     1
  8
0
  2
$PAPER_SPACE
 70
     0
 10
0.0
 20
0.0
 30
0.0
  3
$PAPER_SPACE
  1

  0
ENDBLK
  5
1D
 67
     1
  8
0
  0
BLOCK
  8
0
  2
_FILLED
 70
     0
 10
0.0
 20
0.0
 30
0.0
  3
_FILLED
  1

  0
SOLID
  5
5CF5
  8
0
  6
BYBLOCK
 62
     0
 10
0.0
 20
0.0
 30
0.0
 11
-1.0
 21
0.1666666667
 31
0.0
 12
-1.0
 22
-0.1666666667
 32
0.0
 13
-1.0
 23
-0.1666666667
 33
0.0
  0
ENDBLK
  5
5CF6
  8
0
  6
BYBLOCK
 62
     0
  0
ENDSEC
  0
SECTION
  2
ENTITIES
  0
ATTDEF
  5
3930
  8
DEFPOINTS
 10
3413.9831841478321621
 20
59.0930368710539824
 30
0.0
 40
0.001
  1
K-21016A
  3

  2
MODELNUMBER
 70
     0
1001
ACDBATTR
1070
     0
1070
     1
  0
ATTDEF
  5
3931
  8
DEFPOINTS
 10
3413.9831841478321621
 20
59.0913702043873101
 30
0.0
 40
0.001
  1
REACH UP
  3

  2
TRADENAME
 70
     0
1001
ACDBATTR
1070
     0
1070
     1
  0
ATTDEF
  5
3932
  8
DEFPOINTS
 10
3413.9831841478321621
 20
59.0897035377206521
 30
0.0
 40
0.001
  1
TOILET
  3

  2
PRODUCT
 70
     0
1001
ACDBATTR
1070
     0
1070
     1
  0
LINE
  5
83E6
  8
0
 10
3406.0010840942350114
 20
55.2065625926411201
 30
0.0
 11
3406.0010840942350114
 21
58.7753561029632081
 31
0.0
  0
LINE
  5
83E7
  8
0
 10
3406.314784094235165
 20
59.0890561029632124
 30
0.0
 11
3421.671636054235023
 21
59.0890561029632124
 31
0.0
  0
ARC
  5
83E8
  8
0
 10
3406.314784094235165
 20
58.775356102963201
 30
0.0
 40
0.3137
 50
90.0
 51
179.9999999999988063
  0
ARC
  5
83E9
  8
0
 10
3413.8430875990638924
 20
110.8184304856162044
 30
0.0
 40
57.8657004806249802
 50
268.3114178323510828
 51
269.9726678642018101
  0
ARC
  5
83EA
  8
0
 10
3413.7968757207199815
 20
110.7870576411660011
 30
0.0
 40
57.8329972478726617
 50
266.6667942944980041
 51
268.3562646887281176
  0
ARC
  5
83EB
  8
0
 10
3413.8502223954178589
 20
111.8362088007120008
 30
0.0
 40
58.8834757694488928
 50
264.8160489230426151
 51
266.6743294456541093
  0
ARC
  5
83EC
  8
0
 10
3413.8502223970858722
 20
111.836208817881797
 30
0.0
 40
58.8834757866991794
 50
264.0500173297534729
 51
264.8160489229379095
  0
ARC
  5
83ED
  8
0
 10
3407.9481840942357849
 20
55.2065625926411201
 30
0.0
 40
1.9471000000000001
 50
180.0
 51
264.0500173297534729
  0
LINE
  5
83EE
  8
0
 10
3413.8154835916320735
 20
52.9527365890407609
 30
0.0
 11
3414.170936556882225
 21
52.9527365890407609
 31
0.0
  0
LINE
  5
83EF
  8
0
 10
3407.4689998627191017
 20
51.1716605615632076
 30
0.0
 11
3408.9464568901357779
 21
51.1716605615632076
 31
0.0
  0
ARC
  5
83F0
  8
0
 10
3407.4689998627191017
 20
50.5179605615632283
 30
0.0
 40
0.6536999999999999
 50
90.0
 51
180.0000000000005969
  0
LINE
  5
83F1
  8
0
 10
3408.9531856192179475
 20
51.1042036537787965
 30
0.0
 11
3408.9464568901357779
 21
51.1716605615632076
 31
0.0
  0
ARC
  5
83F2
  8
0
 10
3684.8222627142381498
 20
51.810168711621543
 30
0.0
 40
278.0099660009121862
 50
180.2663154163533932
 51
180.4536669533034114
  0
ARC
  5
83F3
  8
0
 10
2934.8130659471821673
 20
45.8714852518100926
 30
0.0
 40
472.0227420834747818
 50
0.3890133603375183
 51
0.4536669533034833
  0
ARC
  5
83F4
  8
0
 10
4999.4438006320242494
 20
59.8896431083070908
 30
0.0
 40
1592.6555813739489622
 50
180.3890133603374011
 51
180.4536669533034114
  0
ARC
  5
83F5
  8
0
 10
1782.3234008395058936
 20
34.4160091997851225
 30
0.0
 40
1624.5656688333899638
 50
0.3890133603375183
 51
0.4536669533034833
  0
ARC
  5
83F6
  8
0
 10
4337.0802542839883245
 20
51.7619608292501994
 30
0.0
 40
930.2500705614257868
 50
180.3890133603374011
 51
180.4536669533034114
  0
ARC
  5
83F7
  8
0
 10
2207.2663150438979756
 20
34.8977798725880817
 30
0.0
 40
1199.6306341684719428
 50
0.3890133603375183
 51
0.4536669533034833
  0
ARC
  5
83F8
  8
0
 10
4358.0816769497450878
 20
49.5011027607247769
 30
0.0
 40
951.2343030252961853
 50
180.3890133603374011
 51
180.4536669533034114
  0
ARC
  5
83F9
  8
0
 10
3417.9490294779061514
 20
41.8930300272674074
 30
0.0
 40
11.0721000283046909
 50
179.6051847865819866
 51
182.9956241873454985
  0
ARC
  5
83FA
  8
0
 10
3413.9932100846349385
 20
41.7446552345632114
 30
0.0
 40
7.114173131000034
 50
183.4672398289702073
 51
188.4514275391888987
  0
ARC
  5
83FB
  8
0
 10
3413.9932100846349385
 20
41.7446552345631474
 30
0.0
 40
7.1141731309996059
 50
188.4514275391888134
 51
192.1029303649847009
  0
ARC
  5
83FC
  8
0
 10
3413.9932100846349385
 20
41.7446552345632469
 30
0.0
 40
7.1141731310001353
 50
192.1029303649847009
 51
202.0995996576411073
  0
ARC
  5
83FD
  8
0
 10
3413.9932100846349385
 20
41.7446552345631119
 30
0.0
 40
7.1141731309997676
 50
202.0995996576409084
 51
210.2324282005201042
  0
ARC
  5
83FE
  8
0
 10
3413.9932100846349385
 20
41.7446552345632824
 30
0.0
 40
7.1141731310001122
 50
210.2324282005201042
 51
219.9630683657188968
  0
ARC
  5
83FF
  8
0
 10
3413.9932100846349385
 20
41.7446552345631616
 30
0.0
 40
7.1141731309999194
 50
219.9630683657188968
 51
236.5540436999287977
  0
ARC
  5
8400
  8
0
 10
3413.9932100846349385
 20
41.7446552345636519
 30
0.0
 40
7.1141731310004968
 50
236.5540436999287977
 51
247.8179902036042961
  0
ARC
  5
8401
  8
0
 10
3413.9932100846349385
 20
41.7446552345618613
 30
0.0
 40
7.1141731309985623
 50
247.8179902036042961
 51
255.8570159704491118
  0
ARC
  5
8402
  8
0
 10
3413.9932100846349385
 20
41.7446552345657196
 30
0.0
 40
7.1141731310025493
 50
255.8570159704491118
 51
262.7825840491204872
  0
ARC
  5
8403
  8
0
 10
3413.9932100846349385
 20
41.7446552345593815
 30
0.0
 40
7.1141731309961589
 50
262.7825840491204872
 51
268.1806409198076153
  0
ARC
  5
8404
  8
0
 10
3413.9932100846349385
 20
41.7446552345822397
 30
0.0
 40
7.1141731310190286
 50
268.1806409198076153
 51
269.9999999162329232
  0
ARC
  5
8405
  8
0
 10
3320.9873017263362271
 20
52.1560765615433226
 30
0.0
 40
85.7814436598552135
 50
359.7147685749441166
 51
1.009612958825953
  0
ARC
  5
8406
  8
0
 10
205.8975121245576076
 20
48.7739683695961475
 30
0.0
 40
3200.8715343865610521
 50
0.0295113858719812
 51
0.0528959332266988
  0
ARC
  5
8407
  8
0
 10
4028.9424971303560596
 20
50.7431075748673592
 30
0.0
 40
622.1739577423511491
 50
180.0295113858718992
 51
180.1746800408413094
  0
ARC
  5
8408
  8
0
 10
2784.957470838206973
 20
46.9505066136569269
 30
0.0
 40
621.8168498849117896
 50
359.9272421303627993
 51
0.1746800408412788
  0
ARC
  5
8409
  8
0
 10
3634.7509727872020449
 20
45.8713835335071778
 30
0.0
 40
227.9773372341566073
 50
179.9272421303627141
 51
180.3800628647350948
  0
ARC
  5
840A
  8
0
 10
3557.0407398887427917
 20
45.3558969272886685
 30
0.0
 40
150.265394628312805
 50
180.3800628647350948
 51
180.6816266567496996
  0
ARC
  5
840B
  8
0
 10
3096.5528956268158254
 20
39.8773852272691869
 30
0.0
 40
310.2550379297264271
 50
0.4412291856646175
 51
0.6816266567497714
  0
ARC
  5
840C
  8
0
 10
3412.9616308667991689
 20
42.3140660721787967
 30
0.0
 40
6.1630796768760669
 50
180.4412291856646107
 51
184.6244540384261086
  0
ARC
  5
840D
  8
0
 10
3416.6484003308391948
 20
42.6122802668742509
 30
0.0
 40
9.8618904028917331
 50
184.6244540384261086
 51
189.3048366273820022
  0
ARC
  5
840E
  8
0
 10
3408.9678409760208524
 20
51.1350962874937593
 30
0.0
 40
0.0341926059390602
 50
244.6205018017093948
 51
261.8029074568718215
  0
ARC
  5
840F
  8
0
 10
3408.9994839273731486
 20
51.3203054584337721
 30
0.0
 40
0.2220755397512101
 50
260.5352988745365792
 51
265.3485522950879272
  0
ARC
  5
8410
  8
0
 10
3409.0492178972681359
 20
51.9817862261341475
 30
0.0
 40
0.8854201825869094
 50
265.6120474100162028
 51
269.4873556694811896
  0
ARC
  5
8411
  8
0
 10
3411.6015965560418408
 20
51.0835814852175503
 30
0.0
 40
2.632912947643979
 50
177.6889432992873878
 51
179.6346849085352915
  0
ARC
  5
8412
  8
0
 10
3409.0165177517587836
 20
51.1879086417530687
 30
0.0
 40
0.0457298115017655
 50
171.3449827847771871
 51
177.6889432992936975
  0
ARC
  5
8413
  8
0
 10
3408.9729445405027946
 20
51.1945412739706569
 30
0.0
 40
0.0016546875731033
 50
146.9936105978819967
 51
171.344982784805012
  0
LINE
  5
8414
  8
0
 10
3408.971556903245073
 20
51.1954426361632216
 30
0.0
 11
3410.2254935492360346
 21
51.1954426361632216
 31
0.0
  0
LINE
  5
8415
  8
0
 10
3410.2254935492360346
 20
51.1622466006632166
 30
0.0
 11
3410.2254935492360346
 21
51.1954426361632216
 31
0.0
  0
LINE
  5
8416
  8
0
 10
3410.2333675649360885
 20
51.1915056282632293
 30
0.0
 11
3410.2333675649360885
 21
51.1622466006632166
 31
0.0
  0
LINE
  5
8417
  8
0
 10
3410.2333675649360885
 20
51.1915056282632293
 30
0.0
 11
3410.438091974434883
 21
51.1915056282632293
 31
0.0
  0
LINE
  5
8418
  8
0
 10
3410.438091974434883
 20
51.1954426361632216
 30
0.0
 11
3410.438091974434883
 21
51.1622466006632166
 31
0.0
  0
LINE
  5
8419
  8
0
 10
3410.438091974434883
 20
51.1954426361632216
 30
0.0
 11
3410.6349533915540633
 21
51.1954426361632216
 31
0.0
  0
LINE
  5
841A
  8
0
 10
3410.9931989814272129
 20
51.1954426361632216
 30
0.0
 11
3411.5507105964011316
 21
51.1954426361632216
 31
0.0
  0
LINE
  5
841B
  8
0
 10
3410.6467533915529202
 20
51.1836427129734517
 30
0.0
 11
3410.6467536301311156
 21
51.1469911466976086
 31
0.0
  0
ARC
  5
841C
  8
0
 10
3410.6349533915540633
 20
51.1836426361632277
 30
0.0
 40
0.0118
 50
0.0003729577674517
 51
90.0
  0
LINE
  5
841D
  8
0
 10
3410.2254935492360346
 20
51.1622466006632166
 30
0.0
 11
3410.438091974434883
 21
51.1622466006632166
 31
0.0
  0
ARC
  5
841E
  8
0
 10
3410.6701454132489744
 20
51.1519333106017271
 30
0.0
 40
0.0239081680916983
 50
191.9298799744653934
 51
211.5809254879553123
  0
ARC
  5
841F
  8
0
 10
3410.7013059496548522
 20
51.1710891034664712
 30
0.0
 40
0.0604858037370437
 50
211.580925487951788
 51
223.8726045374596936
  0
ARC
  5
8420
  8
0
 10
3410.7551768170951618
 20
51.227300453674161
 30
0.0
 40
0.1383147586567425
 50
225.192574509375504
 51
240.8713409168622945
  0
ARC
  5
8421
  8
0
 10
3410.7963770985788869
 20
51.2972874108054882
 30
0.0
 40
0.2195139575033022
 50
240.3696910578242978
 51
246.2255671249230886
  0
LINE
  5
8422
  8
0
 10
3410.9813989814269917
 20
51.1836426361632277
 30
0.0
 11
3410.9813989814269917
 21
51.1450521320934115
 31
0.0
  0
ARC
  5
8423
  8
0
 10
3410.9931989814272129
 20
51.1836426361632277
 30
0.0
 40
0.0118
 50
89.9999999999739515
 51
180.0000000000690079
  0
ARC
  5
8424
  8
0
 10
3410.9161063742549231
 20
51.1782108904117905
 30
0.0
 40
0.0732299652091641
 50
304.8239892334329966
 51
333.0763266465104948
  0
ARC
  5
8425
  8
0
 10
3410.8492739338121282
 20
51.2638928718805005
 30
0.0
 40
0.1818291885534003
 50
292.9056737370148085
 51
306.6942044616280896
  0
ARC
  5
8426
  8
0
 10
3411.4669806246902226
 20
51.1773583323677101
 30
0.0
 40
0.0856606689594495
 50
3.7371230362171199
 51
12.1877374462502193
  0
ARC
  5
8427
  8
0
 10
3410.6625167345550835
 20
51.1148894626694101
 30
0.0
 40
0.8925405235380626
 50
2.2112029913662061
 51
4.3727850299730981
  0
ARC
  5
8428
  8
0
 10
3408.6452769160209755
 20
51.0275480001782782
 30
0.0
 40
2.9116635191496001
 50
1.756836334067019
 51
2.397059746225251
  0
ARC
  5
8429
  8
0
 10
3411.5875277860977803
 20
51.1177983419376787
 30
0.0
 40
0.0319711913719823
 50
181.7658986724842975
 51
202.3989979373837116
  0
ARC
  5
842A
  8
0
 10
3411.6075514327271776
 20
51.1260510838265816
 30
0.0
 40
0.053628849902359
 50
202.3989979373978088
 51
213.5638962912559009
  0
ARC
  5
842B
  8
0
 10
3411.3357297696361456
 20
50.5753638960632088
 30
0.0
 40
0.887795275600005
 50
35.9365760522843587
 51
140.5762172941902861
  0
LINE
  5
842C
  8
0
 10
3409.0412958551128213
 20
51.0964014843521497
 30
0.0
 11
3418.9451242933569119
 21
51.0964014843521497
 31
0.0
  0
LINE
  5
842D
  8
0
 10
3421.9853360542351766
 20
55.2065625926411201
 30
0.0
 11
3421.9853360542351766
 21
58.7753561029632081
 31
0.0
  0
ARC
  5
842E
  8
0
 10
3421.671636054235023
 20
58.775356102963201
 30
0.0
 40
0.3137
 50
0.0000000000012213
 51
90.0
  0
ARC
  5
842F
  8
0
 10
3414.1433325494058408
 20
110.8184304856162044
 30
0.0
 40
57.8657004806249802
 50
270.0273321357981899
 51
271.6885821676489172
  0
ARC
  5
8430
  8
0
 10
3414.1895444277502065
 20
110.7870576411660011
 30
0.0
 40
57.8329972478726617
 50
271.6437353112718824
 51
273.3332057055019959
  0
ARC
  5
8431
  8
0
 10
3414.1361977530527838
 20
111.8362088007120008
 30
0.0
 40
58.8834757694488928
 50
273.3256705543460043
 51
275.1839510769573849
  0
ARC
  5
8432
  8
0
 10
3414.1361977513852253
 20
111.836208817881797
 30
0.0
 40
58.8834757866991794
 50
275.1839510770619768
 51
275.9499826702465271
  0
ARC
  5
8433
  8
0
 10
3420.0382360542362221
 20
55.2065625926411201
 30
0.0
 40
1.9471000000000001
 50
275.9499826702465271
 51
0.0
  0
LINE
  5
8434
  8
0
 10
3420.5174202857510863
 20
51.1716605615632076
 30
0.0
 11
3419.0399632583357743
 21
51.1716605615632076
 31
0.0
  0
ARC
  5
8435
  8
0
 10
3420.5174202857510863
 20
50.5179605615632283
 30
0.0
 40
0.6536999999999999
 50
359.9999999999993747
 51
90.0
  0
LINE
  5
8436
  8
0
 10
3419.0332345292540595
 20
51.1042036537787965
 30
0.0
 11
3419.0399632583357743
 21
51.1716605615632076
 31
0.0
  0
ARC
  5
8437
  8
0
 10
3143.1641574342329477
 20
51.810168711621543
 30
0.0
 40
278.0099660009121862
 50
359.5463330466964749
 51
359.7336845836466068
  0
ARC
  5
8438
  8
0
 10
3893.1733542012880207
 20
45.8714852518100926
 30
0.0
 40
472.0227420834747818
 50
179.5463330466965033
 51
179.6109866396625137
  0
ARC
  5
8439
  8
0
 10
1828.5426195164450291
 20
59.8896431083070908
 30
0.0
 40
1592.6555813739489622
 50
359.5463330466964749
 51
359.6109866396624852
  0
ARC
  5
843A
  8
0
 10
5045.663019308964067
 20
34.4160091997851225
 30
0.0
 40
1624.5656688333899638
 50
179.5463330466965033
 51
179.6109866396625137
  0
ARC
  5
843B
  8
0
 10
2490.9061658644818635
 20
51.7619608292501994
 30
0.0
 40
930.2500705614257868
 50
359.5463330466964749
 51
359.6109866396624852
  0
ARC
  5
843C
  8
0
 10
4620.7201051045722124
 20
34.8977798725880817
 30
0.0
 40
1199.6306341684719428
 50
179.5463330466965033
 51
179.6109866396625137
  0
ARC
  5
843D
  8
0
 10
2469.9047431987260097
 20
49.5011027607247769
 30
0.0
 40
951.2343030252961853
 50
359.5463330466964749
 51
359.6109866396624852
  0
ARC
  5
843E
  8
0
 10
3410.037390670564946
 20
41.8930300272674074
 30
0.0
 40
11.0721000283046909
 50
357.0043758126544162
 51
0.3948152134180025
  0
ARC
  5
843F
  8
0
 10
3413.993210063836159
 20
41.7446552345632114
 30
0.0
 40
7.114173131000034
 50
351.548572460810874
 51
356.532760171029679
  0
ARC
  5
8440
  8
0
 10
3413.993210063836159
 20
41.7446552345631474
 30
0.0
 40
7.1141731309996059
 50
347.8970696350153275
 51
351.548572460811215
  0
ARC
  5
8441
  8
0
 10
3413.9932100638347947
 20
41.7446552345632469
 30
0.0
 40
7.1141731310001353
 50
337.9004003423589211
 51
347.8970696350153275
  0
ARC
  5
8442
  8
0
 10
3413.993210063836159
 20
41.7446552345631119
 30
0.0
 40
7.1141731309997676
 50
329.7675717994799243
 51
337.9004003423589211
  0
ARC
  5
8443
  8
0
 10
3413.993210063836159
 20
41.7446552345632824
 30
0.0
 40
7.1141731310001122
 50
320.036931634281018
 51
329.7675717994799243
  0
ARC
  5
8444
  8
0
 10
3413.993210063836159
 20
41.7446552345631616
 30
0.0
 40
7.1141731309999194
 50
303.4459563000712023
 51
320.0369316342810748
  0
ARC
  5
8445
  8
0
 10
3413.9932100638347947
 20
41.7446552345636519
 30
0.0
 40
7.1141731310004968
 50
292.1820097963956187
 51
303.4459563000712023
  0
ARC
  5
8446
  8
0
 10
3413.993210063836159
 20
41.7446552345618613
 30
0.0
 40
7.1141731309985623
 50
284.1429840295509166
 51
292.1820097963956187
  0
ARC
  5
8447
  8
0
 10
3413.9932100638347947
 20
41.7446552345657196
 30
0.0
 40
7.1141731310025493
 50
277.2174159508795128
 51
284.1429840295509166
  0
ARC
  5
8448
  8
0
 10
3413.993210063836159
 20
41.7446552345593815
 30
0.0
 40
7.1141731309961589
 50
271.8193590801924984
 51
277.2174159508795128
  0
ARC
  5
8449
  8
0
 10
3413.9932100638347947
 20
41.7446552345822397
 30
0.0
 40
7.1141731310190286
 50
270.0000000837670768
 51
271.8193590801924984
  0
ARC
  5
844A
  8
0
 10
3506.9991184221348703
 20
52.1560765615433226
 30
0.0
 40
85.7814436598552135
 50
178.9903870411739888
 51
180.2852314250559118
  0
ARC
  5
844B
  8
0
 10
6622.0889080239130635
 20
48.7739683695961475
 30
0.0
 40
3200.8715343865610521
 50
179.9471040667733064
 51
179.9704886141279871
  0
ARC
  5
844C
  8
0
 10
2799.0439230181141284
 20
50.7431075748673592
 30
0.0
 40
622.1739577423511491
 50
359.825319959158719
 51
359.9704886141279871
  0
ARC
  5
844D
  8
0
 10
4043.028949310263215
 20
46.9505066136569269
 30
0.0
 40
621.8168498849117896
 50
179.8253199591586906
 51
180.0727578696372007
  0
ARC
  5
844E
  8
0
 10
3193.2354473612690526
 20
45.8713835335071778
 30
0.0
 40
227.9773372341566073
 50
359.61993713526482
 51
0.0727578696372501
  0
ARC
  5
844F
  8
0
 10
3270.9456802597278511
 20
45.3558969272886685
 30
0.0
 40
150.265394628312805
 50
359.3183733432501867
 51
359.61993713526482
  0
ARC
  5
8450
  8
0
 10
3731.4335245216548174
 20
39.8773852272691869
 30
0.0
 40
310.2550379297264271
 50
179.3183733432501867
 51
179.5587708143353893
  0
ARC
  5
8451
  8
0
 10
3415.0247892816710191
 20
42.3140660721787967
 30
0.0
 40
6.1630796768760669
 50
355.3755459615738914
 51
359.5587708143353893
  0
ARC
  5
8452
  8
0
 10
3411.3380198176328122
 20
42.6122802668742509
 30
0.0
 40
9.8618904028917331
 50
350.6951633726179125
 51
355.3755459615738914
  0
ARC
  5
8453
  8
0
 10
3419.0185791724488809
 20
51.1350962874937593
 30
0.0
 40
0.0341926059390602
 50
278.1970925431281785
 51
295.3794981982904915
  0
ARC
  5
8454
  8
0
 10
3418.9869362210979489
 20
51.3203054584337721
 30
0.0
 40
0.2220755397512101
 50
274.6514477049120728
 51
279.4647011254633071
  0
ARC
  5
8455
  8
0
 10
3418.9372022512029616
 20
51.9817862261341475
 30
0.0
 40
0.8854201825869094
 50
270.5126443305188104
 51
274.3879525899837972
  0
ARC
  5
8456
  8
0
 10
3416.3848235924288019
 20
51.0835814852175503
 30
0.0
 40
2.632912947643979
 50
0.3653150914646667
 51
2.3110567007126139
  0
ARC
  5
8457
  8
0
 10
3418.9699023967109497
 20
51.1879086417530687
 30
0.0
 40
0.0457298115017655
 50
2.3110567007063092
 51
8.6550172152227738
  0
ARC
  5
8458
  8
0
 10
3419.0134756079669387
 20
51.1945412739706569
 30
0.0
 40
0.0016546875731033
 50
8.6550172151950022
 51
33.0063894021179109
  0
LINE
  5
8459
  8
0
 10
3419.0148632452269339
 20
51.1954426361632216
 30
0.0
 11
3417.7609265992350629
 21
51.1954426361632216
 31
0.0
  0
LINE
  5
845A
  8
0
 10
3417.7609265992350629
 20
51.1622466006632166
 30
0.0
 11
3417.7609265992350629
 21
51.1954426361632216
 31
0.0
  0
LINE
  5
845B
  8
0
 10
3417.753052583535009
 20
51.1915056282632293
 30
0.0
 11
3417.753052583535009
 21
51.1622466006632166
 31
0.0
  0
LINE
  5
845C
  8
0
 10
3417.753052583535009
 20
51.1915056282632293
 30
0.0
 11
3417.5483281740348502
 21
51.1915056282632293
 31
0.0
  0
LINE
  5
845D
  8
0
 10
3417.5483281740348502
 20
51.1954426361632216
 30
0.0
 11
3417.5483281740348502
 21
51.1622466006632166
 31
0.0
  0
LINE
  5
845E
  8
0
 10
3417.5483281740348502
 20
51.1954426361632216
 30
0.0
 11
3417.3514667569179437
 21
51.1954426361632216
 31
0.0
  0
LINE
  5
845F
  8
0
 10
3416.9932211670429751
 20
51.1954426361632216
 30
0.0
 11
3416.4357095520681469
 21
51.1954426361632216
 31
0.0
  0
LINE
  5
8460
  8
0
 10
3417.339666756916813
 20
51.1836427129734517
 30
0.0
 11
3417.3396665183399818
 21
51.1469911466976086
 31
0.0
  0
ARC
  5
8461
  8
0
 10
3417.3514667569179437
 20
51.1836426361632277
 30
0.0
 40
0.0118
 50
90.0
 51
179.999627042232504
  0
LINE
  5
8462
  8
0
 10
3417.7609265992350629
 20
51.1622466006632166
 30
0.0
 11
3417.5483281740348502
 21
51.1622466006632166
 31
0.0
  0
ARC
  5
8463
  8
0
 10
3417.3162747352221231
 20
51.1519333106017271
 30
0.0
 40
0.0239081680916983
 50
328.419074512044574
 51
348.0701200255344929
  0
ARC
  5
8464
  8
0
 10
3417.2851141988148811
 20
51.1710891034664712
 30
0.0
 40
0.0604858037370437
 50
316.1273954625403917
 51
328.4190745120480983
  0
ARC
  5
8465
  8
0
 10
3417.2312433313759357
 20
51.227300453674161
 30
0.0
 40
0.1383147586567425
 50
299.128659083137677
 51
314.8074254906243823
  0
ARC
  5
8466
  8
0
 10
3417.1900430498922105
 20
51.2972874108054882
 30
0.0
 40
0.2195139575033022
 50
293.7744328750769114
 51
299.6303089421757022
  0
LINE
  5
8467
  8
0
 10
3417.0050211670441058
 20
51.1836426361632277
 30
0.0
 11
3417.0050211670441058
 21
51.1450521320934115
 31
0.0
  0
ARC
  5
8468
  8
0
 10
3416.9932211670429751
 20
51.1836426361632277
 30
0.0
 40
0.0118
 50
359.9999999999309921
 51
90.0000000000260485
  0
ARC
  5
8469
  8
0
 10
3417.0703137742161744
 20
51.1782108904117905
 30
0.0
 40
0.0732299652091641
 50
206.9236733534895052
 51
235.1760107665670034
  0
ARC
  5
846A
  8
0
 10
3417.1371462146589693
 20
51.2638928718805005
 30
0.0
 40
0.1818291885534003
 50
233.3057955383719104
 51
247.0943262629853052
  0
ARC
  5
846B
  8
0
 10
3416.5194395237799654
 20
51.1773583323677101
 30
0.0
 40
0.0856606689594495
 50
167.8122625537498038
 51
176.2628769637827872
  0
ARC
  5
846C
  8
0
 10
3417.323903413916014
 20
51.1148894626694101
 30
0.0
 40
0.8925405235380626
 50
175.6272149700268983
 51
177.788797008633793
  0
ARC
  5
846D
  8
0
 10
3419.341143232450122
 20
51.0275480001782782
 30
0.0
 40
2.9116635191496001
 50
177.6029402537747046
 51
178.2431636659329968
  0
ARC
  5
846E
  8
0
 10
3416.3988923623728624
 20
51.1177983419376787
 30
0.0
 40
0.0319711913719823
 50
337.6010020626162031
 51
358.2341013275155888
  0
ARC
  5
846F
  8
0
 10
3416.3788687157430104
 20
51.1260510838265816
 30
0.0
 40
0.053628849902359
 50
326.4361037087442128
 51
337.6010020626018786
  0
ARC
  5
8470
  8
0
 10
3416.6506903788358613
 20
50.5753638960632088
 30
0.0
 40
0.887795275600005
 50
39.4237827058096428
 51
144.0634239477155916
  0
CIRCLE
  5
8471
  8
0
 10
3413.9932100742357761
 20
56.3331505911632178
 30
0.0
 40
0.9448818796000004
  0
CIRCLE
  5
8472
  8
0
 10
3413.9932100742357761
 20
56.3331505911632178
 30
0.0
 40
0.7085586054000004
  0
ARC
  5
8473
  8
0
 10
3413.9932100742357761
 20
56.3331505911632178
 30
0.0
 40
0.6692913385999975
 50
277.4857909064161845
 51
82.5142090935837871
  0
ARC
  5
8474
  8
0
 10
3414.0778520660760478
 20
56.9773047409356366
 30
0.0
 40
0.0196
 50
82.5142090935838013
 51
189.6327547096960018
  0
ARC
  5
8475
  8
0
 10
3413.9932100742357761
 20
56.3331505911632178
 30
0.0
 40
0.6692913385999975
 50
87.5285435180073961
 51
272.4714564819926181
  0
ARC
  5
8476
  8
0
 10
3414.0212258547808233
 20
56.9822376049697183
 30
0.0
 40
0.0196
 50
9.8494208188748882
 51
87.5285435180073961
  0
ARC
  5
8477
  8
0
 10
3410.2835139125140813
 20
56.3333019770828116
 30
0.0
 40
3.813227289615098
 50
9.0656748230151063
 51
9.8494208188806063
  0
ARC
  5
8478
  8
0
 10
3410.2822416452381731
 20
56.3330989745613309
 30
0.0
 40
3.8145156506059732
 50
8.2734875325979615
 51
9.0656748230149038
  0
ARC
  5
8479
  8
0
 10
3410.2828120851090716
 20
56.333181923179751
 30
0.0
 40
3.8139392114332318
 50
7.1143502811339241
 51
8.2734875325979615
  0
ARC
  5
847A
  8
0
 10
3410.2823555964268962
 20
56.333124948399238
 30
0.0
 40
3.814399241913736
 50
5.9141703503435341
 51
7.1143502811337234
  0
ARC
  5
847B
  8
0
 10
3410.2827839708997999
 20
56.3331693236741415
 30
0.0
 40
3.813968575158492
 50
4.5887334431096676
 51
5.9141703503435341
  0
ARC
  5
847C
  8
0
 10
3410.2824227298010555
 20
56.3331403303980096
 30
0.0
 40
3.8143309778929031
 50
2.869257952723502
 51
4.5887334431096676
  0
ARC
  5
847D
  8
0
 10
3410.2825801631479408
 20
56.3331505911636725
 30
0.0
 40
3.8141732282875189
 50
1.5169260838533081
 51
2.869222392342301
  0
ARC
  5
847E
  8
0
 10
3410.2825801631238392
 20
56.3331505911630686
 30
0.0
 40
3.8141732283107022
 50
0.6498283714439843
 51
1.5169260838533081
  0
ARC
  5
847F
  8
0
 10
3410.2825801631302056
 20
56.3331505911631325
 30
0.0
 40
3.8141732283046972
 50
0.0000000000012213
 51
0.6498283714439843
  0
ARC
  5
8480
  8
0
 10
3410.2825801631361173
 20
56.3331505911634665
 30
0.0
 40
3.8299484651993181
 50
8.9508098971971588
 51
9.6327547097015618
  0
ARC
  5
8481
  8
0
 10
3410.2825801630979186
 20
56.3331505911575903
 30
0.0
 40
3.8299484652371572
 50
8.4089528522027681
 51
8.9508098971971588
  0
ARC
  5
8482
  8
0
 10
3410.2825801631502145
 20
56.333150591165257
 30
0.0
 40
3.8299484651845721
 50
6.9693121002588594
 51
8.4089528522027681
  0
ARC
  5
8483
  8
0
 10
3410.2825801631129252
 20
56.3331505911606101
 30
0.0
 40
3.8299484652229459
 50
6.2061222400666276
 51
6.9693121002590619
  0
ARC
  5
8484
  8
0
 10
3410.2825801631452123
 20
56.3331505911640988
 30
0.0
 40
3.8299484651906148
 50
4.7616718816210319
 51
6.2061222400666276
  0
ARC
  5
8485
  8
0
 10
3410.2825801631252034
 20
56.3331505911624788
 30
0.0
 40
3.8299484652102791
 50
3.651359603026068
 51
4.7616718816210319
  0
ARC
  5
8486
  8
0
 10
3410.2825801631429385
 20
56.3331505911636015
 30
0.0
 40
3.8299484651925151
 50
2.1227428363719438
 51
3.651359603026068
  0
ARC
  5
8487
  8
0
 10
3410.2825801631261129
 20
56.3331505911629833
 30
0.0
 40
3.829948465209462
 50
0.7274014258224427
 51
2.1227428363719438
  0
ARC
  5
8488
  8
0
 10
3410.282580163143848
 20
56.3331505911632178
 30
0.0
 40
3.829948465191106
 50
0.0000000000002036
 51
0.7274014258224427
  0
ARC
  5
8489
  8
0
 10
3410.2835139125140813
 20
56.3329992052436168
 30
0.0
 40
3.813227289615098
 50
350.1505791811194968
 51
350.9343251769844869
  0
ARC
  5
848A
  8
0
 10
3414.0212258547808233
 20
55.6840635773567101
 30
0.0
 40
0.0196
 50
272.4714564819926181
 51
350.1505791811251243
  0
ARC
  5
848B
  8
0
 10
3410.2822416452381731
 20
56.3332022077650976
 30
0.0
 40
3.8145156506059732
 50
350.9343251769844869
 51
351.7265124674021877
  0
ARC
  5
848C
  8
0
 10
3410.2828120851090716
 20
56.3331192591466774
 30
0.0
 40
3.8139392114332318
 50
351.7265124674021877
 51
352.8856497188659773
  0
ARC
  5
848D
  8
0
 10
3410.2823555964268962
 20
56.3331762339271904
 30
0.0
 40
3.814399241913736
 50
352.8856497188659773
 51
354.0858296496566027
  0
ARC
  5
848E
  8
0
 10
3410.2827839708997999
 20
56.3331318586523011
 30
0.0
 40
3.813968575158492
 50
354.0858296496566027
 51
355.4112665568907232
  0
ARC
  5
848F
  8
0
 10
3410.2824227298010555
 20
56.3331608519284188
 30
0.0
 40
3.8143309778929031
 50
355.4112665568907232
 51
357.1307420472767262
  0
ARC
  5
8490
  8
0
 10
3410.2825801631479408
 20
56.333150591162763
 30
0.0
 40
3.8141732282875189
 50
357.1307776076573077
 51
358.4830739161462816
  0
ARC
  5
8491
  8
0
 10
3410.2825801631238392
 20
56.3331505911633599
 30
0.0
 40
3.8141732283107022
 50
358.4830739161470774
 51
359.3501716285563816
  0
ARC
  5
8492
  8
0
 10
3410.2825801631302056
 20
56.3331505911633101
 30
0.0
 40
3.8141732283046972
 50
359.3501716285555858
 51
359.9999999999984084
  0
ARC
  5
8493
  8
0
 10
3410.2825801631361173
 20
56.333150591162962
 30
0.0
 40
3.8299484651993181
 50
350.3672452902982855
 51
351.0491901028025836
  0
ARC
  5
8494
  8
0
 10
3414.0778520660760478
 20
55.6889964413907919
 30
0.0
 40
0.0196
 50
170.3672452903039982
 51
277.4857909064161845
  0
ARC
  5
8495
  8
0
 10
3410.2825801630979186
 20
56.3331505911688524
 30
0.0
 40
3.8299484652371572
 50
351.0491901028025836
 51
351.5910471477972123
  0
ARC
  5
8496
  8
0
 10
3410.2825801631502145
 20
56.3331505911611714
 30
0.0
 40
3.8299484651845721
 50
351.5910471477972123
 51
353.0306878997411104
  0
ARC
  5
8497
  8
0
 10
3410.2825801631129252
 20
56.3331505911658326
 30
0.0
 40
3.8299484652229459
 50
353.0306878997411104
 51
353.7938777599338209
  0
ARC
  5
8498
  8
0
 10
3410.2825801631452123
 20
56.3331505911623367
 30
0.0
 40
3.8299484651906148
 50
353.7938777599338209
 51
355.2383281183787744
  0
ARC
  5
8499
  8
0
 10
3410.2825801631252034
 20
56.3331505911639496
 30
0.0
 40
3.8299484652102791
 50
355.2383281183787744
 51
356.3486403969735079
  0
ARC
  5
849A
  8
0
 10
3410.2825801631429385
 20
56.333150591162827
 30
0.0
 40
3.8299484651925151
 50
356.3486403969743037
 51
357.8772571636284283
  0
ARC
  5
849B
  8
0
 10
3410.2825801631261129
 20
56.3331505911634594
 30
0.0
 40
3.829948465209462
 50
357.8772571636284283
 51
359.2725985741773229
  0
ARC
  5
849C
  8
0
 10
3410.282580163143848
 20
56.3331505911632178
 30
0.0
 40
3.829948465191106
 50
359.2725985741773229
 51
0.0
  0
LINE
  5
849D
  8
0
 10
3414.0422076313570869
 20
56.9758935193476503
 30
0.0
 11
3414.0584614298309134
 21
56.9744476049537809
 31
0.0
  0
LINE
  5
849E
  8
0
 10
3414.0424154975121382
 20
56.9746764671933974
 30
0.0
 11
3414.0586630369198247
 21
56.9732313488787483
 31
0.0
  0
LINE
  5
849F
  8
0
 10
3414.044443582347867
 20
56.9626749831950789
 30
0.0
 11
3414.0606908571480744
 21
56.9611512518866334
 31
0.0
  0
LINE
  5
84A0
  8
0
 10
3414.0543846008122273
 20
56.9000797250632218
 30
0.0
 11
3414.0703363067150349
 21
56.9000797250632075
 31
0.0
  0
LINE
  5
84A1
  8
0
 10
3414.0555597219358788
 20
56.8922057092632087
 30
0.0
 11
3414.0715064782029913
 21
56.8922057092632087
 31
0.0
  0
LINE
  5
84A2
  8
0
 10
3414.0578130285880434
 20
56.8767812105633297
 30
0.0
 11
3414.0737502982060505
 21
56.8767812130346968
 31
0.0
  0
LINE
  5
84A3
  8
0
 10
3414.0606905242661924
 20
56.8564092231782965
 30
0.0
 11
3414.0766156993740879
 21
56.856409223048928
 31
0.0
  0
LINE
  5
84A4
  8
0
 10
3414.0611837360870595
 20
56.8528356305631988
 30
0.0
 11
3414.0771068405902042
 21
56.8528356305632201
 31
0.0
  0
ARC
  5
84A5
  8
0
 10
3414.1202245371141544
 20
56.7299419772614613
 30
0.0
 40
0.0357824414667724
 50
147.9568616541801873
 51
223.8493254440091107
  0
LINE
  5
84A6
  8
0
 10
3414.0873462732470216
 20
56.6008671266632035
 30
0.0
 11
3414.1031603681190063
 21
56.6008671266632177
 31
0.0
  0
LINE
  5
84A7
  8
0
 10
3414.0875960364719504
 20
56.5972935342632084
 30
0.0
 11
3414.1034090982880116
 21
56.5972935342632084
 31
0.0
  0
LINE
  5
84A8
  8
0
 10
3414.0889554735690581
 20
56.5769215428255734
 30
0.0
 11
3414.1047629124900595
 21
56.5769215422980594
 31
0.0
  0
LINE
  5
84A9
  8
0
 10
3414.0899119311648064
 20
56.5614970478632131
 30
0.0
 11
3414.1057154133977747
 21
56.5614970478632131
 31
0.0
  0
LINE
  5
84AA
  8
0
 10
3414.0903760103878994
 20
56.553623032163209
 30
0.0
 11
3414.1061775724929248
 21
56.553623032163209
 31
0.0
  0
ARC
  5
84AB
  8
0
 10
3414.4591263126089871
 20
56.3104591158004482
 30
0.0
 40
0.3642199668410014
 50
162.6073814844718015
 51
174.2659103681104114
  0
ARC
  5
84AC
  8
0
 10
3414.4843761806200746
 20
56.3572451500673992
 30
0.0
 40
0.3890676039612267
 50
184.9199830237207038
 51
196.6072530388470909
  0
LINE
  5
84AD
  8
0
 10
3414.0903760103929017
 20
56.1126781502632213
 30
0.0
 11
3414.1061775724988365
 21
56.1126781502632213
 31
0.0
  0
LINE
  5
84AE
  8
0
 10
3414.0899119311648064
 20
56.1048041344632082
 30
0.0
 11
3414.1057154133977747
 21
56.1048041344632367
 31
0.0
  0
LINE
  5
84AF
  8
0
 10
3414.0889554735749698
 20
56.089379639599187
 30
0.0
 11
3414.1047629124968807
 21
56.0893796401286124
 31
0.0
  0
LINE
  5
84B0
  8
0
 10
3414.0875960364778621
 20
56.0690076481632005
 30
0.0
 11
3414.1034090982939233
 21
56.0690076481632218
 31
0.0
  0
LINE
  5
84B1
  8
0
 10
3414.0873462732538428
 20
56.0654340557632125
 30
0.0
 11
3414.103160368124918
 21
56.0654340557632125
 31
0.0
  0
ARC
  5
84B2
  8
0
 10
3414.1202252868979485
 20
55.936366813079573
 30
0.0
 40
0.0357786184760494
 50
136.1584528323232917
 51
212.0355871312758893
  0
LINE
  5
84B3
  8
0
 10
3414.0611837361011567
 20
55.8134655518632314
 30
0.0
 11
3414.0771068406029372
 21
55.813465551863203
 31
0.0
  0
LINE
  5
84B4
  8
0
 10
3414.0606905242798348
 20
55.8098919592481195
 30
0.0
 11
3414.076615699388185
 21
55.8098919593775022
 31
0.0
  0
LINE
  5
84B5
  8
0
 10
3414.0578130285848601
 20
55.7895199717394803
 30
0.0
 11
3414.0737502982228762
 21
55.7895199694069674
 31
0.0
  0
LINE
  5
84B6
  8
0
 10
3414.0555597219358788
 20
55.7740954730632126
 30
0.0
 11
3414.0715064782029913
 21
55.7740954730632126
 31
0.0
  0
LINE
  5
84B7
  8
0
 10
3414.0543846008258697
 20
55.7662214573632014
 30
0.0
 11
3414.0703363067300415
 21
55.7662214573632227
 31
0.0
  0
LINE
  5
84B8
  8
0
 10
3414.0444440294409105
 20
55.7036288708191023
 30
0.0
 11
3414.0606905506560906
 21
55.7051480865554822
 31
0.0
  0
LINE
  5
84B9
  8
0
 10
3414.0424150430671943
 20
55.6916220517763705
 30
0.0
 11
3414.05866135132419
 21
55.6930598895429725
 31
0.0
  0
LINE
  5
84BA
  8
0
 10
3414.0422050173260686
 20
55.6903923729855705
 30
0.0
 11
3414.0584578603939008
 21
55.6918292467018077
 31
0.0
  0
LINE
  5
84BB
  8
0
 10
3414.0400443775679378
 20
55.678584234319132
 30
0.0
 11
3414.0602696250571171
 21
55.6803351615887081
 31
0.0
  0
LINE
  5
84BC
  8
0
 10
3414.0400423231481
 20
56.9877239988832116
 30
0.0
 11
3414.0602736059931885
 21
56.9859740973754398
 31
0.0
  0
ARC
  5
84BD
  8
0
 10
3413.9367647313351881
 20
56.9783239291631887
 30
0.0
 40
0.0343579364000081
 50
42.8970351251889781
 51
147.1029630796882941
  0
ARC
  5
84BE
  8
0
 10
3413.5856384905300729
 20
56.8364596447558412
 30
0.0
 40
0.0343580184436841
 50
76.8971080353381637
 51
181.1028848615681
  0
ARC
  5
84BF
  8
0
 10
3413.3738709804779319
 20
56.5225015574457927
 30
0.0
 40
0.0343579362548152
 50
110.8970550247883011
 51
215.1029444516645981
  0
ARC
  5
84C0
  8
0
 10
3413.609351816734943
 20
56.3331505911632178
 30
0.0
 40
0.2969642899000186
 50
158.7033824694167947
 51
201.2966175305818979
  0
ARC
  5
84C1
  8
0
 10
3413.3738709806348197
 20
56.1437996249632079
 30
0.0
 40
0.034357936399996
 50
144.8970557211983134
 51
249.1029447965204895
  0
ARC
  5
84C2
  8
0
 10
3413.5856384138351132
 20
55.8298414940632313
 30
0.0
 40
0.0343579364000083
 50
178.8970488808243999
 51
283.1029525208360837
  0
ARC
  5
84C3
  8
0
 10
3413.9367647313351881
 20
55.6879772532632131
 30
0.0
 40
0.0343579363999951
 50
212.8970371368882866
 51
317.1029646566730094
  0
ARC
  5
84C4
  8
0
 10
3414.1611877205350538
 20
55.7062495184632382
 30
0.0
 40
0.0333271255000117
 50
231.313915015490295
 51
338.6860867131280202
  0
ARC
  5
84C5
  8
0
 10
3414.4521335209351491
 20
55.8742271546632026
 30
0.0
 40
0.0333271254999958
 50
261.3139048102966058
 51
8.6860964631528041
  0
ARC
  5
84C6
  8
0
 10
3414.6201111571349429
 20
56.1651729550632126
 30
0.0
 40
0.0333271254999951
 50
291.3138985334124982
 51
38.6861019436609013
  0
ARC
  5
84C7
  8
0
 10
3414.3770683521352112
 20
56.3331505911632178
 30
0.0
 40
0.2969642899000089
 50
338.7033638211835864
 51
21.2966361788177103
  0
ARC
  5
84C8
  8
0
 10
3414.6201111571349429
 20
56.5011282273632105
 30
0.0
 40
0.0333271254999952
 50
321.3138980079809244
 51
68.6861015320052815
  0
ARC
  5
84C9
  8
0
 10
3414.4521335209351491
 20
56.7920740277632206
 30
0.0
 40
0.0333271255000001
 50
351.3139033876332746
 51
98.6860953514058536
  0
ARC
  5
84CA
  8
0
 10
3414.1611877205350538
 20
56.9600516638632115
 30
0.0
 40
0.0333271255000014
 50
21.3139132868672583
 51
128.6860849845128882
  0
CIRCLE
  5
84CB
  8
0
 10
3413.9932100742357761
 20
56.3331505911632178
 30
0.0
 40
0.6841136445696349
  0
ENDSEC
  0
EOF
