  0
SECTION
  2
HEADER
  9
$ACADVER
  1
AC1009
  9
$INSBASE
 10
4373.886663309944197
 20
228.9168137812663133
 30
0.0
  9
$EXTMIN
 10
4366.3407274544479151
 20
228.909024678690912
 30
-0.0000000349181948
  9
$EXTMAX
 10
4381.7179864708432433
 20
257.9812735153092831
 30
0.0000000814935746
  9
$LIMMIN
 10
0.0
 20
0.0
  9
$LIMMAX
 10
11.6929133858000007
 20
8.2677165353999982
  9
$ORTHOMODE
 70
     0
  9
$REGENMODE
 70
     1
  9
$FILLMODE
 70
     1
  9
$QTEXTMODE
 70
     0
  9
$MIRRTEXT
 70
     0
  9
$DRAGMODE
 70
     2
  9
$LTSCALE
 40
0.6431102362
  9
$OSMODE
 70
  4095
  9
$ATTMODE
 70
     1
  9
$TEXTSIZE
 40
0.2
  9
$TRACEWID
 40
0.05
  9
$TEXTSTYLE
  7
STANDARD
  9
$CLAYER
  8
0
  9
$CELTYPE
  6
BYLAYER
  9
$CECOLOR
 62
   256
  9
$DIMSCALE
 40
1.0
  9
$DIMASZ
 40
0.1875
  9
$DIMEXO
 40
0.0625
  9
$DIMDLI
 40
0.4443307087
  9
$DIMRND
 40
0.0
  9
$DIMDLE
 40
0.0
  9
$DIMEXE
 40
0.125
  9
$DIMTP
 40
0.01
  9
$DIMTM
 40
0.01
  9
$DIMTXT
 40
2.0
  9
$DIMCEN
 40
0.1052362205
  9
$DIMTSZ
 40
0.0
  9
$DIMTOL
 70
     1
  9
$DIMLIM
 70
     0
  9
$DIMTIH
 70
     1
  9
$DIMTOH
 70
     1
  9
$DIMSE1
 70
     0
  9
$DIMSE2
 70
     0
  9
$DIMTAD
 70
     0
  9
$DIMZIN
 70
     0
  9
$DIMBLK
  1

  9
$DIMASO
 70
     1
  9
$DIMSHO
 70
     1
  9
$DIMPOST
  1
\X
  9
$DIMAPOST
  1

  9
$DIMALT
 70
     1
  9
$DIMALTD
 70
     2
  9
$DIMALTF
 40
25.3999999999999986
  9
$DIMLFAC
 40
1.0
  9
$DIMTOFL
 70
     0
  9
$DIMTVP
 40
0.0
  9
$DIMTIX
 70
     0
  9
$DIMSOXD
 70
     0
  9
$DIMSAH
 70
     0
  9
$DIMBLK1
  1

  9
$DIMBLK2
  1

  9
$DIMSTYLE
  2
STANDARD
  9
$DIMCLRD
 70
     0
  9
$DIMCLRE
 70
     0
  9
$DIMCLRT
 70
     0
  9
$DIMTFAC
 40
1.0
  9
$DIMGAP
 40
0.09
  9
$LUNITS
 70
     2
  9
$LUPREC
 70
     4
  9
$SKETCHINC
 40
0.1
  9
$FILLETRAD
 40
0.0
  9
$AUNITS
 70
     0
  9
$AUPREC
 70
     0
  9
$MENU
  1
.
  9
$ELEVATION
 40
0.0
  9
$PELEVATION
 40
0.0
  9
$THICKNESS
 40
0.0
  9
$LIMCHECK
 70
     0
  9
$BLIPMODE
 70
     0
  9
$CHAMFERA
 40
0.0
  9
$CHAMFERB
 40
0.0
  9
$SKPOLY
 70
     0
  9
$TDCREATE
 40
2458060.468368056230247
  9
$TDUPDATE
 40
2460019.6937847221270204
  9
$TDINDWG
 40
0.616534838
  9
$TDUSRTIMER
 40
0.616534838
  9
$USRTIMER
 70
     1
  9
$ANGBASE
 50
0.0
  9
$ANGDIR
 70
     0
  9
$PDMODE
 70
     0
  9
$PDSIZE
 40
0.3125
  9
$PLINEWID
 40
0.0
  9
$COORDS
 70
     1
  9
$SPLFRAME
 70
     0
  9
$SPLINETYPE
 70
     6
  9
$SPLINESEGS
 70
     8
  9
$ATTDIA
 70
     1
  9
$ATTREQ
 70
     1
  9
$HANDLING
 70
     1
  9
$HANDSEED
  5
A836
  9
$SURFTAB1
 70
     6
  9
$SURFTAB2
 70
     6
  9
$SURFTYPE
 70
     6
  9
$SURFU
 70
     6
  9
$SURFV
 70
     6
  9
$UCSNAME
  2

  9
$UCSORG
 10
0.0
 20
0.0
 30
0.0
  9
$UCSXDIR
 10
1.0
 20
0.0
 30
0.0
  9
$UCSYDIR
 10
0.0
 20
1.0
 30
0.0
  9
$PUCSNAME
  2

  9
$PUCSORG
 10
0.0
 20
0.0
 30
0.0
  9
$PUCSXDIR
 10
1.0
 20
0.0
 30
0.0
  9
$PUCSYDIR
 10
0.0
 20
1.0
 30
0.0
  9
$USERI1
 70
     0
  9
$USERI2
 70
     0
  9
$USERI3
 70
     0
  9
$USERI4
 70
     0
  9
$USERI5
 70
     0
  9
$USERR1
 40
0.0
  9
$USERR2
 40
0.0
  9
$USERR3
 40
0.0
  9
$USERR4
 40
0.0
  9
$USERR5
 40
0.0
  9
$WORLDVIEW
 70
     1
  9
$SHADEDGE
 70
     3
  9
$SHADEDIF
 70
    70
  9
$TILEMODE
 70
     1
  9
$MAXACTVP
 70
    64
  9
$PLIMCHECK
 70
     0
  9
$PEXTMIN
 10
1.0000000000000000E+20
 20
1.0000000000000000E+20
 30
1.0000000000000000E+20
  9
$PEXTMAX
 10
-1.0000000000000000E+20
 20
-1.0000000000000000E+20
 30
-1.0000000000000000E+20
  9
$PLIMMIN
 10
0.0
 20
0.0
  9
$PLIMMAX
 10
12.0
 20
9.0
  9
$UNITMODE
 70
     0
  9
$VISRETAIN
 70
     1
  9
$PLINEGEN
 70
     0
  9
$PSLTSCALE
 70
     1
  0
ENDSEC
  0
SECTION
  2
TABLES
  0
TABLE
  2
VPORT
 70
     1
  0
VPORT
  2
*ACTIVE
 70
     0
 10
0.0
 20
0.0
 11
1.0
 21
1.0
 12
89.9605093063955792
 22
18.1967894168243411
 13
0.0
 23
0.0
 14
1.0
 24
1.0
 15
0.0
 25
0.0
 16
0.0
 26
0.0
 36
27.5337298366232197
 17
4284.0688476562490905
 27
225.2483596801758097
 37
0.0
 40
29.3195634462891306
 41
2.5251322751322749
 42
50.0
 43
0.0
 44
0.0
 50
0.0
 51
0.0
 71
     0
 72
   100
 73
     1
 74
     1
 75
     0
 76
     0
 77
     0
 78
     0
  0
ENDTAB
  0
TABLE
  2
LTYPE
 70
     2
  0
LTYPE
  2
CONTINUOUS
 70
     0
  3
Solid line
 72
    65
 73
     0
 40
0.0
  0
LTYPE
  2
PHANTOM2
 70
     0
  3
___ _ _ ___ _ _ ___ _ _ ___ _ _
 72
    65
 73
     6
 40
1.25
 49
0.625
 49
-0.125
 49
0.125
 49
-0.125
 49
0.125
 49
-0.125
  0
ENDTAB
  0
TABLE
  2
LAYER
 70
     2
  0
LAYER
  2
0
 70
     0
 62
   255
  6
CONTINUOUS
  0
LAYER
  2
DEFPOINTS
 70
     0
 62
     7
  6
CONTINUOUS
  0
ENDTAB
  0
TABLE
  2
STYLE
 70
     1
  0
STYLE
  2
STANDARD
 70
     0
 40
0.0
 41
0.8
 50
0.0
 71
     0
 42
0.2
  3
txt
  4

  0
ENDTAB
  0
TABLE
  2
VIEW
 70
     0
  0
ENDTAB
  0
TABLE
  2
UCS
 70
     0
  0
ENDTAB
  0
TABLE
  2
APPID
 70
     9
  0
APPID
  2
ACAD
 70
     0
  0
APPID
  2
ACAD_MLEADERVER
 70
     0
  0
APPID
  2
ACAD_EXEMPT_FROM_CAD_STANDARDS
 70
     0
  0
APPID
  2
ACAD_NAV_VCDISPLAY
 70
     0
  0
APPID
  2
ACAECLAYERSTANDARD
 70
     0
  0
APPID
  2
ACCMTRANSPARENCY
 70
     0
  0
APPID
  2
ACAD_DSTYLE_DIMJAG
 70
     0
  0
APPID
  2
ACAD_DSTYLE_DIMTALN
 70
     0
  0
APPID
  2
ACDBATTR
 70
     0
  0
ENDTAB
  0
TABLE
  2
DIMSTYLE
 70
     1
  0
DIMSTYLE
  2
STANDARD
 70
     0
  3

  4

  5

  6

  7

 40
1.0
 41
0.1875
 42
0.0625
 43
0.38
 44
0.125
 45
0.0
 46
0.0
 47
0.01
 48
0.01
140
0.15625
141
0.09
142
0.0
143
25.3999999999999986
144
1.0
145
0.0
146
1.0
147
0.09
 71
     1
 72
     0
 73
     1
 74
     1
 75
     0
 76
     0
 77
     0
 78
     4
170
     0
171
     2
172
     0
173
     0
174
     0
175
     0
176
     0
177
     0
178
     0
  0
ENDTAB
  0
ENDSEC
  0
SECTION
  2
BLOCKS
  0
BLOCK
  8
0
  2
$MODEL_SPACE
 70
     0
 10
0.0
 20
0.0
 30
0.0
  3
$MODEL_SPACE
  1

  0
ENDBLK
  5
21
  8
0
  0
BLOCK
 67
     1
  8
0
  2
$PAPER_SPACE
 70
     0
 10
0.0
 20
0.0
 30
0.0
  3
$PAPER_SPACE
  1

  0
ENDBLK
  5
1D
 67
     1
  8
0
  0
BLOCK
  8
0
  2
_FILLED
 70
     0
 10
0.0
 20
0.0
 30
0.0
  3
_FILLED
  1

  0
SOLID
  5
A158
  8
0
  6
BYBLOCK
 62
     0
 10
0.0
 20
0.0
 30
0.0
 11
-1.0
 21
0.1666666667
 31
0.0
 12
-1.0
 22
-0.1666666667
 32
0.0
 13
-1.0
 23
-0.1666666667
 33
0.0
  0
ENDBLK
  5
A159
  8
0
  6
BYBLOCK
 62
     0
  0
ENDSEC
  0
SECTION
  2
ENTITIES
  0
ATTDEF
  5
3930
  8
DEFPOINTS
 10
4373.8843282427787926
 20
228.9241533222470082
 30
0.0
 40
0.001
  1
K-21017K-HC
  3

  2
MODELNUMBER
 70
     0
1001
ACDBATTR
1070
     0
1070
     1
  0
ATTDEF
  5
3931
  8
DEFPOINTS
 10
4373.8843282427787926
 20
228.9224866555802862
 30
0.0
 40
0.001
  1
REACH
  3

  2
TRADENAME
 70
     0
1001
ACDBATTR
1070
     0
1070
     1
  0
ATTDEF
  5
3932
  8
DEFPOINTS
 10
4373.8843282427787926
 20
228.9208199889137063
 30
0.0
 40
0.001
  1
TOILET
  3

  2
PRODUCT
 70
     0
1001
ACDBATTR
1070
     0
1070
     1
  0
LINE
  5
A614
  8
0
 10
4378.2891846678912771
 20
228.9168137812663133
 30
0.0
 11
4369.4841419519971168
 21
228.9168137812663133
 31
0.0
  0
LINE
  5
A615
  8
0
 10
4373.886663309944197
 20
244.2711137812663083
 30
0.0
 11
4366.7043175023518415
 21
244.2711137812663083
 31
0.0
  0
LINE
  5
A616
  8
0
 10
4381.0937203697776567
 20
257.8931610253662825
 30
0.0
 11
4366.6796062501098277
 21
257.8931610253662825
 31
0.0
  0
LINE
  5
A617
  8
0
 10
4374.7921608806937002
 20
257.9797751985664149
 30
0.0
 11
4372.9811657391946937
 21
257.9797751985661876
 31
0.0
  0
ARC
  5
A618
  8
0
 10
4334.8968799655176554
 20
233.8412902839041863
 30
0.0
 40
34.8015212294238481
 50
352.0886818492106727
 51
354.1829706796733035
  0
ARC
  5
A619
  8
0
 10
4355.7580368631670353
 20
231.9123770840475061
 30
0.0
 40
13.8487970457028293
 50
355.3644446098218168
 51
1.844987514234979
  0
ARC
  5
A61A
  8
0
 10
4360.4194513890442977
 20
232.0625316935391993
 30
0.0
 40
9.1849647385960047
 50
1.844987514234979
 51
13.5449770271361007
  0
ARC
  5
A61B
  8
0
 10
4343.8380885474407478
 20
228.0679295249061056
 30
0.0
 40
26.2407098167378585
 50
13.5449770271361007
 51
18.7195348286014287
  0
ARC
  5
A61C
  8
0
 10
4350.3600953896448118
 20
230.277985756560895
 30
0.0
 40
19.354424766230629
 50
18.7195348286014287
 51
23.639070437687991
  0
ARC
  5
A61D
  8
0
 10
4380.5580947673297487
 20
243.4956973349790985
 30
0.0
 40
13.6096020779665601
 50
191.7967514327702929
 51
203.639070437687991
  0
ARC
  5
A61E
  8
0
 10
4390.2570531064484385
 20
246.2386339489899001
 30
0.0
 40
23.6748902702549096
 50
185.3954903586449063
 51
193.4962612286620072
  0
ARC
  5
A61F
  8
0
 10
4366.9224101470390451
 20
244.034713781266305
 30
0.0
 40
0.2364
 50
90.0
 51
185.3954903586449063
  0
LINE
  5
A620
  8
0
 10
4366.7377795206211886
 20
244.5073342536663006
 30
0.0
 11
4373.886663309944197
 21
244.5073342536663006
 31
0.0
  0
LINE
  5
A621
  8
0
 10
4366.8226722624531249
 20
245.7342948131314984
 30
0.0
 11
4366.6890944908473102
 21
244.5618811334929035
 31
0.0
  0
ARC
  5
A622
  8
0
 10
4342.4364569846147788
 20
567.169756789226426
 30
0.0
 40
322.1588026303342076
 50
274.3816195564488112
 51
274.5830886944119129
  0
ARC
  5
A623
  8
0
 10
4373.1465994450700236
 20
184.0641101911911051
 30
0.0
 40
62.1757512484970079
 50
91.8420359410623917
 51
94.5830886944119129
  0
ARC
  5
A624
  8
0
 10
4374.8014963267924031
 20
132.6069510587639968
 30
0.0
 40
113.6595148023501025
 50
90.4611724490849838
 51
91.8420359410623917
  0
ARC
  5
A625
  8
0
 10
4367.0679851981958564
 20
245.7063453309035879
 30
0.0
 40
0.2469
 50
94.3816195563967568
 51
173.5000913814554053
  0
ARC
  5
A626
  8
0
 10
4366.7377795206211886
 20
244.5563342536663072
 30
0.0
 40
0.049
 50
173.5000913814490104
 51
270.0
  0
LINE
  5
A627
  8
0
 10
4366.7039404617062246
 20
244.125024116174103
 30
0.0
 11
4366.7049597183940932
 21
244.5199493586995061
 31
0.0
  0
LINE
  5
A628
  8
0
 10
4366.3561573788938404
 20
256.8695389778662843
 30
0.0
 11
4381.4171692409945535
 21
256.8695389778662843
 31
0.0
  0
LINE
  5
A629
  8
0
 10
4366.4451675068594341
 20
257.6857519208545
 30
0.0
 11
4366.3612016969591423
 21
257.0020344256104181
 31
0.0
  0
ARC
  5
A62A
  8
0
 10
4366.6796062501098277
 20
257.6569610253662859
 30
0.0
 40
0.2362
 50
90.0
 51
172.9986908786648883
  0
ARC
  5
A62B
  8
0
 10
4366.4784210685847938
 20
256.9876389778663111
 30
0.0
 40
0.1181
 50
172.998690878661705
 51
270.0
  0
LINE
  5
A62C
  8
0
 10
4366.3561573788938404
 20
256.8695389778662843
 30
0.0
 11
4366.6777041419936722
 21
244.8978639773663133
 31
0.0
  0
ARC
  5
A62D
  8
0
 10
4366.795802167626789
 20
244.9010359677409951
 30
0.0
 40
0.1181406161374702
 50
181.5385352635348966
 51
228.5793260917401994
  0
LINE
  5
A62E
  8
0
 10
4372.9417657391941248
 20
257.9403751985663007
 30
0.0
 11
4372.9417657391941248
 21
257.8931610253662825
 31
0.0
  0
ARC
  5
A62F
  8
0
 10
4372.9811657391946937
 20
257.9403751985663007
 30
0.0
 40
0.0394
 50
90.0
 51
180.0
  0
ARC
  5
A630
  8
0
 10
4369.4841419550230057
 20
229.0349137879142916
 30
0.0
 40
0.1181000066480113
 50
172.0727237097065938
 51
269.9999985316907214
  0
LINE
  5
A631
  8
0
 10
4369.5554202738348977
 20
230.7931523639662998
 30
0.0
 11
4369.6079506306477924
 21
230.7931523639662998
 31
0.0
  0
LINE
  5
A632
  8
0
 10
4369.555420289392714
 20
230.1900814977663003
 30
0.0
 11
4369.5647905316491233
 21
230.1900814977663003
 31
0.0
  0
ARC
  5
A633
  8
0
 10
4370.6233370434392782
 20
230.4916169595385043
 30
0.0
 40
1.118322856239889
 50
164.8205450904112013
 51
195.1794579862151124
  0
ARC
  5
A634
  8
0
 10
4369.555420289392714
 20
230.2018814977662942
 30
0.0
 40
0.0118
 50
195.1794579862151124
 51
270.0
  0
ARC
  5
A635
  8
0
 10
4369.5554202738348977
 20
230.781352363966306
 30
0.0
 40
0.0118
 50
90.0
 51
164.820545090434706
  0
ARC
  5
A636
  8
0
 10
4353.4497856039261023
 20
231.6464672878499016
 30
0.0
 40
16.1806811781856794
 50
354.8359503149329157
 51
356.9770101765276991
  0
LINE
  5
A637
  8
0
 10
4367.002383489910244
 20
244.4679641749663119
 30
0.0
 11
4373.886663309944197
 21
244.4679641749663119
 31
0.0
  0
ARC
  5
A638
  8
0
 10
4367.0083995031536688
 20
244.5075185205338073
 30
0.0
 40
0.0400092322923024
 50
180.2638828722652988
 51
261.3518843150559974
  0
ARC
  5
A639
  8
0
 10
4367.4012172641932921
 20
243.9992753368196077
 30
0.0
 40
0.4964490343180229
 50
109.2511356775465003
 51
146.7998524449185993
  0
LINE
  5
A63A
  8
0
 10
4366.7032241141741906
 20
243.8474900571904982
 30
0.0
 11
4366.7030989573941042
 21
243.7990035514663134
 31
0.0
  0
LINE
  5
A63B
  8
0
 10
4366.7030989573941042
 20
243.7990035514663134
 30
0.0
 11
4366.7081968108213914
 21
243.7990035514663134
 31
0.0
  0
LINE
  5
A63C
  8
0
 10
4367.7097800242936501
 20
244.4679641749663119
 30
0.0
 11
4367.7097800242936501
 21
244.455290081866309
 31
0.0
  0
ARC
  5
A63D
  8
0
 10
4367.7299226202667342
 20
244.455290081866309
 30
0.0
 40
0.0201425959736925
 50
180.0
 51
218.8676900280399025
  0
ARC
  5
A63E
  8
0
 10
4367.9072352149432845
 20
244.5981982937092027
 30
0.0
 40
0.2478760218089437
 50
218.8676900280399025
 51
227.0686228473329891
  0
ARC
  5
A63F
  8
0
 10
4367.9311806577470634
 20
244.6239383764736033
 30
0.0
 40
0.2830319045567407
 50
227.0686228473329891
 51
237.2968826360398111
  0
ARC
  5
A640
  8
0
 10
4367.9148390966929583
 20
244.5984868252650983
 30
0.0
 40
0.2527857795718737
 50
237.2968826360398111
 51
247.6123878755446128
  0
ARC
  5
A641
  8
0
 10
4367.9219818873325494
 20
244.6158271747690947
 30
0.0
 40
0.2715396372828833
 50
247.6123878755446128
 51
256.8295474334836968
  0
ARC
  5
A642
  8
0
 10
4367.9724912540714286
 20
244.8316755920180015
 30
0.0
 40
0.4932189898557687
 50
256.8295474334836968
 51
263.0554447417852089
  0
ARC
  5
A643
  8
0
 10
4368.1237600796712286
 20
246.073595552560505
 30
0.0
 40
1.7443174855757071
 50
263.0554447417852089
 51
268.1289650740698107
  0
ARC
  5
A644
  8
0
 10
4368.0986932629657531
 20
245.3062596683436141
 30
0.0
 40
0.976572277510801
 50
268.1289650740698107
 51
278.8348207340368958
  0
ARC
  5
A645
  8
0
 10
4368.1715635566988567
 20
244.837430992711802
 30
0.0
 40
0.5021142637696574
 50
278.8348207340368958
 51
295.0251892842833854
  0
ARC
  5
A646
  8
0
 10
4368.2459676533708262
 20
244.6116044624234007
 30
0.0
 40
0.2674947283881095
 50
301.0571498968548099
 51
320.6915082814924176
  0
ARC
  5
A647
  8
0
 10
4368.4370058136519219
 20
244.4555272976720062
 30
0.0
 40
0.0208070588464214
 50
319.9818908036006064
 51
359.3467855044181078
  0
LINE
  5
A648
  8
0
 10
4368.4578115202930348
 20
244.4679641749663119
 30
0.0
 11
4368.4578115202930348
 21
244.455290086866313
 31
0.0
  0
LINE
  5
A649
  8
0
 10
4368.4578115202930348
 20
244.4643709435663084
 30
0.0
 11
4368.5428522242973486
 21
244.4643709435663084
 31
0.0
  0
ARC
  5
A64A
  8
0
 10
4368.618072796693923
 20
244.4876492143662858
 30
0.0
 40
0.0787401575000035
 50
194.4824472142051945
 51
220.0263467178880035
  0
ARC
  5
A64B
  8
0
 10
4368.619969781349937
 20
244.489994997990209
 30
0.0
 40
0.0817034701866249
 50
220.4304572409236869
 51
262.9511219189707276
  0
LINE
  5
A64C
  8
0
 10
4368.5900255617943913
 20
244.4089090568662925
 30
0.0
 11
4369.7150871343947074
 21
244.4089090568662925
 31
0.0
  0
LINE
  5
A64D
  8
0
 10
4369.7150871343947074
 20
244.4089090568662925
 30
0.0
 11
4369.7150846913436908
 21
244.3960360898662998
 31
0.0
  0
ARC
  5
A64E
  8
0
 10
4369.6958535546946223
 20
244.3960397395788107
 30
0.0
 40
0.0192311369949669
 50
320.9036850206866234
 51
359.9891263255432818
  0
ARC
  5
A64F
  8
0
 10
4369.5025874853681671
 20
244.5530821753150974
 30
0.0
 40
0.2682574411785238
 50
304.8009869649586108
 51
320.9036850206866234
  0
ARC
  5
A650
  8
0
 10
4369.4993924044993037
 20
244.5576791252439932
 30
0.0
 40
0.273855698979742
 50
282.0313707599680129
 51
304.8009869649586108
  0
ARC
  5
A651
  8
0
 10
4369.3607075618201634
 20
245.2083879220031122
 30
0.0
 40
0.9391792471640055
 50
273.6500301182799149
 51
282.0313707599680129
  0
LINE
  5
A652
  8
0
 10
4368.5900255644937715
 20
244.4089090568662925
 30
0.0
 11
4368.5900291734942584
 21
244.3958920806663002
 31
0.0
  0
ARC
  5
A653
  8
0
 10
4368.6089083914921503
 20
244.3958973149923963
 30
0.0
 40
0.0188792187237453
 50
180.0158854452633079
 51
220.5899710614471871
  0
ARC
  5
A654
  8
0
 10
4368.8505006157811295
 20
244.602893552341186
 30
0.0
 40
0.3370210819137099
 50
220.5899710614471871
 51
231.1525470420878037
  0
ARC
  5
A655
  8
0
 10
4368.7929578961720836
 20
244.531446097601787
 30
0.0
 40
0.2452828490503963
 50
231.1525470420878037
 51
257.1249785460175872
  0
ARC
  5
A656
  8
0
 10
4368.9493131616491155
 20
245.2154992906320956
 30
0.0
 40
0.946977754217457
 50
257.1249785460175872
 51
265.7596190850745188
  0
ARC
  5
A657
  8
0
 10
4369.6870397832935851
 20
244.4876492143662858
 30
0.0
 40
0.0787401574999956
 50
316.0033518061712812
 51
345.5175527857962834
  0
ARC
  5
A658
  8
0
 10
4369.6870397832935851
 20
244.4876492143662858
 30
0.0
 40
0.0787401575000103
 50
290.0759816712882753
 51
316.0033518061712812
  0
ARC
  5
A659
  8
0
 10
4369.6862528374040266
 20
244.4898024415172983
 30
0.0
 40
0.0810326825262377
 50
273.360021077465376
 51
290.0759816712882753
  0
ARC
  5
A65A
  8
0
 10
4369.6419317682939436
 20
244.0010400380662929
 30
0.0
 40
0.8303950066000056
 50
18.9835273802928306
 51
34.2193596403031322
  0
ARC
  5
A65B
  8
0
 10
4372.7262674016483288
 20
219.8754603581288904
 30
0.0
 40
24.4719534156793692
 50
89.6464328124391727
 51
94.5255567291863343
  0
ARC
  5
A65C
  8
0
 10
4373.7457823621070929
 20
217.5872705279543027
 30
0.0
 40
26.7737674656659905
 50
89.6985138164212259
 51
91.8589169694513856
  0
ARC
  5
A65D
  8
0
 10
4367.6623118296383836
 20
255.2520510954730923
 30
0.0
 40
9.5544605044209945
 50
264.9585598324659941
 51
267.957882858322705
  0
ARC
  5
A65E
  8
0
 10
4360.0966997963587346
 20
43.0731992778717867
 30
0.0
 40
202.7592311032416035
 50
87.4478175050663395
 51
87.957882858322705
  0
ARC
  5
A65F
  8
0
 10
4370.9139199535584339
 20
285.7561154576499121
 30
0.0
 40
40.1646459806105085
 50
267.4478175050663253
 51
270.5320537357540047
  0
ARC
  5
A660
  8
0
 10
4373.5466951239959599
 20
467.3128177483262107
 30
0.0
 40
221.7311324509367125
 50
269.4160508585366074
 51
270.0878485111168175
  0
LINE
  5
A661
  8
0
 10
4373.886663309944197
 20
244.2711137812663083
 30
0.0
 11
4381.0690091175365524
 21
244.2711137812663083
 31
0.0
  0
ARC
  5
A662
  8
0
 10
4412.876446654369829
 20
233.8412902839041863
 30
0.0
 40
34.8015212294238481
 50
185.8170293203266965
 51
187.9113181507892989
  0
ARC
  5
A663
  8
0
 10
4392.0152897567213586
 20
231.9123770840475061
 30
0.0
 40
13.8487970457028293
 50
178.1550124857650133
 51
184.6355553901765916
  0
ARC
  5
A664
  8
0
 10
4387.3538752308440962
 20
232.0625316935391993
 30
0.0
 40
9.1849647385960047
 50
166.455022972863901
 51
178.1550124857650133
  0
ARC
  5
A665
  8
0
 10
4403.9352380724476461
 20
228.0679295249061056
 30
0.0
 40
26.2407098167378585
 50
161.2804651713985038
 51
166.455022972863901
  0
ARC
  5
A666
  8
0
 10
4397.4132312302435821
 20
230.277985756560895
 30
0.0
 40
19.354424766230629
 50
156.360929562312009
 51
161.2804651713985038
  0
ARC
  5
A667
  8
0
 10
4367.2152318525568262
 20
243.4956973349790985
 30
0.0
 40
13.6096020779665601
 50
336.3609295623119806
 51
348.2032485672295934
  0
ARC
  5
A668
  8
0
 10
4357.5162735134390459
 20
246.2386339489899001
 30
0.0
 40
23.6748902702549096
 50
346.5037387713363728
 51
354.6045096413550937
  0
ARC
  5
A669
  8
0
 10
4380.8509164728493488
 20
244.034713781266305
 30
0.0
 40
0.2364
 50
354.6045096413550937
 51
90.0
  0
LINE
  5
A66A
  8
0
 10
4381.0355470992672053
 20
244.5073342536663006
 30
0.0
 11
4373.886663309944197
 21
244.5073342536663006
 31
0.0
  0
LINE
  5
A66B
  8
0
 10
4380.950654357435269
 20
245.7342948131314984
 30
0.0
 11
4381.0842321290419932
 21
244.5618811334929035
 31
0.0
  0
ARC
  5
A66C
  8
0
 10
4405.3368696352727056
 20
567.169756789226426
 30
0.0
 40
322.1588026303342076
 50
265.4169113055880871
 51
265.6183804435511888
  0
ARC
  5
A66D
  8
0
 10
4374.6267271748192798
 20
184.0641101911911051
 30
0.0
 40
62.1757512484970079
 50
85.4169113055880871
 51
88.1579640589376083
  0
ARC
  5
A66E
  8
0
 10
4372.9718302930959908
 20
132.6069510587639968
 30
0.0
 40
113.6595148023501025
 50
88.1579640589376083
 51
89.538827550915002
  0
ARC
  5
A66F
  8
0
 10
4380.7053414216907186
 20
245.7063453309035879
 30
0.0
 40
0.2469
 50
6.4999086185445361
 51
85.618380443603229
  0
ARC
  5
A670
  8
0
 10
4381.0355470992672053
 20
244.5563342536663072
 30
0.0
 40
0.049
 50
270.0
 51
6.4999086185510091
  0
LINE
  5
A671
  8
0
 10
4381.0693861581812598
 20
244.125024116174103
 30
0.0
 11
4381.0683669014943007
 21
244.5199493586995061
 31
0.0
  0
LINE
  5
A672
  8
0
 10
4381.3281591130289598
 20
257.6857519208545
 30
0.0
 11
4381.4121249229292516
 21
257.0020344256104181
 31
0.0
  0
ARC
  5
A673
  8
0
 10
4381.0937203697776567
 20
257.6569610253662859
 30
0.0
 40
0.2362
 50
7.0013091213350949
 51
90.0
  0
ARC
  5
A674
  8
0
 10
4381.2949055513026906
 20
256.9876389778663111
 30
0.0
 40
0.1181
 50
270.0
 51
7.0013091213383278
  0
LINE
  5
A675
  8
0
 10
4381.4171692409945535
 20
256.8695389778662843
 30
0.0
 11
4381.0956224778938122
 21
244.8978639773663133
 31
0.0
  0
ARC
  5
A676
  8
0
 10
4380.9775244522606954
 20
244.9010359677409951
 30
0.0
 40
0.1181406161374702
 50
311.4206739082598006
 51
358.461464736465075
  0
LINE
  5
A677
  8
0
 10
4374.8315608806942691
 20
257.9403751985663007
 30
0.0
 11
4374.8315608806942691
 21
257.8931610253662825
 31
0.0
  0
ARC
  5
A678
  8
0
 10
4374.7921608806937002
 20
257.9403751985663007
 30
0.0
 40
0.0394
 50
0.0
 51
90.0
  0
ARC
  5
A679
  8
0
 10
4378.2891846648635692
 20
229.0349137879142916
 30
0.0
 40
0.1181000066480103
 50
270.0000014683093923
 51
7.9272762902998331
  0
LINE
  5
A67A
  8
0
 10
4378.2179063460544057
 20
230.7931523639662998
 30
0.0
 11
4378.1653759892406015
 21
230.7931523639662998
 31
0.0
  0
LINE
  5
A67B
  8
0
 10
4378.2179063304956799
 20
230.1900814977663003
 30
0.0
 11
4378.2085360882401801
 21
230.1900814977663003
 31
0.0
  0
ARC
  5
A67C
  8
0
 10
4377.1499895764491157
 20
230.4916169595385043
 30
0.0
 40
1.118322856239889
 50
344.8205420137833244
 51
15.17945490958882
  0
ARC
  5
A67D
  8
0
 10
4378.2179063304956799
 20
230.2018814977662942
 30
0.0
 40
0.0118
 50
270.0
 51
344.820542013784916
  0
ARC
  5
A67E
  8
0
 10
4378.2179063460544057
 20
230.781352363966306
 30
0.0
 40
0.0118
 50
15.1794549095652496
 51
90.0
  0
ARC
  5
A67F
  8
0
 10
4394.3235410159632011
 20
231.6464672878499016
 30
0.0
 40
16.1806811781856794
 50
183.0229898234721873
 51
185.164049685066999
  0
LINE
  5
A680
  8
0
 10
4380.77094312997815
 20
244.4679641749663119
 30
0.0
 11
4373.886663309944197
 21
244.4679641749663119
 31
0.0
  0
ARC
  5
A681
  8
0
 10
4380.7649271167347251
 20
244.5075185205338073
 30
0.0
 40
0.0400092322923024
 50
278.6481156849441163
 51
359.7361171277329959
  0
ARC
  5
A682
  8
0
 10
4380.3721093556960113
 20
243.9992753368196077
 30
0.0
 40
0.4964490343180229
 50
33.200147555081351
 51
70.748864322453457
  0
LINE
  5
A683
  8
0
 10
4381.0701025057142033
 20
243.8474900571904982
 30
0.0
 11
4381.0702276624942897
 21
243.7990035514663134
 31
0.0
  0
LINE
  5
A684
  8
0
 10
4381.0702276624942897
 20
243.7990035514663134
 30
0.0
 11
4381.0651298090670025
 21
243.7990035514663134
 31
0.0
  0
LINE
  5
A685
  8
0
 10
4380.0635465955938344
 20
244.4679641749663119
 30
0.0
 11
4380.0635465955938344
 21
244.455290081866309
 31
0.0
  0
ARC
  5
A686
  8
0
 10
4380.0434039996198408
 20
244.455290081866309
 30
0.0
 40
0.0201425959736925
 50
321.1323099719601259
 51
359.9999999999984084
  0
ARC
  5
A687
  8
0
 10
4379.8660914049441999
 20
244.5981982937092027
 30
0.0
 40
0.2478760218089437
 50
312.9313771526669825
 51
321.1323099719601259
  0
ARC
  5
A688
  8
0
 10
4379.8421459621413305
 20
244.6239383764736033
 30
0.0
 40
0.2830319045567407
 50
302.7031173639601889
 51
312.9313771526669825
  0
ARC
  5
A689
  8
0
 10
4379.8584875231954356
 20
244.5984868252650983
 30
0.0
 40
0.2527857795718737
 50
292.3876121244553019
 51
302.7031173639601889
  0
ARC
  5
A68A
  8
0
 10
4379.8513447325558445
 20
244.6158271747690947
 30
0.0
 40
0.2715396372828833
 50
283.1704525665163032
 51
292.3876121244553019
  0
ARC
  5
A68B
  8
0
 10
4379.8008353658178748
 20
244.8316755920180015
 30
0.0
 40
0.4932189898557687
 50
276.9445552582149048
 51
283.1704525665163032
  0
ARC
  5
A68C
  8
0
 10
4379.6495665402162558
 20
246.073595552560505
 30
0.0
 40
1.7443174855757071
 50
271.8710349259300756
 51
276.9445552582149048
  0
ARC
  5
A68D
  8
0
 10
4379.6746333569217313
 20
245.3062596683436141
 30
0.0
 40
0.976572277510801
 50
261.1651792659629905
 51
271.8710349259300756
  0
ARC
  5
A68E
  8
0
 10
4379.6017630631913562
 20
244.837430992711802
 30
0.0
 40
0.5021142637696574
 50
244.9748107157165862
 51
261.1651792659629905
  0
ARC
  5
A68F
  8
0
 10
4379.5273589665157488
 20
244.6116044624234007
 30
0.0
 40
0.2674947283881095
 50
219.3084917185076108
 51
238.9428501031451049
  0
ARC
  5
A690
  8
0
 10
4379.3363208062373815
 20
244.4555272976720062
 30
0.0
 40
0.0208070588464214
 50
180.6532144955818069
 51
220.0181091963993936
  0
LINE
  5
A691
  8
0
 10
4379.3155150995944496
 20
244.4679641749663119
 30
0.0
 11
4379.3155150995944496
 21
244.455290086866313
 31
0.0
  0
LINE
  5
A692
  8
0
 10
4379.3155150995944496
 20
244.4643709435663084
 30
0.0
 11
4379.2304743955901358
 21
244.4643709435663084
 31
0.0
  0
ARC
  5
A693
  8
0
 10
4379.1552538231953804
 20
244.4876492143662858
 30
0.0
 40
0.0787401575000035
 50
319.973653282112025
 51
345.5175527857948055
  0
ARC
  5
A694
  8
0
 10
4379.1533568385375474
 20
244.489994997990209
 30
0.0
 40
0.0817034701866249
 50
277.0488780810293861
 51
319.5695427590762847
  0
LINE
  5
A695
  8
0
 10
4379.1833010580940027
 20
244.4089090568662925
 30
0.0
 11
4378.0582394854936865
 21
244.4089090568662925
 31
0.0
  0
LINE
  5
A696
  8
0
 10
4378.0582394854936865
 20
244.4089090568662925
 30
0.0
 11
4378.0582419285437936
 21
244.3960360898662998
 31
0.0
  0
ARC
  5
A697
  8
0
 10
4378.0774730651919526
 20
244.3960397395788107
 30
0.0
 40
0.0192311369949669
 50
180.0108736744550129
 51
219.096314979313405
  0
ARC
  5
A698
  8
0
 10
4378.2707391345202268
 20
244.5530821753150974
 30
0.0
 40
0.2682574411785238
 50
219.096314979313405
 51
235.199013035041304
  0
ARC
  5
A699
  8
0
 10
4378.2739342153899997
 20
244.5576791252439932
 30
0.0
 40
0.273855698979742
 50
235.199013035041304
 51
257.9686292400319871
  0
ARC
  5
A69A
  8
0
 10
4378.4126190580682305
 20
245.2083879220031122
 30
0.0
 40
0.9391792471640055
 50
257.9686292400319871
 51
266.3499698817200851
  0
LINE
  5
A69B
  8
0
 10
4379.1833010553937129
 20
244.4089090568662925
 30
0.0
 11
4379.1832974463941355
 21
244.3958920806663002
 31
0.0
  0
ARC
  5
A69C
  8
0
 10
4379.1644182283962436
 20
244.3958973149923963
 30
0.0
 40
0.0188792187237453
 50
319.4100289385527844
 51
359.9841145547350152
  0
ARC
  5
A69D
  8
0
 10
4378.922826004106355
 20
244.602893552341186
 30
0.0
 40
0.3370210819137099
 50
308.8474529579121963
 51
319.4100289385527844
  0
ARC
  5
A69E
  8
0
 10
4378.9803687237154008
 20
244.531446097601787
 30
0.0
 40
0.2452828490503963
 50
282.8750214539824128
 51
308.8474529579121963
  0
ARC
  5
A69F
  8
0
 10
4378.8240134582392784
 20
245.2154992906320956
 30
0.0
 40
0.946977754217457
 50
274.2403809149254812
 51
282.8750214539824128
  0
ARC
  5
A6A0
  8
0
 10
4378.0862868365938994
 20
244.4876492143662858
 30
0.0
 40
0.0787401574999956
 50
194.4824472142036029
 51
223.9966481938286904
  0
ARC
  5
A6A1
  8
0
 10
4378.0862868365938994
 20
244.4876492143662858
 30
0.0
 40
0.0787401575000103
 50
223.9966481938286904
 51
249.9240183287116963
  0
ARC
  5
A6A2
  8
0
 10
4378.0870737824825483
 20
244.4898024415172983
 30
0.0
 40
0.0810326825262377
 50
249.9240183287116963
 51
266.639978922534624
  0
ARC
  5
A6A3
  8
0
 10
4378.1313948515944503
 20
244.0010400380662929
 30
0.0
 40
0.8303950066000056
 50
145.7806403596968892
 51
161.0164726197070877
  0
ARC
  5
A6A4
  8
0
 10
4375.0470592182400651
 20
219.8754603581288904
 30
0.0
 40
24.4719534156793692
 50
85.4744432708136941
 51
90.3535671875608131
  0
ARC
  5
A6A5
  8
0
 10
4374.0275442577803915
 20
217.5872705279543027
 30
0.0
 40
26.7737674656659905
 50
88.1410830305486144
 51
90.3014861835787883
  0
ARC
  5
A6A6
  8
0
 10
4380.1110147902500103
 20
255.2520510954730923
 30
0.0
 40
9.5544605044209945
 50
272.0421171416771813
 51
275.0414401675340059
  0
ARC
  5
A6A7
  8
0
 10
4387.6766268235278403
 20
43.0731992778717867
 30
0.0
 40
202.7592311032416035
 50
92.0421171416772808
 51
92.5521824949336747
  0
ARC
  5
A6A8
  8
0
 10
4376.8594066663308695
 20
285.7561154576499121
 30
0.0
 40
40.1646459806105085
 50
269.4679462642459953
 51
272.5521824949336747
  0
ARC
  5
A6A9
  8
0
 10
4374.2266314958933435
 20
467.3128177483262107
 30
0.0
 40
221.7311324509367125
 50
269.9121514888831825
 51
270.5839491414633926
  0
ENDSEC
  0
EOF
