  0
SECTION
  2
HEADER
  9
$ACADVER
  1
AC1009
  9
$INSBASE
 10
4359.7853515195020009
 20
263.7310692942431274
 30
0.0
  9
$EXTMIN
 10
4352.0447412494613673
 20
235.9284185502552873
 30
-0.0000000349181948
  9
$EXTMAX
 10
4367.3728265765339529
 20
263.7377314468827763
 30
0.0000000814935746
  9
$LIMMIN
 10
0.0
 20
0.0
  9
$LIMMAX
 10
11.6929133858000007
 20
8.2677165353999982
  9
$ORTHOMODE
 70
     0
  9
$REGENMODE
 70
     1
  9
$FILLMODE
 70
     1
  9
$QTEXTMODE
 70
     0
  9
$MIRRTEXT
 70
     0
  9
$DRAGMODE
 70
     2
  9
$LTSCALE
 40
0.6431102362
  9
$OSMODE
 70
  4095
  9
$ATTMODE
 70
     1
  9
$TEXTSIZE
 40
0.2
  9
$TRACEWID
 40
0.05
  9
$TEXTSTYLE
  7
STANDARD
  9
$CLAYER
  8
0
  9
$CELTYPE
  6
BYLAYER
  9
$CECOLOR
 62
   256
  9
$DIMSCALE
 40
1.0
  9
$DIMASZ
 40
0.1875
  9
$DIMEXO
 40
0.0625
  9
$DIMDLI
 40
0.4443307087
  9
$DIMRND
 40
0.0
  9
$DIMDLE
 40
0.0
  9
$DIMEXE
 40
0.125
  9
$DIMTP
 40
0.01
  9
$DIMTM
 40
0.01
  9
$DIMTXT
 40
2.0
  9
$DIMCEN
 40
0.1052362205
  9
$DIMTSZ
 40
0.0
  9
$DIMTOL
 70
     1
  9
$DIMLIM
 70
     0
  9
$DIMTIH
 70
     1
  9
$DIMTOH
 70
     1
  9
$DIMSE1
 70
     0
  9
$DIMSE2
 70
     0
  9
$DIMTAD
 70
     0
  9
$DIMZIN
 70
     0
  9
$DIMBLK
  1

  9
$DIMASO
 70
     1
  9
$DIMSHO
 70
     1
  9
$DIMPOST
  1
\X
  9
$DIMAPOST
  1

  9
$DIMALT
 70
     1
  9
$DIMALTD
 70
     2
  9
$DIMALTF
 40
25.3999999999999986
  9
$DIMLFAC
 40
1.0
  9
$DIMTOFL
 70
     0
  9
$DIMTVP
 40
0.0
  9
$DIMTIX
 70
     0
  9
$DIMSOXD
 70
     0
  9
$DIMSAH
 70
     0
  9
$DIMBLK1
  1

  9
$DIMBLK2
  1

  9
$DIMSTYLE
  2
STANDARD
  9
$DIMCLRD
 70
     0
  9
$DIMCLRE
 70
     0
  9
$DIMCLRT
 70
     0
  9
$DIMTFAC
 40
1.0
  9
$DIMGAP
 40
0.09
  9
$LUNITS
 70
     2
  9
$LUPREC
 70
     4
  9
$SKETCHINC
 40
0.1
  9
$FILLETRAD
 40
0.0
  9
$AUNITS
 70
     0
  9
$AUPREC
 70
     0
  9
$MENU
  1
.
  9
$ELEVATION
 40
0.0
  9
$PELEVATION
 40
0.0
  9
$THICKNESS
 40
0.0
  9
$LIMCHECK
 70
     0
  9
$BLIPMODE
 70
     0
  9
$CHAMFERA
 40
0.0
  9
$CHAMFERB
 40
0.0
  9
$SKPOLY
 70
     0
  9
$TDCREATE
 40
2458060.468368056230247
  9
$TDUPDATE
 40
2460019.6936574070714414
  9
$TDINDWG
 40
0.6160024306
  9
$TDUSRTIMER
 40
0.6160024306
  9
$USRTIMER
 70
     1
  9
$ANGBASE
 50
0.0
  9
$ANGDIR
 70
     0
  9
$PDMODE
 70
     0
  9
$PDSIZE
 40
0.3125
  9
$PLINEWID
 40
0.0
  9
$COORDS
 70
     1
  9
$SPLFRAME
 70
     0
  9
$SPLINETYPE
 70
     6
  9
$SPLINESEGS
 70
     8
  9
$ATTDIA
 70
     1
  9
$ATTREQ
 70
     1
  9
$HANDLING
 70
     1
  9
$HANDSEED
  5
AB14
  9
$SURFTAB1
 70
     6
  9
$SURFTAB2
 70
     6
  9
$SURFTYPE
 70
     6
  9
$SURFU
 70
     6
  9
$SURFV
 70
     6
  9
$UCSNAME
  2

  9
$UCSORG
 10
0.0
 20
0.0
 30
0.0
  9
$UCSXDIR
 10
1.0
 20
0.0
 30
0.0
  9
$UCSYDIR
 10
0.0
 20
1.0
 30
0.0
  9
$PUCSNAME
  2

  9
$PUCSORG
 10
0.0
 20
0.0
 30
0.0
  9
$PUCSXDIR
 10
1.0
 20
0.0
 30
0.0
  9
$PUCSYDIR
 10
0.0
 20
1.0
 30
0.0
  9
$USERI1
 70
     0
  9
$USERI2
 70
     0
  9
$USERI3
 70
     0
  9
$USERI4
 70
     0
  9
$USERI5
 70
     0
  9
$USERR1
 40
0.0
  9
$USERR2
 40
0.0
  9
$USERR3
 40
0.0
  9
$USERR4
 40
0.0
  9
$USERR5
 40
0.0
  9
$WORLDVIEW
 70
     1
  9
$SHADEDGE
 70
     3
  9
$SHADEDIF
 70
    70
  9
$TILEMODE
 70
     1
  9
$MAXACTVP
 70
    64
  9
$PLIMCHECK
 70
     0
  9
$PEXTMIN
 10
1.0000000000000000E+20
 20
1.0000000000000000E+20
 30
1.0000000000000000E+20
  9
$PEXTMAX
 10
-1.0000000000000000E+20
 20
-1.0000000000000000E+20
 30
-1.0000000000000000E+20
  9
$PLIMMIN
 10
0.0
 20
0.0
  9
$PLIMMAX
 10
12.0
 20
9.0
  9
$UNITMODE
 70
     0
  9
$VISRETAIN
 70
     1
  9
$PLINEGEN
 70
     0
  9
$PSLTSCALE
 70
     1
  0
ENDSEC
  0
SECTION
  2
TABLES
  0
TABLE
  2
VPORT
 70
     1
  0
VPORT
  2
*ACTIVE
 70
     0
 10
0.0
 20
0.0
 11
1.0
 21
1.0
 12
75.6399362567481148
 22
24.5847153183932505
 13
0.0
 23
0.0
 14
1.0
 24
1.0
 15
0.0
 25
0.0
 16
0.0
 26
0.0
 36
27.5337298366232197
 17
4284.0688476562490905
 27
225.2483596801758097
 37
0.0
 40
28.029730171897981
 41
2.5251322751322749
 42
50.0
 43
0.0
 44
0.0
 50
0.0
 51
0.0
 71
     0
 72
   100
 73
     1
 74
     1
 75
     0
 76
     0
 77
     0
 78
     0
  0
ENDTAB
  0
TABLE
  2
LTYPE
 70
     2
  0
LTYPE
  2
CONTINUOUS
 70
     0
  3
Solid line
 72
    65
 73
     0
 40
0.0
  0
LTYPE
  2
PHANTOM2
 70
     0
  3
___ _ _ ___ _ _ ___ _ _ ___ _ _
 72
    65
 73
     6
 40
1.25
 49
0.625
 49
-0.125
 49
0.125
 49
-0.125
 49
0.125
 49
-0.125
  0
ENDTAB
  0
TABLE
  2
LAYER
 70
     2
  0
LAYER
  2
0
 70
     0
 62
   255
  6
CONTINUOUS
  0
LAYER
  2
DEFPOINTS
 70
     0
 62
     7
  6
CONTINUOUS
  0
ENDTAB
  0
TABLE
  2
STYLE
 70
     1
  0
STYLE
  2
STANDARD
 70
     0
 40
0.0
 41
0.8
 50
0.0
 71
     0
 42
0.2
  3
txt
  4

  0
ENDTAB
  0
TABLE
  2
VIEW
 70
     0
  0
ENDTAB
  0
TABLE
  2
UCS
 70
     0
  0
ENDTAB
  0
TABLE
  2
APPID
 70
     9
  0
APPID
  2
ACAD
 70
     0
  0
APPID
  2
ACAD_MLEADERVER
 70
     0
  0
APPID
  2
ACAD_EXEMPT_FROM_CAD_STANDARDS
 70
     0
  0
APPID
  2
ACAD_NAV_VCDISPLAY
 70
     0
  0
APPID
  2
ACAECLAYERSTANDARD
 70
     0
  0
APPID
  2
ACCMTRANSPARENCY
 70
     0
  0
APPID
  2
ACAD_DSTYLE_DIMJAG
 70
     0
  0
APPID
  2
ACAD_DSTYLE_DIMTALN
 70
     0
  0
APPID
  2
ACDBATTR
 70
     0
  0
ENDTAB
  0
TABLE
  2
DIMSTYLE
 70
     1
  0
DIMSTYLE
  2
STANDARD
 70
     0
  3

  4

  5

  6

  7

 40
1.0
 41
0.1875
 42
0.0625
 43
0.38
 44
0.125
 45
0.0
 46
0.0
 47
0.01
 48
0.01
140
0.15625
141
0.09
142
0.0
143
25.3999999999999986
144
1.0
145
0.0
146
1.0
147
0.09
 71
     1
 72
     0
 73
     1
 74
     1
 75
     0
 76
     0
 77
     0
 78
     4
170
     0
171
     2
172
     0
173
     0
174
     0
175
     0
176
     0
177
     0
178
     0
  0
ENDTAB
  0
ENDSEC
  0
SECTION
  2
BLOCKS
  0
BLOCK
  8
0
  2
$MODEL_SPACE
 70
     0
 10
0.0
 20
0.0
 30
0.0
  3
$MODEL_SPACE
  1

  0
ENDBLK
  5
21
  8
0
  0
BLOCK
 67
     1
  8
0
  2
$PAPER_SPACE
 70
     0
 10
0.0
 20
0.0
 30
0.0
  3
$PAPER_SPACE
  1

  0
ENDBLK
  5
1D
 67
     1
  8
0
  0
BLOCK
  8
0
  2
_FILLED
 70
     0
 10
0.0
 20
0.0
 30
0.0
  3
_FILLED
  1

  0
SOLID
  5
A158
  8
0
  6
BYBLOCK
 62
     0
 10
0.0
 20
0.0
 30
0.0
 11
-1.0
 21
0.1666666667
 31
0.0
 12
-1.0
 22
-0.1666666667
 32
0.0
 13
-1.0
 23
-0.1666666667
 33
0.0
  0
ENDBLK
  5
A159
  8
0
  6
BYBLOCK
 62
     0
  0
ENDSEC
  0
SECTION
  2
ENTITIES
  0
ATTDEF
  5
3930
  8
DEFPOINTS
 10
4359.7803420568188812
 20
263.7271071355829122
 30
0.0
 40
0.001
  1
K-21017K-HC
  3

  2
MODELNUMBER
 70
     0
1001
ACDBATTR
1070
     0
1070
     1
  0
ATTDEF
  5
3931
  8
DEFPOINTS
 10
4359.7803420568188812
 20
263.7254404689163039
 30
0.0
 40
0.001
  1
REACH
  3

  2
TRADENAME
 70
     0
1001
ACDBATTR
1070
     0
1070
     1
  0
ATTDEF
  5
3932
  8
DEFPOINTS
 10
4359.7803420568188812
 20
263.7237738022495819
 30
0.0
 40
0.001
  1
TOILET
  3

  2
PRODUCT
 70
     0
1001
ACDBATTR
1070
     0
1070
     1
  0
LINE
  5
A8F3
  8
0
 10
4352.2548455884525538
 20
262.3472692942431195
 30
0.0
 11
4352.2548455884525538
 21
258.8414932506944979
 31
0.0
  0
LINE
  5
A8F4
  8
0
 10
4352.6486455884532916
 20
262.7410692942431183
 30
0.0
 11
4366.9220574505543482
 21
262.7410692942431183
 31
0.0
  0
ARC
  5
A8F5
  8
0
 10
4359.2017972189496504
 20
310.817027230425083
 30
0.0
 40
53.9620474210878527
 50
264.3488476111062937
 51
267.1967551685935973
  0
ARC
  5
A8F6
  8
0
 10
4361.8852469794792341
 20
365.6205339059752077
 30
0.0
 40
108.8312122275100933
 50
267.1967551685935973
 51
268.1588172279271021
  0
ARC
  5
A8F7
  8
0
 10
4359.4789188945624119
 20
290.7637707841117845
 30
0.0
 40
33.9357824608346377
 50
268.1588172279271021
 51
270.5173752730477759
  0
ARC
  5
A8F8
  8
0
 10
4354.1445063567753095
 20
258.9421533611057953
 30
0.0
 40
1.892339894724075
 50
183.0492000032099043
 51
204.5742443615978061
  0
ARC
  5
A8F9
  8
0
 10
4354.0170714056848738
 20
258.8838783632427862
 30
0.0
 40
1.752212659201462
 50
204.5742443615978061
 51
227.245278411921305
  0
ARC
  5
A8FA
  8
0
 10
4354.0793249349044345
 20
258.9512127188921795
 30
0.0
 40
1.843915534570473
 50
227.245278411921305
 51
264.0467640760218728
  0
ARC
  5
A8FB
  8
0
 10
4352.6486455884532916
 20
262.3472692942431195
 30
0.0
 40
0.3938
 50
90.0
 51
179.9999999999984084
  0
LINE
  5
A8FC
  8
0
 10
4355.5737164786623907
 20
254.1582834276431129
 30
0.0
 11
4363.9969865603443395
 21
254.1582834276431129
 31
0.0
  0
LINE
  5
A8FD
  8
0
 10
4356.0215563109532013
 20
254.1582834276431129
 30
0.0
 11
4356.0215563109532013
 21
254.3208296934429882
 31
0.0
  0
LINE
  5
A8FE
  8
0
 10
4356.0215563109532013
 20
254.3208296934429882
 30
0.0
 11
4355.5491153660532291
 21
254.3208296934431019
 31
0.0
  0
ARC
  5
A8FF
  8
0
 10
4355.5491153660532291
 20
254.2817046441811897
 30
0.0
 40
0.0391250492619335
 50
90.0
 51
182.1009199336216966
  0
LINE
  5
A900
  8
0
 10
4355.5100166164420443
 20
254.280270329508312
 30
0.0
 11
4355.5097452872523718
 21
254.1706687183431086
 31
0.0
  0
ARC
  5
A901
  8
0
 10
4355.5774137550433807
 20
254.3487814635963957
 30
0.0
 40
0.1905339118233755
 50
249.1972499194108934
 51
268.8881158893490806
  0
ARC
  5
A902
  8
0
 10
4355.5256078840220653
 20
254.2124212620250887
 30
0.0
 40
0.044664268494697
 50
224.7203939336046119
 51
249.1972499194108934
  0
ARC
  5
A903
  8
0
 10
4355.5006396948247129
 20
254.1876955831386908
 30
0.0
 40
0.0095249789718017
 50
180.5018900807764908
 51
224.7203939336029066
  0
ARC
  5
A904
  8
0
 10
4353.4323958462273367
 20
254.1695780597947021
 30
0.0
 40
2.058798221573412
 50
0.5018900807765593
 51
3.6429753614458811
  0
LINE
  5
A905
  8
0
 10
4352.5874677301799238
 20
247.8378519061780878
 30
0.0
 11
4352.5874677301799238
 21
257.8707236198558235
 31
0.0
  0
LINE
  5
A906
  8
0
 10
4355.4444813851741856
 20
254.3208296934429882
 30
0.0
 11
4352.9087108635931145
 21
254.3208296934429882
 31
0.0
  0
ARC
  5
A907
  8
0
 10
4355.4399680876877028
 20
254.2569148464889111
 30
0.0
 40
0.0640740003072195
 50
42.7303801981268805
 51
85.960807573472934
  0
ARC
  5
A908
  8
0
 10
4266.7373503795270153
 20
244.6432495502589006
 30
0.0
 40
85.9095345892028917
 50
1.630006279435221
 51
2.1310724417084872
  0
ARC
  5
A909
  8
0
 10
4386.0041770491698117
 20
248.3039396906088996
 30
0.0
 40
33.4142241624685923
 50
182.0872346810830891
 51
183.2029338825182094
  0
ARC
  5
A90A
  8
0
 10
4373.4934918887702224
 20
247.4535244095170867
 30
0.0
 40
20.8761064376937284
 50
182.79102102176779
 51
184.6632736343194097
  0
ARC
  5
A90B
  8
0
 10
4382.6953576891892226
 20
248.3147728783858952
 30
0.0
 40
30.1177324776370092
 50
184.8730871861166918
 51
187.4323658047360937
  0
ARC
  5
A90C
  8
0
 10
4376.4888757900544078
 20
247.5474808357288907
 30
0.0
 40
23.8641792059060798
 50
187.5332011174880051
 51
190.0344775764584995
  0
ARC
  5
A90D
  8
0
 10
4362.7464745471661445
 20
244.7288256038181089
 30
0.0
 40
9.8482444084742635
 50
187.817013043749597
 51
198.3263510293243996
  0
ARC
  5
A90E
  8
0
 10
4370.0237983090792113
 20
247.1392838941899015
 30
0.0
 40
17.5143875264514115
 50
198.3263510293243996
 51
206.3732319275686109
  0
ARC
  5
A90F
  8
0
 10
4359.9296103599372145
 20
242.1343621140593996
 30
0.0
 40
6.2475391482323701
 50
206.3732319275686109
 51
229.8096027749635084
  0
ARC
  5
A910
  8
0
 10
4359.9923522439858061
 20
242.2086323530137122
 30
0.0
 40
6.3447636945575212
 50
229.8096027749635084
 51
244.0911021625070987
  0
ARC
  5
A911
  8
0
 10
4359.6065659447976941
 20
241.4144507343391979
 30
0.0
 40
5.4618392855156017
 50
244.0911021625070987
 51
263.0365932805133866
  0
ARC
  5
A912
  8
0
 10
4359.8139531515753333
 20
243.1124487105113019
 30
0.0
 40
7.1724551338636662
 50
263.0365932805133866
 51
269.7715207530101793
  0
ARC
  5
A913
  8
0
 10
4352.9452275061958062
 20
253.9673464630924968
 30
0.0
 40
0.3553644035719374
 50
95.8980280327178178
 51
135.4297298426500049
  0
ARC
  5
A914
  8
0
 10
4352.8683024086030855
 20
254.0431262221441955
 30
0.0
 40
0.2473827267855356
 50
135.4297298426500049
 51
177.5356401787651066
  0
ARC
  5
A915
  8
0
 10
4376.2617069931238802
 20
253.0363270629567012
 30
0.0
 40
23.6624424662353405
 50
177.5356401787651066
 51
180.5761509552426958
  0
ARC
  5
A916
  8
0
 10
4259.6951086978278909
 20
251.8641251781567973
 30
0.0
 40
92.910049552231456
 50
358.8818927241459278
 51
0.5761509552426837
  0
LINE
  5
A917
  8
0
 10
4357.054888463196221
 20
254.1995408050431138
 30
0.0
 11
4362.5158145758095998
 21
254.1995408050431138
 31
0.0
  0
ARC
  5
A918
  8
0
 10
4357.0884675684728791
 20
252.9708398852280027
 30
0.0
 40
1.2291596750079259
 50
91.5654438088681673
 51
104.9699895326822059
  0
LINE
  5
A919
  8
0
 10
4367.315857450553267
 20
262.3472692942431195
 30
0.0
 11
4367.315857450553267
 21
258.8414932506944979
 31
0.0
  0
ARC
  5
A91A
  8
0
 10
4360.3689058200561703
 20
310.817027230425083
 30
0.0
 40
53.9620474210878527
 50
272.8032448314064027
 51
275.65115238889382
  0
ARC
  5
A91B
  8
0
 10
4357.6854560595265866
 20
365.6205339059752077
 30
0.0
 40
108.8312122275100933
 50
271.8411827720727842
 51
272.8032448314064027
  0
ARC
  5
A91C
  8
0
 10
4360.0917841444443184
 20
290.7637707841117845
 30
0.0
 40
33.9357824608346377
 50
269.4826247269522241
 51
271.8411827720727842
  0
ARC
  5
A91D
  8
0
 10
4365.4261966822296017
 20
258.9421533611057953
 30
0.0
 40
1.892339894724075
 50
335.4257556384022223
 51
356.9507999967900105
  0
ARC
  5
A91E
  8
0
 10
4365.5536316333200375
 20
258.8838783632427862
 30
0.0
 40
1.752212659201462
 50
312.7547215880787803
 51
335.4257556384022223
  0
ARC
  5
A91F
  8
0
 10
4365.4913781041022958
 20
258.9512127188921795
 30
0.0
 40
1.843915534570473
 50
275.9532359239781272
 51
312.7547215880787803
  0
ARC
  5
A920
  8
0
 10
4366.9220574505543482
 20
262.3472692942431195
 30
0.0
 40
0.3938
 50
0.0000000000016284
 51
90.0
  0
LINE
  5
A921
  8
0
 10
4363.5491467280526194
 20
254.1582834276431129
 30
0.0
 11
4363.5491467280526194
 21
254.3208296934429882
 31
0.0
  0
LINE
  5
A922
  8
0
 10
4363.5491467280526194
 20
254.3208296934429882
 30
0.0
 11
4364.0215876729544107
 21
254.3208296934431019
 31
0.0
  0
ARC
  5
A923
  8
0
 10
4364.0215876729544107
 20
254.2817046441811897
 30
0.0
 40
0.0391250492619335
 50
357.8990800663783034
 51
90.0
  0
LINE
  5
A924
  8
0
 10
4364.0606864225637764
 20
254.280270329508312
 30
0.0
 11
4364.060957751753449
 21
254.1706687183431086
 31
0.0
  0
ARC
  5
A925
  8
0
 10
4363.9932892839633496
 20
254.3487814635963957
 30
0.0
 40
0.1905339118233755
 50
271.1118841106509194
 51
290.8027500805890782
  0
ARC
  5
A926
  8
0
 10
4364.0450951549837555
 20
254.2124212620250887
 30
0.0
 40
0.044664268494697
 50
290.8027500805890782
 51
315.2796060663955018
  0
ARC
  5
A927
  8
0
 10
4364.0700633441820173
 20
254.1876955831386908
 30
0.0
 40
0.0095249789718017
 50
315.2796060663970934
 51
359.4981099192235092
  0
ARC
  5
A928
  8
0
 10
4366.1383071927793935
 20
254.1695780597947021
 30
0.0
 40
2.058798221573412
 50
176.3570246385540941
 51
179.4981099192233955
  0
LINE
  5
A929
  8
0
 10
4366.9832353088258969
 20
247.8378519061780878
 30
0.0
 11
4366.9832353088258969
 21
257.8707236198558235
 31
0.0
  0
LINE
  5
A92A
  8
0
 10
4364.1262216538316352
 20
254.3208296934429882
 30
0.0
 11
4366.6619921754117968
 21
254.3208296934429882
 31
0.0
  0
ARC
  5
A92B
  8
0
 10
4364.130734951318118
 20
254.2569148464889111
 30
0.0
 40
0.0640740003072195
 50
94.0391924265270944
 51
137.2696198018730911
  0
ARC
  5
A92C
  8
0
 10
4452.8333526594797149
 20
244.6432495502589006
 30
0.0
 40
85.9095345892028917
 50
177.8689275582914888
 51
178.3699937205647927
  0
ARC
  5
A92D
  8
0
 10
4333.5665259898350996
 20
248.3039396906088996
 30
0.0
 40
33.4142241624685923
 50
356.7970661174816769
 51
357.9127653189169109
  0
ARC
  5
A92E
  8
0
 10
4346.0772111502374173
 20
247.4535244095170867
 30
0.0
 40
20.8761064376937284
 50
355.3367263656804766
 51
357.2089789782320963
  0
ARC
  5
A92F
  8
0
 10
4336.8753453498156887
 20
248.3147728783858952
 30
0.0
 40
30.1177324776370092
 50
352.5676341952639063
 51
355.1269128138832798
  0
ARC
  5
A930
  8
0
 10
4343.0818272489514129
 20
247.5474808357288907
 30
0.0
 40
23.8641792059060798
 50
349.9655224235414721
 51
352.4667988825119096
  0
ARC
  5
A931
  8
0
 10
4356.8242284918405858
 20
244.7288256038181089
 30
0.0
 40
9.8482444084742635
 50
341.6736489706755719
 51
352.1829869562503745
  0
ARC
  5
A932
  8
0
 10
4349.5469047299293379
 20
247.1392838941899015
 30
0.0
 40
17.5143875264514115
 50
333.6267680724313891
 51
341.6736489706755719
  0
ARC
  5
A933
  8
0
 10
4359.6410926790667872
 20
242.1343621140593996
 30
0.0
 40
6.2475391482323701
 50
310.19039722503652
 51
333.6267680724313891
  0
ARC
  5
A934
  8
0
 10
4359.5783507950209241
 20
242.2086323530137122
 30
0.0
 40
6.3447636945575212
 50
295.9088978374928729
 51
310.19039722503652
  0
ARC
  5
A935
  8
0
 10
4359.9641370942081267
 20
241.4144507343391979
 30
0.0
 40
5.4618392855156017
 50
276.9634067194866134
 51
295.9088978374928729
  0
ARC
  5
A936
  8
0
 10
4359.7567498874313969
 20
243.1124487105113019
 30
0.0
 40
7.1724551338636662
 50
270.2284792469898775
 51
276.9634067194866134
  0
ARC
  5
A937
  8
0
 10
4366.6254755328100146
 20
253.9673464630924968
 30
0.0
 40
0.3553644035719374
 50
44.570270157349988
 51
84.101971967282168
  0
ARC
  5
A938
  8
0
 10
4366.7024006304018258
 20
254.0431262221441955
 30
0.0
 40
0.2473827267855356
 50
2.4643598212340692
 51
44.570270157349988
  0
ARC
  5
A939
  8
0
 10
4343.30899604588285
 20
253.0363270629567012
 30
0.0
 40
23.6624424662353405
 50
359.4238490447572758
 51
2.4643598212340692
  0
ARC
  5
A93A
  8
0
 10
4459.8755943411779299
 20
251.8641251781567973
 30
0.0
 40
92.910049552231456
 50
179.4238490447557126
 51
181.1181072758541006
  0
ARC
  5
A93B
  8
0
 10
4362.4822354705320322
 20
252.9708398852280027
 30
0.0
 40
1.2291596750079259
 50
75.0300104673177515
 51
88.434556191131847
  0
ARC
  5
A93C
  8
0
 10
4359.7903515194520878
 20
259.8670535462430848
 30
0.0
 40
0.6692913386
 50
87.5285393608266702
 51
272.4709965816206818
  0
ARC
  5
A93D
  8
0
 10
4359.7903515194520878
 20
259.8670535462430848
 30
0.0
 40
0.6692913386
 50
277.4857875786706813
 51
82.5127503384947403
  0
ARC
  5
A93E
  8
0
 10
4359.8183673470939539
 20
260.5161405580167866
 30
0.0
 40
0.0196
 50
9.8492610095861526
 51
87.5285393608266702
  0
CIRCLE
  5
A93F
  8
0
 10
4359.7903515194520878
 20
259.8670535462430848
 30
0.0
 40
0.9055118109999966
  0
ARC
  5
A940
  8
0
 10
4356.0797215981529007
 20
259.8670535462431985
 30
0.0
 40
3.8141732282998979
 50
7.2563368189561812
 51
9.8492610095885578
  0
ARC
  5
A941
  8
0
 10
4356.0797215981510817
 20
259.8670535462429143
 30
0.0
 40
3.8141732283020522
 50
1.1960847084630499
 51
7.2563368189561812
  0
ARC
  5
A942
  8
0
 10
4356.0797215981547197
 20
259.867053546243028
 30
0.0
 40
3.8141732282976171
 50
355.9929316404425776
 51
1.1960847084630499
  0
ARC
  5
A943
  8
0
 10
4356.0797215981510817
 20
259.8670535462434259
 30
0.0
 40
3.8141732283025318
 50
351.0740160772355125
 51
355.9929316404425776
  0
ARC
  5
A944
  8
0
 10
4356.1184332994671422
 20
259.8609734678527161
 30
0.0
 40
3.7749869657587261
 50
350.1410881752507862
 51
351.0740160772355125
  0
ARC
  5
A945
  8
0
 10
4359.8183620899226298
 20
259.2179663075810936
 30
0.0
 40
0.0196
 50
272.4709965816206818
 51
350.1410881752424871
  0
ARC
  5
A946
  8
0
 10
4356.0704884319184202
 20
259.8662255411757087
 30
0.0
 40
3.839205888924226
 50
2.1174151207469909
 51
9.6218629460741738
  0
ARC
  5
A947
  8
0
 10
4359.875009911482266
 20
260.511205540814899
 30
0.0
 40
0.0196
 50
82.5127503384947403
 51
189.6218629460742022
  0
ARC
  5
A948
  8
0
 10
4356.0906862618639934
 20
259.8669723094561164
 30
0.0
 40
3.8189942586746088
 50
357.0335958002503958
 51
2.1174151207469909
  0
ARC
  5
A949
  8
0
 10
4356.066586122497938
 20
259.8682211745684185
 30
0.0
 40
3.8431267343350699
 50
352.8069245811549877
 51
357.0335958002503958
  0
ARC
  5
A94A
  8
0
 10
4356.1022799689390013
 20
259.8637163757533131
 30
0.0
 40
3.80714974326964
 50
350.359989086896519
 51
352.8069245811549877
  0
ARC
  5
A94B
  8
0
 10
4359.8749934738816592
 20
259.2228993915546766
 30
0.0
 40
0.0196
 50
170.3599890869031128
 51
277.4857875786706813
  0
ARC
  5
A94C
  8
0
 10
4359.7339061663533357
 20
260.5122268841431037
 30
0.0
 40
0.0343579363999991
 50
42.8970343023696117
 51
147.1029657019400076
  0
ARC
  5
A94D
  8
0
 10
4359.382779848852806
 20
260.3703626433431282
 30
0.0
 40
0.0346270679013499
 50
76.5213004659625255
 51
181.478699534948106
  0
ARC
  5
A94E
  8
0
 10
4359.1710124156534221
 20
260.0564045124431232
 30
0.0
 40
0.0343579364000007
 50
110.8970341821353003
 51
215.1029658278023078
  0
ARC
  5
A94F
  8
0
 10
4359.1710124156534221
 20
259.6777025799430021
 30
0.0
 40
0.0343579363999992
 50
144.8970341168547975
 51
249.1029658901003074
  0
ARC
  5
A950
  8
0
 10
4359.382779848852806
 20
259.3637444491430983
 30
0.0
 40
0.0343579364000001
 50
178.8970341722856858
 51
283.1029658268153071
  0
ARC
  5
A951
  8
0
 10
4359.7339061663533357
 20
259.2218802082430784
 30
0.0
 40
0.0343579364000015
 50
212.8970340814439908
 51
317.1029659157525771
  0
ARC
  5
A952
  8
0
 10
4359.9583291555536562
 20
259.2401524735431053
 30
0.0
 40
0.0333271255000034
 50
231.3139199494929983
 51
338.6860800395468232
  0
ARC
  5
A953
  8
0
 10
4360.2492749559532967
 20
259.4081301096430821
 30
0.0
 40
0.0333271254999994
 50
261.3139198681520838
 51
8.6860801193546191
  0
ARC
  5
A954
  8
0
 10
4360.4172525921530905
 20
259.6990759100431205
 30
0.0
 40
0.0333271255
 50
291.3139198950073023
 51
38.6860800988563227
  0
ARC
  5
A955
  8
0
 10
4360.4172525921530905
 20
260.0350311823431184
 30
0.0
 40
0.0333271255000007
 50
321.3139199495012122
 51
68.6860800395509017
  0
ARC
  5
A956
  8
0
 10
4360.2492749559532967
 20
260.3259769827431001
 30
0.0
 40
0.0334065006311821
 50
351.2052562753851248
 51
98.7947437245977937
  0
ARC
  5
A957
  8
0
 10
4359.9583291555536562
 20
260.4939546189431212
 30
0.0
 40
0.0333271255000012
 50
21.3139199604318605
 51
128.6860800505187115
  0
ARC
  5
A958
  8
0
 10
4359.7976541390280545
 20
260.529487529356004
 30
0.0
 40
0.0078415690872289
 50
89.4341260806534706
 51
119.1518135555838001
  0
ARC
  5
A959
  8
0
 10
4359.7914127029516749
 20
259.8975511463127077
 30
0.0
 40
0.6398087737253773
 50
87.2297662824062741
 51
89.4341260806534706
  0
ARC
  5
A95A
  8
0
 10
4359.8214196168401031
 20
260.5176900154202144
 30
0.0
 40
0.0189443506353383
 50
11.1700854306318398
 51
87.2297662824062741
  0
ARC
  5
A95B
  8
0
 10
4359.821936507688406
 20
260.5177920821398061
 30
0.0
 40
0.0184174789581168
 50
356.0987084339545845
 51
11.1700854306227395
  0
ARC
  5
A95C
  8
0
 10
4356.0796890734100089
 20
259.8670480644897793
 30
0.0
 40
3.8162963811302122
 50
9.4915347111563282
 51
9.7987969483227797
  0
ARC
  5
A95D
  8
0
 10
4356.9691409905508408
 20
260.009242942373703
 30
0.0
 40
2.915579956139172
 50
7.4392740359734111
 51
9.6177779882080632
  0
ARC
  5
A95E
  8
0
 10
4356.1704524096621753
 20
259.8723557727296907
 30
0.0
 40
3.7254094401385229
 50
1.8140329547650089
 51
7.9364219991168516
  0
ARC
  5
A95F
  8
0
 10
4356.0797215981529007
 20
259.8670535462430848
 30
0.0
 40
3.8162633977000211
 50
354.0007628255694954
 51
1.850477444521383
  0
ARC
  5
A960
  8
0
 10
4356.0797215981519912
 20
259.8670535462431985
 30
0.0
 40
3.8162633977010052
 50
350.0691934606963969
 51
354.0007628255679037
  0
ARC
  5
A961
  8
0
 10
4359.8214326846818949
 20
259.2163887462568823
 30
0.0
 40
0.0189154250125352
 50
272.7348442609634276
 51
336.6957675107775003
  0
ARC
  5
A962
  8
0
 10
4359.7904052370586214
 20
259.8656613808238944
 30
0.0
 40
0.6689290067929625
 50
270.6239546272691996
 51
272.7359380570590019
  0
ARC
  5
A963
  8
0
 10
4359.7976988895852628
 20
259.204783839103527
 30
0.0
 40
0.0080118053485441
 50
241.0788487216777867
 51
269.9347952625557809
  0
ARC
  5
A964
  8
0
 10
4359.8748764130832569
 20
260.5088127122945139
 30
0.0
 40
0.0213131916740964
 50
128.874814861509094
 51
177.1524525775016059
  0
ARC
  5
A965
  8
0
 10
4356.1236577186209615
 20
259.8741700423370844
 30
0.0
 40
3.7837161292907409
 50
7.7856231122796382
 51
9.672126116189494
  0
ARC
  5
A966
  8
0
 10
4356.1391189870801099
 20
259.8739239428942938
 30
0.0
 40
3.7684314487259112
 50
6.1902497388830957
 51
7.8211753019782337
  0
ARC
  5
A967
  8
0
 10
4359.9173554340941337
 20
260.2638440057253888
 30
0.0
 40
0.0357738995277683
 50
152.6587580164811015
 51
219.1462370645978126
  0
ARC
  5
A968
  8
0
 10
4356.8478788211514257
 20
259.9368881444631825
 30
0.0
 40
3.0569232080807609
 50
3.6443698522281132
 51
5.7142945827016609
  0
ARC
  5
A969
  8
0
 10
4356.3945894079806749
 20
259.8773956794805144
 30
0.0
 40
3.5132104362202741
 50
1.132634952255088
 51
4.142761759068839
  0
ARC
  5
A96A
  8
0
 10
4356.081690826797967
 20
259.8670161263743239
 30
0.0
 40
3.8262553505085481
 50
352.1944804892928005
 51
1.195414779604087
  0
ARC
  5
A96B
  8
0
 10
4356.1326545483698283
 20
259.8586298062755873
 30
0.0
 40
3.774625120212022
 50
350.3246564200674129
 51
352.2155368314682846
  0
ARC
  5
A96C
  8
0
 10
4359.8754352412006483
 20
259.2254551069083277
 30
0.0
 40
0.0218796675835435
 50
183.1658969501957017
 51
233.3737885617966015
  0
LINE
  5
A96D
  8
0
 10
4359.8394684464537931
 20
259.2127065761162044
 30
0.0
 11
4359.8566578142081198
 21
259.2142244306569978
 31
0.0
  0
LINE
  5
A96E
  8
0
 10
4359.8415023003426541
 20
259.2245021714442146
 30
0.0
 11
4359.8538267840331173
 21
259.2256299561835817
 31
0.0
  0
LINE
  5
A96F
  8
0
 10
4359.8417111954131542
 20
259.2257263358969226
 30
0.0
 11
4359.8540288101403348
 21
259.226832052268378
 31
0.0
  0
LINE
  5
A970
  8
0
 10
4359.8437402658264546
 20
259.2377445680481856
 30
0.0
 11
4359.8560599874481341
 21
259.2389114082602077
 31
0.0
  0
LINE
  5
A971
  8
0
 10
4359.8535852077529853
 20
259.3001244123431093
 30
0.0
 11
4359.8657334223698854
 21
259.3001244123431093
 31
0.0
  0
LINE
  5
A972
  8
0
 10
4359.8546859224534273
 20
259.3079984281430939
 30
0.0
 11
4359.8669041328221283
 21
259.3079984281430939
 31
0.0
  0
LINE
  5
A973
  8
0
 10
4359.8570661687526808
 20
259.3234228668413266
 30
0.0
 11
4359.8691433185940696
 21
259.3234228667431012
 31
0.0
  0
LINE
  5
A974
  8
0
 10
4359.8599420585032931
 20
259.3437949182451234
 30
0.0
 11
4359.8720047374135902
 21
259.3437949183431215
 31
0.0
  0
LINE
  5
A975
  8
0
 10
4359.8604349938559608
 20
259.3473685068431109
 30
0.0
 11
4359.8724950104533491
 21
259.3473685068431109
 31
0.0
  0
LINE
  5
A976
  8
0
 10
4359.8865830583636125
 20
259.5993370107431133
 30
0.0
 11
4359.8985714770606137
 21
259.5993370107431133
 31
0.0
  0
LINE
  5
A977
  8
0
 10
4359.8880087322531836
 20
259.6232826516430805
 30
0.0
 11
4359.9001753430684403
 21
259.6232826524579878
 31
0.0
  0
LINE
  5
A978
  8
0
 10
4359.8890905453536107
 20
259.6387070895431179
 30
0.0
 11
4359.9011286114728136
 21
259.6387070895431179
 31
0.0
  0
LINE
  5
A979
  8
0
 10
4359.8896428155831018
 20
260.087525987143124
 30
0.0
 11
4359.9014748287527254
 21
260.087525987143124
 31
0.0
  0
LINE
  5
A97A
  8
0
 10
4359.8891789078115835
 20
260.0954000029431086
 30
0.0
 11
4359.9010294380013875
 21
260.0954000029431086
 31
0.0
  0
LINE
  5
A97B
  8
0
 10
4359.8882216589581731
 20
260.1108244408259793
 30
0.0
 11
4359.9000363955856301
 21
260.1108244400375042
 31
0.0
  0
LINE
  5
A97C
  8
0
 10
4359.886858869957905
 20
260.1311964931430794
 30
0.0
 11
4359.8986203319527704
 21
260.1311964931438752
 31
0.0
  0
LINE
  5
A97D
  8
0
 10
4359.8400050938980712
 20
260.5213599559544946
 30
0.0
 11
4359.8574027994018252
 21
260.5198165572596167
 31
0.0
  0
LINE
  5
A97E
  8
0
 10
4359.8414680798732661
 20
260.5096076490859787
 30
0.0
 11
4359.8538015165631805
 21
260.508626497679586
 31
0.0
  0
LINE
  5
A97F
  8
0
 10
4359.8437402658264546
 20
260.4963625244379273
 30
0.0
 11
4359.8560611039092691
 21
260.4951955784823099
 31
0.0
  0
LINE
  5
A980
  8
0
 10
4359.8536171363839458
 20
260.4339826800430728
 30
0.0
 11
4359.8657316833778168
 21
260.4339826800430728
 31
0.0
  0
LINE
  5
A981
  8
0
 10
4359.8568883258531059
 20
260.4106842256430809
 30
0.0
 11
4359.8691430380504244
 21
260.4106842257431254
 31
0.0
  0
LINE
  5
A982
  8
0
 10
4359.8601794752530623
 20
260.3867385855432985
 30
0.0
 11
4359.8724950364539836
 21
260.3867385855347152
 31
0.0
  0
CIRCLE
  5
A983
  8
0
 10
4359.7903515194520878
 20
259.8670535462430848
 30
0.0
 40
0.6822648632000027
  0
CIRCLE
  5
A984
  8
0
 10
4359.7903515194520878
 20
259.8670535462430848
 30
0.0
 40
0.6888738461000031
  0
ENDSEC
  0
EOF
