  0
SECTION
  2
HEADER
  9
$ACADVER
  1
AC1009
  9
$INSBASE
 10
4403.137592860454788
 20
242.5987844864966974
 30
0.0
  9
$EXTMIN
 10
4395.5579618607216617
 20
242.577820979399803
 30
-0.0000000000112498
  9
$EXTMAX
 10
4410.9356901896244381
 20
271.6684214709641765
 30
0.0000000000002956
  9
$LIMMIN
 10
0.0
 20
0.0
  9
$LIMMAX
 10
11.6929133858000007
 20
8.2677165353999982
  9
$ORTHOMODE
 70
     0
  9
$REGENMODE
 70
     1
  9
$FILLMODE
 70
     1
  9
$QTEXTMODE
 70
     0
  9
$MIRRTEXT
 70
     0
  9
$DRAGMODE
 70
     2
  9
$LTSCALE
 40
0.6431102362
  9
$OSMODE
 70
  4095
  9
$ATTMODE
 70
     1
  9
$TEXTSIZE
 40
0.2
  9
$TRACEWID
 40
0.05
  9
$TEXTSTYLE
  7
STANDARD
  9
$CLAYER
  8
0
  9
$CELTYPE
  6
BYLAYER
  9
$CECOLOR
 62
   256
  9
$DIMSCALE
 40
1.0
  9
$DIMASZ
 40
0.1875
  9
$DIMEXO
 40
0.0625
  9
$DIMDLI
 40
0.4443307087
  9
$DIMRND
 40
0.0
  9
$DIMDLE
 40
0.0
  9
$DIMEXE
 40
0.125
  9
$DIMTP
 40
0.01
  9
$DIMTM
 40
0.01
  9
$DIMTXT
 40
2.0
  9
$DIMCEN
 40
0.1052362205
  9
$DIMTSZ
 40
0.0
  9
$DIMTOL
 70
     1
  9
$DIMLIM
 70
     0
  9
$DIMTIH
 70
     1
  9
$DIMTOH
 70
     1
  9
$DIMSE1
 70
     0
  9
$DIMSE2
 70
     0
  9
$DIMTAD
 70
     0
  9
$DIMZIN
 70
     0
  9
$DIMBLK
  1

  9
$DIMASO
 70
     1
  9
$DIMSHO
 70
     1
  9
$DIMPOST
  1
\X
  9
$DIMAPOST
  1

  9
$DIMALT
 70
     1
  9
$DIMALTD
 70
     2
  9
$DIMALTF
 40
25.3999999999999986
  9
$DIMLFAC
 40
1.0
  9
$DIMTOFL
 70
     0
  9
$DIMTVP
 40
0.0
  9
$DIMTIX
 70
     0
  9
$DIMSOXD
 70
     0
  9
$DIMSAH
 70
     0
  9
$DIMBLK1
  1

  9
$DIMBLK2
  1

  9
$DIMSTYLE
  2
STANDARD
  9
$DIMCLRD
 70
     0
  9
$DIMCLRE
 70
     0
  9
$DIMCLRT
 70
     0
  9
$DIMTFAC
 40
1.0
  9
$DIMGAP
 40
0.09
  9
$LUNITS
 70
     2
  9
$LUPREC
 70
     4
  9
$SKETCHINC
 40
0.1
  9
$FILLETRAD
 40
0.0
  9
$AUNITS
 70
     0
  9
$AUPREC
 70
     0
  9
$MENU
  1
.
  9
$ELEVATION
 40
0.0
  9
$PELEVATION
 40
0.0
  9
$THICKNESS
 40
0.0
  9
$LIMCHECK
 70
     0
  9
$BLIPMODE
 70
     0
  9
$CHAMFERA
 40
0.0
  9
$CHAMFERB
 40
0.0
  9
$SKPOLY
 70
     0
  9
$TDCREATE
 40
2458060.468368056230247
  9
$TDUPDATE
 40
2459983.5283449068665504
  9
$TDINDWG
 40
0.6216390046
  9
$TDUSRTIMER
 40
0.6216390046
  9
$USRTIMER
 70
     1
  9
$ANGBASE
 50
0.0
  9
$ANGDIR
 70
     0
  9
$PDMODE
 70
     0
  9
$PDSIZE
 40
0.3125
  9
$PLINEWID
 40
0.0
  9
$COORDS
 70
     1
  9
$SPLFRAME
 70
     0
  9
$SPLINETYPE
 70
     6
  9
$SPLINESEGS
 70
     8
  9
$ATTDIA
 70
     1
  9
$ATTREQ
 70
     1
  9
$HANDLING
 70
     1
  9
$HANDSEED
  5
A9ED
  9
$SURFTAB1
 70
     6
  9
$SURFTAB2
 70
     6
  9
$SURFTYPE
 70
     6
  9
$SURFU
 70
     6
  9
$SURFV
 70
     6
  9
$UCSNAME
  2

  9
$UCSORG
 10
0.0
 20
0.0
 30
0.0
  9
$UCSXDIR
 10
1.0
 20
0.0
 30
0.0
  9
$UCSYDIR
 10
0.0
 20
1.0
 30
0.0
  9
$PUCSNAME
  2

  9
$PUCSORG
 10
0.0
 20
0.0
 30
0.0
  9
$PUCSXDIR
 10
1.0
 20
0.0
 30
0.0
  9
$PUCSYDIR
 10
0.0
 20
1.0
 30
0.0
  9
$USERI1
 70
     0
  9
$USERI2
 70
     0
  9
$USERI3
 70
     0
  9
$USERI4
 70
     0
  9
$USERI5
 70
     0
  9
$USERR1
 40
0.0
  9
$USERR2
 40
0.0
  9
$USERR3
 40
0.0
  9
$USERR4
 40
0.0
  9
$USERR5
 40
0.0
  9
$WORLDVIEW
 70
     1
  9
$SHADEDGE
 70
     3
  9
$SHADEDIF
 70
    70
  9
$TILEMODE
 70
     1
  9
$MAXACTVP
 70
    64
  9
$PLIMCHECK
 70
     0
  9
$PEXTMIN
 10
1.0000000000000000E+20
 20
1.0000000000000000E+20
 30
1.0000000000000000E+20
  9
$PEXTMAX
 10
-1.0000000000000000E+20
 20
-1.0000000000000000E+20
 30
-1.0000000000000000E+20
  9
$PLIMMIN
 10
0.0
 20
0.0
  9
$PLIMMAX
 10
12.0
 20
9.0
  9
$UNITMODE
 70
     0
  9
$VISRETAIN
 70
     1
  9
$PLINEGEN
 70
     0
  9
$PSLTSCALE
 70
     1
  0
ENDSEC
  0
SECTION
  2
TABLES
  0
TABLE
  2
VPORT
 70
     1
  0
VPORT
  2
*ACTIVE
 70
     0
 10
0.0
 20
0.0
 11
1.0
 21
1.0
 12
119.1779783689235046
 22
31.8747615450062085
 13
0.0
 23
0.0
 14
1.0
 24
1.0
 15
0.0
 25
0.0
 16
0.0
 26
0.0
 36
27.5337298366232197
 17
4284.0688476562490905
 27
225.2483596801758097
 37
0.0
 40
29.32117328277889
 41
1.644179894179894
 42
50.0
 43
0.0
 44
0.0
 50
0.0
 51
0.0
 71
     0
 72
   100
 73
     1
 74
     1
 75
     0
 76
     0
 77
     0
 78
     0
  0
ENDTAB
  0
TABLE
  2
LTYPE
 70
     2
  0
LTYPE
  2
CONTINUOUS
 70
     0
  3
Solid line
 72
    65
 73
     0
 40
0.0
  0
LTYPE
  2
PHANTOM2
 70
     0
  3
___ _ _ ___ _ _ ___ _ _ ___ _ _
 72
    65
 73
     6
 40
1.25
 49
0.625
 49
-0.125
 49
0.125
 49
-0.125
 49
0.125
 49
-0.125
  0
ENDTAB
  0
TABLE
  2
LAYER
 70
     2
  0
LAYER
  2
0
 70
     0
 62
   255
  6
CONTINUOUS
  0
LAYER
  2
DEFPOINTS
 70
     0
 62
     7
  6
CONTINUOUS
  0
ENDTAB
  0
TABLE
  2
STYLE
 70
     1
  0
STYLE
  2
STANDARD
 70
     0
 40
0.0
 41
0.8
 50
0.0
 71
     0
 42
0.2
  3
txt
  4

  0
ENDTAB
  0
TABLE
  2
VIEW
 70
     0
  0
ENDTAB
  0
TABLE
  2
UCS
 70
     0
  0
ENDTAB
  0
TABLE
  2
APPID
 70
     9
  0
APPID
  2
ACAD
 70
     0
  0
APPID
  2
ACAD_MLEADERVER
 70
     0
  0
APPID
  2
ACAD_EXEMPT_FROM_CAD_STANDARDS
 70
     0
  0
APPID
  2
ACAD_NAV_VCDISPLAY
 70
     0
  0
APPID
  2
ACAECLAYERSTANDARD
 70
     0
  0
APPID
  2
ACCMTRANSPARENCY
 70
     0
  0
APPID
  2
ACAD_DSTYLE_DIMJAG
 70
     0
  0
APPID
  2
ACAD_DSTYLE_DIMTALN
 70
     0
  0
APPID
  2
ACDBATTR
 70
     0
  0
ENDTAB
  0
TABLE
  2
DIMSTYLE
 70
     1
  0
DIMSTYLE
  2
STANDARD
 70
     0
  3

  4

  5

  6

  7

 40
1.0
 41
0.1875
 42
0.0625
 43
0.38
 44
0.125
 45
0.0
 46
0.0
 47
0.01
 48
0.01
140
0.15625
141
0.09
142
0.0
143
25.3999999999999986
144
1.0
145
0.0
146
1.0
147
0.09
 71
     1
 72
     0
 73
     1
 74
     1
 75
     0
 76
     0
 77
     0
 78
     4
170
     0
171
     2
172
     0
173
     0
174
     0
175
     0
176
     0
177
     0
178
     0
  0
ENDTAB
  0
ENDSEC
  0
SECTION
  2
BLOCKS
  0
BLOCK
  8
0
  2
$MODEL_SPACE
 70
     0
 10
0.0
 20
0.0
 30
0.0
  3
$MODEL_SPACE
  1

  0
ENDBLK
  5
21
  8
0
  0
BLOCK
 67
     1
  8
0
  2
$PAPER_SPACE
 70
     0
 10
0.0
 20
0.0
 30
0.0
  3
$PAPER_SPACE
  1

  0
ENDBLK
  5
1D
 67
     1
  8
0
  0
BLOCK
  8
0
  2
_FILLED
 70
     0
 10
0.0
 20
0.0
 30
0.0
  3
_FILLED
  1

  0
SOLID
  5
A839
  8
0
  6
BYBLOCK
 62
     0
 10
0.0
 20
0.0
 30
0.0
 11
-1.0
 21
0.1666666667
 31
0.0
 12
-1.0
 22
-0.1666666667
 32
0.0
 13
-1.0
 23
-0.1666666667
 33
0.0
  0
ENDBLK
  5
A83A
  8
0
  6
BYBLOCK
 62
     0
  0
ENDSEC
  0
SECTION
  2
ENTITIES
  0
ATTDEF
  5
3930
  8
DEFPOINTS
 10
4403.1331232003531113
 20
242.5968235409216902
 30
0.0
 40
0.001
  1
K-21017K
  3

  2
MODELNUMBER
 70
     0
1001
ACDBATTR
1070
     0
1070
     1
  0
ATTDEF
  5
3931
  8
DEFPOINTS
 10
4403.1331232003531113
 20
242.5951568742549966
 30
0.0
 40
0.001
  1
REACH UP
  3

  2
TRADENAME
 70
     0
1001
ACDBATTR
1070
     0
1070
     1
  0
ATTDEF
  5
3932
  8
DEFPOINTS
 10
4403.1331232003531113
 20
242.5934902075883883
 30
0.0
 40
0.001
  1
TOILET
  3

  2
PRODUCT
 70
     0
1001
ACDBATTR
1070
     0
1070
     1
  0
LINE
  5
A8D5
  8
0
 10
4407.5401142184009586
 20
242.5987844864966974
 30
0.0
 11
4398.7350715025086174
 21
242.5987844864966974
 31
0.0
  0
LINE
  5
A8D6
  8
0
 10
4410.1018460233608494
 20
257.9530844864967776
 30
0.0
 11
4395.9552470528633421
 21
257.9530844864967776
 31
0.0
  0
LINE
  5
A8D7
  8
0
 10
4410.3446499202891573
 20
271.5751317305968087
 30
0.0
 11
4395.9305358006213282
 21
271.5751317305968087
 31
0.0
  0
LINE
  5
A8D8
  8
0
 10
4404.0430904312052007
 20
271.6617459037968274
 30
0.0
 11
4402.2320952897052848
 21
271.6617459037967137
 31
0.0
  0
ARC
  5
A8D9
  8
0
 10
4364.1478095160300654
 20
247.5232609891345987
 30
0.0
 40
34.8015212294238481
 50
352.0886818492106727
 51
354.1829706796733035
  0
ARC
  5
A8DA
  8
0
 10
4385.0089664136767169
 20
245.5943477892780038
 30
0.0
 40
13.8487970457028293
 50
355.3644446098234084
 51
1.844987514234979
  0
ARC
  5
A8DB
  8
0
 10
4389.6703809395557982
 20
245.744502398769697
 30
0.0
 40
9.1849647385960047
 50
1.844987514234979
 51
13.5449770271361007
  0
ARC
  5
A8DC
  8
0
 10
4373.0890180979522484
 20
241.7499002301366033
 30
0.0
 40
26.2407098167378585
 50
13.5449770271361007
 51
18.7195348286014287
  0
ARC
  5
A8DD
  8
0
 10
4379.6110249401563124
 20
243.9599564617913927
 30
0.0
 40
19.354424766230629
 50
18.7195348286014287
 51
23.639070437687991
  0
ARC
  5
A8DE
  8
0
 10
4409.8090243178421588
 20
257.1776680402094826
 30
0.0
 40
13.6096020779665601
 50
191.7967514327702929
 51
203.639070437687991
  0
ARC
  5
A8DF
  8
0
 10
4419.507982656959939
 20
259.9206046542203126
 30
0.0
 40
23.6748902702549096
 50
185.3954903586449063
 51
193.4962612286620072
  0
ARC
  5
A8E0
  8
0
 10
4396.1733396975496362
 20
257.7166844864967743
 30
0.0
 40
0.2364
 50
90.0
 51
185.3954903586449063
  0
LINE
  5
A8E1
  8
0
 10
4395.9887090711317796
 20
258.1893049588967983
 30
0.0
 11
4410.2864766497787059
 21
258.1893049588967983
 31
0.0
  0
LINE
  5
A8E2
  8
0
 10
4396.0736018129637159
 20
259.4162655183619108
 30
0.0
 11
4395.9400240413569918
 21
258.2438518387232875
 31
0.0
  0
ARC
  5
A8E3
  8
0
 10
4371.6873865351262793
 20
580.8517274944568953
 30
0.0
 40
322.1588026303342076
 50
274.3816195564488112
 51
274.5830886944119129
  0
ARC
  5
A8E4
  8
0
 10
4402.3975289955806147
 20
197.7460808964214891
 30
0.0
 40
62.1757512484970079
 50
91.8420359410623917
 51
94.5830886944119129
  0
ARC
  5
A8E5
  8
0
 10
4404.0524258773039037
 20
146.2889217639944093
 30
0.0
 40
113.6595148023501025
 50
90.4611724490849838
 51
91.8420359410623917
  0
ARC
  5
A8E6
  8
0
 10
4396.3189147487064474
 20
259.3883160361339719
 30
0.0
 40
0.2469
 50
94.3816195563967568
 51
173.5000913814569969
  0
ARC
  5
A8E7
  8
0
 10
4395.9887090711317796
 20
258.2383049588967765
 30
0.0
 40
0.049
 50
173.5000913814506021
 51
270.0
  0
LINE
  5
A8E8
  8
0
 10
4395.9548700122177252
 20
257.8069948214046008
 30
0.0
 11
4395.9558892689037748
 21
258.2019200639298901
 31
0.0
  0
LINE
  5
A8E9
  8
0
 10
4395.6070869294053409
 20
270.5515096830968105
 30
0.0
 11
4410.6680987915051446
 21
270.5515096830968105
 31
0.0
  0
LINE
  5
A8EA
  8
0
 10
4395.6960970573709346
 20
271.3677226260850261
 30
0.0
 11
4395.6070869294053409
 21
270.6840051308407737
 31
0.0
  0
ARC
  5
A8EB
  8
0
 10
4395.9305358006213282
 20
271.3389317305966983
 30
0.0
 40
0.2362
 50
90.0
 51
172.9986908786648883
  0
ARC
  5
A8EC
  8
0
 10
4395.7425653320751735
 20
270.6863626657166719
 30
0.0
 40
0.1354989135034406
 50
180.9969350381174138
 51
264.4032562215829785
  0
LINE
  5
A8ED
  8
0
 10
4395.6070869294053409
 20
270.5515096830968105
 30
0.0
 11
4395.9286336925051728
 21
258.5798346825966973
 31
0.0
  0
ARC
  5
A8EE
  8
0
 10
4396.0467317181382896
 20
258.5830066729715213
 30
0.0
 40
0.1181406161374702
 50
181.5385352635348966
 51
228.5793260917401994
  0
LINE
  5
A8EF
  8
0
 10
4402.1926952897047158
 20
271.6223459037967132
 30
0.0
 11
4402.1926952897047158
 21
271.5751317305968087
 31
0.0
  0
ARC
  5
A8F0
  8
0
 10
4402.2320952897052848
 20
271.6223459037967132
 30
0.0
 40
0.0394
 50
90.0
 51
180.0
  0
ARC
  5
A8F1
  8
0
 10
4398.7350715055354158
 20
242.716884493144704
 30
0.0
 40
0.1181000066480113
 50
172.0727237097065938
 51
269.9999985316907214
  0
LINE
  5
A8F2
  8
0
 10
4398.8063498243463982
 20
244.4751230691967123
 30
0.0
 11
4398.8588801811583835
 21
244.4751230691967123
 31
0.0
  0
LINE
  5
A8F3
  8
0
 10
4398.8063498399042146
 20
243.8720522029967981
 30
0.0
 11
4398.8157200821597144
 21
243.8720522029967981
 31
0.0
  0
ARC
  5
A8F4
  8
0
 10
4399.8742665939498693
 20
244.1735876647688883
 30
0.0
 40
1.118322856239889
 50
164.8205450904112013
 51
195.1794579862167041
  0
ARC
  5
A8F5
  8
0
 10
4398.8063498399042146
 20
243.8838522029967919
 30
0.0
 40
0.0118
 50
195.1794579862151124
 51
270.0
  0
ARC
  5
A8F6
  8
0
 10
4398.8063498243463982
 20
244.4633230691966901
 30
0.0
 40
0.0118
 50
90.0
 51
164.820545090434706
  0
ARC
  5
A8F7
  8
0
 10
4382.7007151544357839
 20
245.3284379930803141
 30
0.0
 40
16.1806811781856794
 50
354.8359503149329157
 51
356.9770101765276991
  0
LINE
  5
A8F8
  8
0
 10
4396.2533130404199255
 20
258.1499348801967244
 30
0.0
 11
4410.0218726804896505
 21
258.1499348801967244
 31
0.0
  0
ARC
  5
A8F9
  8
0
 10
4396.2593290536651693
 20
258.1894892257641914
 30
0.0
 40
0.0400092322923024
 50
180.2638828722652988
 51
261.3518843150559974
  0
ARC
  5
A8FA
  8
0
 10
4396.6521468147038831
 20
257.6812460420500202
 30
0.0
 40
0.4964490343180229
 50
109.2511356775465003
 51
146.7998524449185993
  0
LINE
  5
A8FB
  8
0
 10
4395.9541536646847817
 20
257.5294607624209107
 30
0.0
 11
4395.9540285079046953
 21
257.4809742566968112
 31
0.0
  0
LINE
  5
A8FC
  8
0
 10
4395.9540285079046953
 20
257.4809742566968112
 30
0.0
 11
4395.9591263613319825
 21
257.4809742566968112
 31
0.0
  0
LINE
  5
A8FD
  8
0
 10
4396.9607095748051506
 20
258.1499348801967244
 30
0.0
 11
4396.9607095748051506
 21
258.1372607870966931
 31
0.0
  0
ARC
  5
A8FE
  8
0
 10
4396.9808521707791442
 20
258.1372607870966931
 30
0.0
 40
0.0201425959736925
 50
180.0
 51
218.8676900280399025
  0
ARC
  5
A8FF
  8
0
 10
4397.1581647654538756
 20
258.2801689989397005
 30
0.0
 40
0.2478760218089437
 50
218.8676900280399025
 51
227.0686228473329891
  0
ARC
  5
A900
  8
0
 10
4397.1821102082576544
 20
258.3059090817039873
 30
0.0
 40
0.2830319045567407
 50
227.0686228473329891
 51
237.2968826360398111
  0
ARC
  5
A901
  8
0
 10
4397.1657686472035493
 20
258.2804575304954824
 30
0.0
 40
0.2527857795718737
 50
237.2968826360398111
 51
247.6123878755446128
  0
ARC
  5
A902
  8
0
 10
4397.1729114378440499
 20
258.2977978799996208
 30
0.0
 40
0.2715396372828833
 50
247.6123878755446128
 51
256.8295474334836968
  0
ARC
  5
A903
  8
0
 10
4397.2234208045811101
 20
258.5136462972484992
 30
0.0
 40
0.4932189898557687
 50
256.8295474334836968
 51
263.0554447417852089
  0
ARC
  5
A904
  8
0
 10
4397.3746896301836387
 20
259.7555662577909743
 30
0.0
 40
1.7443174855757071
 50
263.0554447417852089
 51
268.1289650740698107
  0
ARC
  5
A905
  8
0
 10
4397.3496228134781632
 20
258.9882303735740834
 30
0.0
 40
0.976572277510801
 50
268.1289650740698107
 51
278.8348207340368958
  0
ARC
  5
A906
  8
0
 10
4397.4224931072094478
 20
258.5194016979423282
 30
0.0
 40
0.5021142637696574
 50
278.8348207340368958
 51
295.0251892842833854
  0
ARC
  5
A907
  8
0
 10
4397.4968972038832362
 20
258.2935751676538985
 30
0.0
 40
0.2674947283881095
 50
301.0571498968539004
 51
320.6915082814924176
  0
ARC
  5
A908
  8
0
 10
4397.6879353641634225
 20
258.1374980029024755
 30
0.0
 40
0.0208070588464214
 50
319.9818908036018001
 51
359.3467855044181078
  0
LINE
  5
A909
  8
0
 10
4397.7087410708063544
 20
258.1499348801967244
 30
0.0
 11
4397.7087410708063544
 21
258.1372607920968107
 31
0.0
  0
LINE
  5
A90A
  8
0
 10
4397.7087410708063544
 20
258.1463416487966924
 30
0.0
 11
4397.7937817748088491
 21
258.1463416487966924
 31
0.0
  0
ARC
  5
A90B
  8
0
 10
4397.8690023472063331
 20
258.169619919596812
 30
0.0
 40
0.0787401575000035
 50
194.4824472142051945
 51
220.0263467178880035
  0
ARC
  5
A90C
  8
0
 10
4397.8708993318614375
 20
258.1719657032206214
 30
0.0
 40
0.0817034701866249
 50
220.4304572409224079
 51
262.9511219189707276
  0
LINE
  5
A90D
  8
0
 10
4397.8409551123049823
 20
258.0908797620966766
 30
0.0
 11
4398.9660166849052985
 21
258.0908797620966766
 31
0.0
  0
LINE
  5
A90E
  8
0
 10
4398.9660166849052985
 20
258.0908797620966766
 30
0.0
 11
4398.9660142418551914
 21
258.078006795096826
 31
0.0
  0
ARC
  5
A90F
  8
0
 10
4398.9467831052070323
 20
258.0780104448093084
 30
0.0
 40
0.0192311369949669
 50
320.9036850206866234
 51
359.9891263255432818
  0
ARC
  5
A910
  8
0
 10
4398.7535170358787582
 20
258.2350528805454815
 30
0.0
 40
0.2682574411785238
 50
304.8009869649586108
 51
320.9036850206866234
  0
ARC
  5
A911
  8
0
 10
4398.7503219550089852
 20
258.2396498304743773
 30
0.0
 40
0.273855698979742
 50
282.0313707599680129
 51
304.8009869649586108
  0
ARC
  5
A912
  8
0
 10
4398.611637112329845
 20
258.8903586272335247
 30
0.0
 40
0.9391792471640055
 50
273.6500301182799149
 51
282.0313707599680129
  0
LINE
  5
A913
  8
0
 10
4397.8409551150052721
 20
258.0908797620966766
 30
0.0
 11
4397.840958724005759
 21
258.0778627858966843
 31
0.0
  0
ARC
  5
A914
  8
0
 10
4397.8598379420027413
 20
258.0778680202228088
 30
0.0
 40
0.0188792187237453
 50
180.0158854452648995
 51
220.5899710614471871
  0
ARC
  5
A915
  8
0
 10
4398.101430166294449
 20
258.2848642575715985
 30
0.0
 40
0.3370210819137099
 50
220.5899710614471871
 51
231.1525470420878037
  0
ARC
  5
A916
  8
0
 10
4398.0438874466826746
 20
258.2134168028322279
 30
0.0
 40
0.2452828490503963
 50
231.1525470420878037
 51
257.1249785460175872
  0
ARC
  5
A917
  8
0
 10
4398.2002427121597066
 20
258.8974699958625934
 30
0.0
 40
0.946977754217457
 50
257.1249785460175872
 51
265.7596190850745188
  0
ARC
  5
A918
  8
0
 10
4398.9379693338050856
 20
258.169619919596812
 30
0.0
 40
0.0787401574999956
 50
316.0033518061712812
 51
345.5175527857962834
  0
ARC
  5
A919
  8
0
 10
4398.9379693338050856
 20
258.169619919596812
 30
0.0
 40
0.0787401575000103
 50
290.0759816712882753
 51
316.0033518061712812
  0
ARC
  5
A91A
  8
0
 10
4398.9371823879173462
 20
258.1717731467476824
 30
0.0
 40
0.0810326825262377
 50
273.360021077465376
 51
290.0759816712882753
  0
ARC
  5
A91B
  8
0
 10
4398.8928613188054442
 20
257.6830107432967907
 30
0.0
 40
0.8303950066000056
 50
18.9835273802943689
 51
34.2193596403031322
  0
ARC
  5
A91C
  8
0
 10
4401.9771969521589199
 20
233.5574310633593029
 30
0.0
 40
24.4719534156793692
 50
89.6464328124391727
 51
94.5255567291863343
  0
ARC
  5
A91D
  8
0
 10
4402.9967119126204125
 20
231.2692412331846867
 30
0.0
 40
26.7737674656659905
 50
89.6985138164212259
 51
91.8589169694513856
  0
ARC
  5
A91E
  8
0
 10
4396.9132413801498842
 20
268.9340218007034764
 30
0.0
 40
9.5544605044209945
 50
264.9585598324659941
 51
267.957882858322705
  0
ARC
  5
A91F
  8
0
 10
4389.3476293468711447
 20
56.7551699831022276
 30
0.0
 40
202.7592311032416035
 50
87.4478175050663395
 51
87.957882858322705
  0
ARC
  5
A920
  8
0
 10
4400.164849504069025
 20
299.4380861628803814
 30
0.0
 40
40.1646459806105085
 50
267.4478175050663253
 51
270.5320537357540047
  0
ARC
  5
A921
  8
0
 10
4402.7976246745065509
 20
480.9947884535566232
 30
0.0
 40
221.7311324509367125
 50
269.4160508585366074
 51
270.0878485111168175
  0
ARC
  5
A922
  8
0
 10
4442.1273762048813296
 20
247.5232609891345987
 30
0.0
 40
34.8015212294238481
 50
185.8170293203266965
 51
187.9113181507892989
  0
ARC
  5
A923
  8
0
 10
4421.2662193072319496
 20
245.5943477892780038
 30
0.0
 40
13.8487970457028293
 50
178.1550124857650133
 51
184.6355553901765916
  0
ARC
  5
A924
  8
0
 10
4416.6048047813546873
 20
245.744502398769697
 30
0.0
 40
9.1849647385960047
 50
166.4550229728654926
 51
178.1550124857650133
  0
ARC
  5
A925
  8
0
 10
4433.1861676229591467
 20
241.7499002301366033
 30
0.0
 40
26.2407098167378585
 50
161.2804651713985038
 51
166.4550229728654926
  0
ARC
  5
A926
  8
0
 10
4426.6641607807541732
 20
243.9599564617913927
 30
0.0
 40
19.354424766230629
 50
156.360929562312009
 51
161.2804651713985038
  0
ARC
  5
A927
  8
0
 10
4396.4661614030683268
 20
257.1776680402094826
 30
0.0
 40
13.6096020779665601
 50
336.3609295623119806
 51
348.2032485672295934
  0
ARC
  5
A928
  8
0
 10
4386.767203063949637
 20
259.9206046542203126
 30
0.0
 40
23.6748902702549096
 50
346.5037387713363728
 51
354.6045096413550937
  0
ARC
  5
A929
  8
0
 10
4410.1018460233608494
 20
257.7166844864967743
 30
0.0
 40
0.2364
 50
354.6045096413550937
 51
90.0
  0
LINE
  5
A92A
  8
0
 10
4410.2015839079467696
 20
259.4162655183619108
 30
0.0
 11
4410.3351616795544032
 21
258.2438518387232875
 31
0.0
  0
ARC
  5
A92B
  8
0
 10
4434.5877991857832967
 20
580.8517274944568953
 30
0.0
 40
322.1588026303342076
 50
265.4169113055880871
 51
265.6183804435511888
  0
ARC
  5
A92C
  8
0
 10
4403.8776567253289613
 20
197.7460808964214891
 30
0.0
 40
62.1757512484970079
 50
85.4169113055880871
 51
88.1579640589376083
  0
ARC
  5
A92D
  8
0
 10
4402.2227598436065819
 20
146.2889217639944093
 30
0.0
 40
113.6595148023501025
 50
88.1579640589376083
 51
89.538827550915002
  0
ARC
  5
A92E
  8
0
 10
4409.9562709722031286
 20
259.3883160361339719
 30
0.0
 40
0.2469
 50
6.4999086185429178
 51
85.618380443603229
  0
ARC
  5
A92F
  8
0
 10
4410.2864766497787059
 20
258.2383049588967765
 30
0.0
 40
0.049
 50
270.0
 51
6.4999086185510091
  0
LINE
  5
A930
  8
0
 10
4410.3203157086909414
 20
257.8069948214046008
 30
0.0
 11
4410.3192964520058013
 21
258.2019200639298901
 31
0.0
  0
LINE
  5
A931
  8
0
 10
4410.5790886635395509
 20
271.3677226260850261
 30
0.0
 11
4410.6680987915051446
 21
270.6840051308407737
 31
0.0
  0
ARC
  5
A932
  8
0
 10
4410.3446499202891573
 20
271.3389317305966983
 30
0.0
 40
0.2362
 50
7.0013091213350949
 51
90.0
  0
ARC
  5
A933
  8
0
 10
4410.532328391581359
 20
270.6866321139303864
 30
0.0
 40
0.135795811922635
 50
275.7082702699995025
 51
358.8915384703232121
  0
LINE
  5
A934
  8
0
 10
4410.6680987915051446
 20
270.5515096830968105
 30
0.0
 11
4410.3465520284053127
 21
258.5798346825966973
 31
0.0
  0
ARC
  5
A935
  8
0
 10
4410.228454002772196
 20
258.5830066729715213
 30
0.0
 40
0.1181406161374702
 50
311.4206739082598006
 51
358.461464736465075
  0
LINE
  5
A936
  8
0
 10
4404.0824904312057697
 20
271.6223459037967132
 30
0.0
 11
4404.0824904312057697
 21
271.5751317305968087
 31
0.0
  0
ARC
  5
A937
  8
0
 10
4404.0430904312052007
 20
271.6223459037967132
 30
0.0
 40
0.0394
 50
0.0
 51
90.0
  0
ARC
  5
A938
  8
0
 10
4407.5401142153750698
 20
242.716884493144704
 30
0.0
 40
0.1181000066480103
 50
270.0000014683093923
 51
7.9272762902998331
  0
LINE
  5
A939
  8
0
 10
4407.4688358965649968
 20
244.4751230691967123
 30
0.0
 11
4407.416305539752102
 21
244.4751230691967123
 31
0.0
  0
LINE
  5
A93A
  8
0
 10
4407.4688358810062709
 20
243.8720522029967981
 30
0.0
 11
4407.4594656387498617
 21
243.8720522029967981
 31
0.0
  0
ARC
  5
A93B
  8
0
 10
4406.4009191269587973
 20
244.1735876647688883
 30
0.0
 40
1.118322856239889
 50
344.8205420137833244
 51
15.17945490958882
  0
ARC
  5
A93C
  8
0
 10
4407.4688358810062709
 20
243.8838522029967919
 30
0.0
 40
0.0118
 50
270.0
 51
344.820542013784916
  0
ARC
  5
A93D
  8
0
 10
4407.4688358965649968
 20
244.4633230691966901
 30
0.0
 40
0.0118
 50
15.1794549095652496
 51
90.0
  0
ARC
  5
A93E
  8
0
 10
4423.5744705664737921
 20
245.3284379930803141
 30
0.0
 40
16.1806811781856794
 50
183.0229898234705956
 51
185.164049685066999
  0
ARC
  5
A93F
  8
0
 10
4410.0158566672462257
 20
258.1894892257641914
 30
0.0
 40
0.0400092322923024
 50
278.6481156849441163
 51
359.7361171277329959
  0
ARC
  5
A940
  8
0
 10
4409.6230389062056929
 20
257.6812460420500202
 30
0.0
 40
0.4964490343180229
 50
33.200147555081351
 51
70.748864322453457
  0
LINE
  5
A941
  8
0
 10
4410.3210320562247944
 20
257.5294607624209107
 30
0.0
 11
4410.3211572130048808
 21
257.4809742566968112
 31
0.0
  0
LINE
  5
A942
  8
0
 10
4410.3211572130048808
 20
257.4809742566968112
 30
0.0
 11
4410.3160593595766841
 21
257.4809742566968112
 31
0.0
  0
LINE
  5
A943
  8
0
 10
4409.3144761461053349
 20
258.1499348801967244
 30
0.0
 11
4409.3144761461053349
 21
258.1372607870966931
 31
0.0
  0
ARC
  5
A944
  8
0
 10
4409.2943335501313413
 20
258.1372607870966931
 30
0.0
 40
0.0201425959736925
 50
321.1323099719601259
 51
0.0
  0
ARC
  5
A945
  8
0
 10
4409.11702095545661
 20
258.2801689989397005
 30
0.0
 40
0.2478760218089437
 50
312.9313771526669825
 51
321.1323099719601259
  0
ARC
  5
A946
  8
0
 10
4409.0930755126528311
 20
258.3059090817039873
 30
0.0
 40
0.2830319045567407
 50
302.7031173639601889
 51
312.9313771526669825
  0
ARC
  5
A947
  8
0
 10
4409.1094170737069362
 20
258.2804575304954824
 30
0.0
 40
0.2527857795718737
 50
292.3876121244553019
 51
302.7031173639601889
  0
ARC
  5
A948
  8
0
 10
4409.1022742830673451
 20
258.2977978799996208
 30
0.0
 40
0.2715396372828833
 50
283.1704525665163032
 51
292.3876121244553019
  0
ARC
  5
A949
  8
0
 10
4409.0517649163293754
 20
258.5136462972484992
 30
0.0
 40
0.4932189898557687
 50
276.9445552582149048
 51
283.1704525665163032
  0
ARC
  5
A94A
  8
0
 10
4408.9004960907277564
 20
259.7555662577909743
 30
0.0
 40
1.7443174855757071
 50
271.8710349259300756
 51
276.9445552582149048
  0
ARC
  5
A94B
  8
0
 10
4408.9255629074323224
 20
258.9882303735740834
 30
0.0
 40
0.976572277510801
 50
261.1651792659629905
 51
271.8710349259300756
  0
ARC
  5
A94C
  8
0
 10
4408.8526926137010378
 20
258.5194016979423282
 30
0.0
 40
0.5021142637696574
 50
244.9748107157165862
 51
261.1651792659629905
  0
ARC
  5
A94D
  8
0
 10
4408.7782885170272493
 20
258.2935751676538985
 30
0.0
 40
0.2674947283881095
 50
219.3084917185076108
 51
238.9428501031459859
  0
ARC
  5
A94E
  8
0
 10
4408.5872503567470631
 20
258.1374980029024755
 30
0.0
 40
0.0208070588464214
 50
180.6532144955818069
 51
220.0181091963980862
  0
LINE
  5
A94F
  8
0
 10
4408.5664446501041311
 20
258.1499348801967244
 30
0.0
 11
4408.5664446501041311
 21
258.1372607920968107
 31
0.0
  0
LINE
  5
A950
  8
0
 10
4408.5664446501041311
 20
258.1463416487966924
 30
0.0
 11
4408.4814039461007269
 21
258.1463416487966924
 31
0.0
  0
ARC
  5
A951
  8
0
 10
4408.406183373705062
 20
258.169619919596812
 30
0.0
 40
0.0787401575000035
 50
319.973653282112025
 51
345.5175527857948055
  0
ARC
  5
A952
  8
0
 10
4408.404286389049048
 20
258.1719657032206214
 30
0.0
 40
0.0817034701866249
 50
277.0488780810293861
 51
319.5695427590775921
  0
LINE
  5
A953
  8
0
 10
4408.4342306086045937
 20
258.0908797620966766
 30
0.0
 11
4407.3091690360051871
 21
258.0908797620966766
 31
0.0
  0
LINE
  5
A954
  8
0
 10
4407.3091690360051871
 20
258.0908797620966766
 30
0.0
 11
4407.3091714790552942
 21
258.078006795096826
 31
0.0
  0
ARC
  5
A955
  8
0
 10
4407.3284026157043627
 20
258.0780104448093084
 30
0.0
 40
0.0192311369949669
 50
180.0108736744566897
 51
219.0963149793120976
  0
ARC
  5
A956
  8
0
 10
4407.5216686850308179
 20
258.2350528805454815
 30
0.0
 40
0.2682574411785238
 50
219.096314979313405
 51
235.199013035041304
  0
ARC
  5
A957
  8
0
 10
4407.5248637659005908
 20
258.2396498304743773
 30
0.0
 40
0.273855698979742
 50
235.199013035041304
 51
257.9686292400319871
  0
ARC
  5
A958
  8
0
 10
4407.6635486085797311
 20
258.8903586272335247
 30
0.0
 40
0.9391792471640055
 50
257.9686292400319871
 51
266.3499698817200851
  0
LINE
  5
A959
  8
0
 10
4408.434230605904304
 20
258.0908797620966766
 30
0.0
 11
4408.4342269969047265
 21
258.0778627858966843
 31
0.0
  0
ARC
  5
A95A
  8
0
 10
4408.4153477789059252
 20
258.0778680202228088
 30
0.0
 40
0.0188792187237453
 50
319.4100289385527844
 51
359.9841145547350152
  0
ARC
  5
A95B
  8
0
 10
4408.1737555546160365
 20
258.2848642575715985
 30
0.0
 40
0.3370210819137099
 50
308.8474529579121963
 51
319.4100289385527844
  0
ARC
  5
A95C
  8
0
 10
4408.2312982742278109
 20
258.2134168028322279
 30
0.0
 40
0.2452828490503963
 50
282.8750214539824128
 51
308.8474529579121963
  0
ARC
  5
A95D
  8
0
 10
4408.0749430087498695
 20
258.8974699958625934
 30
0.0
 40
0.946977754217457
 50
274.2403809149254812
 51
282.8750214539824128
  0
ARC
  5
A95E
  8
0
 10
4407.3372163871053999
 20
258.169619919596812
 30
0.0
 40
0.0787401574999956
 50
194.4824472142036029
 51
223.9966481938286904
  0
ARC
  5
A95F
  8
0
 10
4407.3372163871053999
 20
258.169619919596812
 30
0.0
 40
0.0787401575000103
 50
223.9966481938286904
 51
249.9240183287116963
  0
ARC
  5
A960
  8
0
 10
4407.3380033329940488
 20
258.1717731467476824
 30
0.0
 40
0.0810326825262377
 50
249.9240183287116963
 51
266.639978922534624
  0
ARC
  5
A961
  8
0
 10
4407.3823244021050414
 20
257.6830107432967907
 30
0.0
 40
0.8303950066000056
 50
145.7855742330033877
 51
161.0201707157422959
  0
ARC
  5
A962
  8
0
 10
4404.2979887687506562
 20
233.5574310633593029
 30
0.0
 40
24.4719534156793692
 50
85.4744432708136941
 51
90.3535671875608131
  0
ARC
  5
A963
  8
0
 10
4403.2784738082909826
 20
231.2692412331846867
 30
0.0
 40
26.7737674656659905
 50
88.1410830305486144
 51
90.3014861835787883
  0
ARC
  5
A964
  8
0
 10
4409.3619443407606013
 20
268.9340218007034764
 30
0.0
 40
9.5544605044209945
 50
272.0421171416771813
 51
275.0414401675340059
  0
ARC
  5
A965
  8
0
 10
4416.9275563740393409
 20
56.7551699831022276
 30
0.0
 40
202.7592311032416035
 50
92.0421171416772808
 51
92.5521824949336747
  0
ARC
  5
A966
  8
0
 10
4406.1103362168405511
 20
299.4380861628803814
 30
0.0
 40
40.1646459806105085
 50
269.4679462642459953
 51
272.5521824949336747
  0
ARC
  5
A967
  8
0
 10
4403.4775610464030251
 20
480.9947884535566232
 30
0.0
 40
221.7311324509367125
 50
269.9121514888831825
 51
270.5839491414633926
  0
ENDSEC
  0
EOF
