  0
SECTION
  2
HEADER
  9
$ACADVER
  1
AC1009
  9
$INSBASE
 10
4382.0485793508032657
 20
263.1804043245065259
 30
0.0
  9
$EXTMIN
 10
4374.5034096545387001
 20
235.3743361673903962
 30
-0.0000000000112498
  9
$EXTMAX
 10
4389.8307933532360039
 20
263.1823761194464737
 30
0.0000000000002956
  9
$LIMMIN
 10
0.0
 20
0.0
  9
$LIMMAX
 10
11.6929133858000007
 20
8.2677165353999982
  9
$ORTHOMODE
 70
     0
  9
$REGENMODE
 70
     1
  9
$FILLMODE
 70
     1
  9
$QTEXTMODE
 70
     0
  9
$MIRRTEXT
 70
     0
  9
$DRAGMODE
 70
     2
  9
$LTSCALE
 40
0.6431102362
  9
$OSMODE
 70
  4095
  9
$ATTMODE
 70
     1
  9
$TEXTSIZE
 40
0.2
  9
$TRACEWID
 40
0.05
  9
$TEXTSTYLE
  7
STANDARD
  9
$CLAYER
  8
0
  9
$CELTYPE
  6
BYLAYER
  9
$CECOLOR
 62
   256
  9
$DIMSCALE
 40
1.0
  9
$DIMASZ
 40
0.1875
  9
$DIMEXO
 40
0.0625
  9
$DIMDLI
 40
0.4443307087
  9
$DIMRND
 40
0.0
  9
$DIMDLE
 40
0.0
  9
$DIMEXE
 40
0.125
  9
$DIMTP
 40
0.01
  9
$DIMTM
 40
0.01
  9
$DIMTXT
 40
2.0
  9
$DIMCEN
 40
0.1052362205
  9
$DIMTSZ
 40
0.0
  9
$DIMTOL
 70
     1
  9
$DIMLIM
 70
     0
  9
$DIMTIH
 70
     1
  9
$DIMTOH
 70
     1
  9
$DIMSE1
 70
     0
  9
$DIMSE2
 70
     0
  9
$DIMTAD
 70
     0
  9
$DIMZIN
 70
     0
  9
$DIMBLK
  1

  9
$DIMASO
 70
     1
  9
$DIMSHO
 70
     1
  9
$DIMPOST
  1
\X
  9
$DIMAPOST
  1

  9
$DIMALT
 70
     1
  9
$DIMALTD
 70
     2
  9
$DIMALTF
 40
25.3999999999999986
  9
$DIMLFAC
 40
1.0
  9
$DIMTOFL
 70
     0
  9
$DIMTVP
 40
0.0
  9
$DIMTIX
 70
     0
  9
$DIMSOXD
 70
     0
  9
$DIMSAH
 70
     0
  9
$DIMBLK1
  1

  9
$DIMBLK2
  1

  9
$DIMSTYLE
  2
STANDARD
  9
$DIMCLRD
 70
     0
  9
$DIMCLRE
 70
     0
  9
$DIMCLRT
 70
     0
  9
$DIMTFAC
 40
1.0
  9
$DIMGAP
 40
0.09
  9
$LUNITS
 70
     2
  9
$LUPREC
 70
     4
  9
$SKETCHINC
 40
0.1
  9
$FILLETRAD
 40
0.0
  9
$AUNITS
 70
     0
  9
$AUPREC
 70
     0
  9
$MENU
  1
.
  9
$ELEVATION
 40
0.0
  9
$PELEVATION
 40
0.0
  9
$THICKNESS
 40
0.0
  9
$LIMCHECK
 70
     0
  9
$BLIPMODE
 70
     0
  9
$CHAMFERA
 40
0.0
  9
$CHAMFERB
 40
0.0
  9
$SKPOLY
 70
     0
  9
$TDCREATE
 40
2458060.468368056230247
  9
$TDUPDATE
 40
2459983.5282754627987742
  9
$TDINDWG
 40
0.6212570602
  9
$TDUSRTIMER
 40
0.6212570602
  9
$USRTIMER
 70
     1
  9
$ANGBASE
 50
0.0
  9
$ANGDIR
 70
     0
  9
$PDMODE
 70
     0
  9
$PDSIZE
 40
0.3125
  9
$PLINEWID
 40
0.0
  9
$COORDS
 70
     1
  9
$SPLFRAME
 70
     0
  9
$SPLINETYPE
 70
     6
  9
$SPLINESEGS
 70
     8
  9
$ATTDIA
 70
     1
  9
$ATTREQ
 70
     1
  9
$HANDLING
 70
     1
  9
$HANDSEED
  5
AD0A
  9
$SURFTAB1
 70
     6
  9
$SURFTAB2
 70
     6
  9
$SURFTYPE
 70
     6
  9
$SURFU
 70
     6
  9
$SURFV
 70
     6
  9
$UCSNAME
  2

  9
$UCSORG
 10
0.0
 20
0.0
 30
0.0
  9
$UCSXDIR
 10
1.0
 20
0.0
 30
0.0
  9
$UCSYDIR
 10
0.0
 20
1.0
 30
0.0
  9
$PUCSNAME
  2

  9
$PUCSORG
 10
0.0
 20
0.0
 30
0.0
  9
$PUCSXDIR
 10
1.0
 20
0.0
 30
0.0
  9
$PUCSYDIR
 10
0.0
 20
1.0
 30
0.0
  9
$USERI1
 70
     0
  9
$USERI2
 70
     0
  9
$USERI3
 70
     0
  9
$USERI4
 70
     0
  9
$USERI5
 70
     0
  9
$USERR1
 40
0.0
  9
$USERR2
 40
0.0
  9
$USERR3
 40
0.0
  9
$USERR4
 40
0.0
  9
$USERR5
 40
0.0
  9
$WORLDVIEW
 70
     1
  9
$SHADEDGE
 70
     3
  9
$SHADEDIF
 70
    70
  9
$TILEMODE
 70
     1
  9
$MAXACTVP
 70
    64
  9
$PLIMCHECK
 70
     0
  9
$PEXTMIN
 10
1.0000000000000000E+20
 20
1.0000000000000000E+20
 30
1.0000000000000000E+20
  9
$PEXTMAX
 10
-1.0000000000000000E+20
 20
-1.0000000000000000E+20
 30
-1.0000000000000000E+20
  9
$PLIMMIN
 10
0.0
 20
0.0
  9
$PLIMMAX
 10
12.0
 20
9.0
  9
$UNITMODE
 70
     0
  9
$VISRETAIN
 70
     1
  9
$PLINEGEN
 70
     0
  9
$PSLTSCALE
 70
     1
  0
ENDSEC
  0
SECTION
  2
TABLES
  0
TABLE
  2
VPORT
 70
     1
  0
VPORT
  2
*ACTIVE
 70
     0
 10
0.0
 20
0.0
 11
1.0
 21
1.0
 12
98.098253847637352
 22
24.0299964632426999
 13
0.0
 23
0.0
 14
1.0
 24
1.0
 15
0.0
 25
0.0
 16
0.0
 26
0.0
 36
27.5337298366232197
 17
4284.0688476562490905
 27
225.2483596801758097
 37
0.0
 40
28.0284471379376612
 41
1.644179894179894
 42
50.0
 43
0.0
 44
0.0
 50
0.0
 51
0.0
 71
     0
 72
   100
 73
     1
 74
     1
 75
     0
 76
     0
 77
     0
 78
     0
  0
ENDTAB
  0
TABLE
  2
LTYPE
 70
     2
  0
LTYPE
  2
CONTINUOUS
 70
     0
  3
Solid line
 72
    65
 73
     0
 40
0.0
  0
LTYPE
  2
PHANTOM2
 70
     0
  3
___ _ _ ___ _ _ ___ _ _ ___ _ _
 72
    65
 73
     6
 40
1.25
 49
0.625
 49
-0.125
 49
0.125
 49
-0.125
 49
0.125
 49
-0.125
  0
ENDTAB
  0
TABLE
  2
LAYER
 70
     2
  0
LAYER
  2
0
 70
     0
 62
   255
  6
CONTINUOUS
  0
LAYER
  2
DEFPOINTS
 70
     0
 62
     7
  6
CONTINUOUS
  0
ENDTAB
  0
TABLE
  2
STYLE
 70
     1
  0
STYLE
  2
STANDARD
 70
     0
 40
0.0
 41
0.8
 50
0.0
 71
     0
 42
0.2
  3
txt
  4

  0
ENDTAB
  0
TABLE
  2
VIEW
 70
     0
  0
ENDTAB
  0
TABLE
  2
UCS
 70
     0
  0
ENDTAB
  0
TABLE
  2
APPID
 70
     9
  0
APPID
  2
ACAD
 70
     0
  0
APPID
  2
ACAD_MLEADERVER
 70
     0
  0
APPID
  2
ACAD_EXEMPT_FROM_CAD_STANDARDS
 70
     0
  0
APPID
  2
ACAD_NAV_VCDISPLAY
 70
     0
  0
APPID
  2
ACAECLAYERSTANDARD
 70
     0
  0
APPID
  2
ACCMTRANSPARENCY
 70
     0
  0
APPID
  2
ACAD_DSTYLE_DIMJAG
 70
     0
  0
APPID
  2
ACAD_DSTYLE_DIMTALN
 70
     0
  0
APPID
  2
ACDBATTR
 70
     0
  0
ENDTAB
  0
TABLE
  2
DIMSTYLE
 70
     1
  0
DIMSTYLE
  2
STANDARD
 70
     0
  3

  4

  5

  6

  7

 40
1.0
 41
0.1875
 42
0.0625
 43
0.38
 44
0.125
 45
0.0
 46
0.0
 47
0.01
 48
0.01
140
0.15625
141
0.09
142
0.0
143
25.3999999999999986
144
1.0
145
0.0
146
1.0
147
0.09
 71
     1
 72
     0
 73
     1
 74
     1
 75
     0
 76
     0
 77
     0
 78
     4
170
     0
171
     2
172
     0
173
     0
174
     0
175
     0
176
     0
177
     0
178
     0
  0
ENDTAB
  0
ENDSEC
  0
SECTION
  2
BLOCKS
  0
BLOCK
  8
0
  2
$MODEL_SPACE
 70
     0
 10
0.0
 20
0.0
 30
0.0
  3
$MODEL_SPACE
  1

  0
ENDBLK
  5
21
  8
0
  0
BLOCK
 67
     1
  8
0
  2
$PAPER_SPACE
 70
     0
 10
0.0
 20
0.0
 30
0.0
  3
$PAPER_SPACE
  1

  0
ENDBLK
  5
1D
 67
     1
  8
0
  0
BLOCK
  8
0
  2
_FILLED
 70
     0
 10
0.0
 20
0.0
 30
0.0
  3
_FILLED
  1

  0
SOLID
  5
AB58
  8
0
  6
BYBLOCK
 62
     0
 10
0.0
 20
0.0
 30
0.0
 11
-1.0
 21
0.1666666667
 31
0.0
 12
-1.0
 22
-0.1666666667
 32
0.0
 13
-1.0
 23
-0.1666666667
 33
0.0
  0
ENDBLK
  5
AB59
  8
0
  6
BYBLOCK
 62
     0
  0
ENDSEC
  0
SECTION
  2
ENTITIES
  0
ATTDEF
  5
3930
  8
DEFPOINTS
 10
4382.0438497252707748
 20
263.1786729267877831
 30
0.0
 40
0.001
  1
K-21017K
  3

  2
MODELNUMBER
 70
     0
1001
ACDBATTR
1070
     0
1070
     1
  0
ATTDEF
  5
3931
  8
DEFPOINTS
 10
4382.0438497252707748
 20
263.1770062601211748
 30
0.0
 40
0.001
  1
REACH UP
  3

  2
TRADENAME
 70
     0
1001
ACDBATTR
1070
     0
1070
     1
  0
ATTDEF
  5
3932
  8
DEFPOINTS
 10
4382.0438497252707748
 20
263.1753395934545097
 30
0.0
 40
0.001
  1
TOILET
  3

  2
PRODUCT
 70
     0
1001
ACDBATTR
1070
     0
1070
     1
  0
LINE
  5
ABF3
  8
0
 10
4374.5180734197529091
 20
261.7966042970967919
 30
0.0
 11
4374.5180734197529091
 21
258.2908281975815044
 31
0.0
  0
LINE
  5
ABF4
  8
0
 10
4374.9118734197536469
 20
262.1904043245065168
 30
0.0
 11
4389.1852852818528845
 21
262.1904043245065168
 31
0.0
  0
ARC
  5
ABF5
  8
0
 10
4381.4650250502509152
 20
310.2663622606884815
 30
0.0
 40
53.9620474210878527
 50
264.3488476111062937
 51
267.1967551685935973
  0
ARC
  5
ABF6
  8
0
 10
4384.14847481077868
 20
365.0698689362386062
 30
0.0
 40
108.8312122275100933
 50
267.1967551685935973
 51
268.1588172279271021
  0
ARC
  5
ABF7
  8
0
 10
4381.7421467258618577
 20
290.2131058143751261
 30
0.0
 40
33.9357824608346377
 50
268.1588172279271021
 51
270.5173752730477759
  0
ARC
  5
ABF8
  8
0
 10
4376.4077343076523903
 20
258.3914884329946062
 30
0.0
 40
1.892340020780416
 50
183.0492035900375924
 51
204.5742440021001016
  0
ARC
  5
ABF9
  8
0
 10
4376.2802992369861386
 20
258.3332133935061847
 30
0.0
 40
1.752212659201462
 50
204.5742443615980903
 51
227.2452784119209923
  0
ARC
  5
ABFA
  8
0
 10
4376.3425527662047898
 20
258.400547749155578
 30
0.0
 40
1.843915534570473
 50
227.2452784119209923
 51
264.046764076021816
  0
ARC
  5
ABFB
  8
0
 10
4374.9118734197536469
 20
261.796604324506518
 30
0.0
 40
0.3937999999999349
 50
90.0
 51
180.0000039879664939
  0
LINE
  5
ABFC
  8
0
 10
4377.8369443099618366
 20
253.6076184579063977
 30
0.0
 11
4386.2602143916446948
 21
253.6076184579065114
 31
0.0
  0
LINE
  5
ABFD
  8
0
 10
4378.2847841422535566
 20
253.6076184579063977
 30
0.0
 11
4378.2847841422535566
 21
253.7701647237065004
 31
0.0
  0
LINE
  5
ABFE
  8
0
 10
4378.2847841422535566
 20
253.7701647237065004
 30
0.0
 11
4377.8123431973526749
 21
253.7701647237065004
 31
0.0
  0
ARC
  5
ABFF
  8
0
 10
4377.8123431973526749
 20
253.7310396744445029
 30
0.0
 40
0.0391250492619335
 50
90.0
 51
182.1009199336220092
  0
LINE
  5
AC00
  8
0
 10
4377.7732444477423996
 20
253.7296053597715968
 30
0.0
 11
4377.7729731185527271
 21
253.6200037486063934
 31
0.0
  0
ARC
  5
AC01
  8
0
 10
4377.840641586343736
 20
253.7981164938597942
 30
0.0
 40
0.1905339118233755
 50
249.1972499194104103
 51
268.8881158893490806
  0
ARC
  5
AC02
  8
0
 10
4377.7888357153224206
 20
253.6617562922884872
 30
0.0
 40
0.044664268494697
 50
224.7203939336046119
 51
249.1972499194110071
  0
ARC
  5
AC03
  8
0
 10
4377.7638675261250683
 20
253.6370306134020893
 30
0.0
 40
0.0095249789718017
 50
180.5018900807766897
 51
224.7203939336033898
  0
ARC
  5
AC04
  8
0
 10
4375.6956236775276921
 20
253.6189130900579869
 30
0.0
 40
2.058798221573412
 50
0.5018900807767162
 51
3.6429753614475362
  0
LINE
  5
AC05
  8
0
 10
4374.847926187898338
 20
247.2871869364414863
 30
0.0
 11
4374.847926187898338
 21
257.3239777167128182
 31
0.0
  0
LINE
  5
AC06
  8
0
 10
4377.7077092164736314
 20
253.7701647237065004
 30
0.0
 11
4375.1719386948943793
 21
253.7701647237065004
 31
0.0
  0
ARC
  5
AC07
  8
0
 10
4377.7031959189880581
 20
253.7062498767523095
 30
0.0
 40
0.0640740003072195
 50
42.7303801981269231
 51
85.9608075734728061
  0
ARC
  5
AC08
  8
0
 10
4342.8783152563601107
 20
245.7436612340561908
 30
0.0
 40
32.0068507464863714
 50
1.4190434459180341
 51
2.7641527077466139
  0
ARC
  5
AC09
  8
0
 10
4408.2674048804710765
 20
247.7532747208722981
 30
0.0
 40
33.4142241624685923
 50
182.0872346810830891
 51
183.2029338825182947
  0
ARC
  5
AC0A
  8
0
 10
4395.7567197200705778
 20
246.9028594397805136
 30
0.0
 40
20.8761064376937284
 50
182.7910210217679037
 51
184.6632736343173917
  0
ARC
  5
AC0B
  8
0
 10
4404.9585855204895779
 20
247.7641079086492084
 30
0.0
 40
30.1177324776370092
 50
184.8730871861164928
 51
187.4323658047364063
  0
ARC
  5
AC0C
  8
0
 10
4398.7521036213547632
 20
246.9968158659922892
 30
0.0
 40
23.8641792059060798
 50
187.5332011174876925
 51
190.0344775764581016
  0
ARC
  5
AC0D
  8
0
 10
4385.0097023784655903
 20
244.1781606340813937
 30
0.0
 40
9.8482444084742635
 50
187.8170130437482896
 51
198.3263510293247123
  0
ARC
  5
AC0E
  8
0
 10
4392.2870261403786571
 20
246.5886189244533
 30
0.0
 40
17.5143875264514115
 50
198.3263510293247123
 51
206.3732319275686109
  0
ARC
  5
AC0F
  8
0
 10
4382.1928381912393888
 20
241.5836971443227981
 30
0.0
 40
6.2475391482323701
 50
206.3732319275686109
 51
229.8096027749637926
  0
ARC
  5
AC10
  8
0
 10
4382.2555800752861614
 20
241.6579673832771107
 30
0.0
 40
6.3447636945575212
 50
229.8096027749637926
 51
244.0911021625061892
  0
ARC
  5
AC11
  8
0
 10
4381.8697937760980494
 20
240.8637857646025111
 30
0.0
 40
5.4618392855156017
 50
244.0911021625061892
 51
263.0365932805132161
  0
ARC
  5
AC12
  8
0
 10
4382.0771809828747791
 20
242.5617837407747004
 30
0.0
 40
7.1724551338636662
 50
263.0365932805132161
 51
269.7715207530101225
  0
ARC
  5
AC13
  8
0
 10
4375.208455337497071
 20
253.4166814933558953
 30
0.0
 40
0.3553644035719374
 50
95.8980280327181447
 51
135.4297298426500049
  0
ARC
  5
AC14
  8
0
 10
4375.1315302399043503
 20
253.492461252407594
 30
0.0
 40
0.2473827267855356
 50
135.4297298426500049
 51
177.5356401787655045
  0
ARC
  5
AC15
  8
0
 10
4398.5249348244251451
 20
252.485662093219986
 30
0.0
 40
23.6624424662353405
 50
177.5356401787655045
 51
180.5761509552426105
  0
ARC
  5
AC16
  8
0
 10
4281.9583365291291557
 20
251.3134602084201958
 30
0.0
 40
92.910049552231456
 50
358.8818927241460983
 51
0.5761509552426674
  0
LINE
  5
AC17
  8
0
 10
4379.3181162944965763
 20
253.6488758353065123
 30
0.0
 11
4384.7790424071099551
 21
253.6488758353065123
 31
0.0
  0
ARC
  5
AC18
  8
0
 10
4379.3516953997741439
 20
252.4201749154914012
 30
0.0
 40
1.2291596750079259
 50
91.5654438088681673
 51
104.9699895326814953
  0
LINE
  5
AC19
  8
0
 10
4389.5790852818527128
 20
261.7966033090081055
 30
0.0
 11
4389.5790852818527128
 21
258.2908306633210032
 31
0.0
  0
ARC
  5
AC1A
  8
0
 10
4382.6321336513556162
 20
310.2663622606884815
 30
0.0
 40
53.9620474210878527
 50
272.8032448314065164
 51
275.6511523888937063
  0
ARC
  5
AC1B
  8
0
 10
4379.9486838908278514
 20
365.0698689362386062
 30
0.0
 40
108.8312122275100933
 50
271.8411827720727842
 51
272.8032448314065164
  0
ARC
  5
AC1C
  8
0
 10
4382.3550119757446737
 20
290.2131058143751261
 30
0.0
 40
33.9357824608346377
 50
269.4826247269522241
 51
271.8411827720727842
  0
ARC
  5
AC1D
  8
0
 10
4387.6894279334092062
 20
258.3914872012157957
 30
0.0
 40
1.8923362896570131
 50
335.4257453476503201
 51
356.9509025035957279
  0
ARC
  5
AC1E
  8
0
 10
4387.8168594646213023
 20
258.3332133935061847
 30
0.0
 40
1.752212659201462
 50
312.754721588078894
 51
335.4257556384018812
  0
ARC
  5
AC1F
  8
0
 10
4387.7546059354017416
 20
258.400547749155578
 30
0.0
 40
1.843915534570473
 50
275.953235923978184
 51
312.754721588078894
  0
ARC
  5
AC20
  8
0
 10
4389.1852853132359087
 20
261.7966043558872116
 30
0.0
 40
0.3937999686192526
 50
359.9998476847121083
 51
90.0000045659485153
  0
LINE
  5
AC21
  8
0
 10
4385.8123745593529748
 20
253.6076184579063977
 30
0.0
 11
4385.8123745593529748
 21
253.7701647237065004
 31
0.0
  0
LINE
  5
AC22
  8
0
 10
4385.8123745593529748
 20
253.7701647237065004
 30
0.0
 11
4386.2848155042538565
 21
253.7701647237065004
 31
0.0
  0
ARC
  5
AC23
  8
0
 10
4386.2848155042538565
 20
253.7310396744445029
 30
0.0
 40
0.0391250492619335
 50
357.8990800663763139
 51
90.0
  0
LINE
  5
AC24
  8
0
 10
4386.3239142538650412
 20
253.7296053597715968
 30
0.0
 11
4386.3241855830528948
 21
253.6200037486063934
 31
0.0
  0
ARC
  5
AC25
  8
0
 10
4386.2565171152627954
 20
253.7981164938597942
 30
0.0
 40
0.1905339118233755
 50
271.1118841106509194
 51
290.8027500805895897
  0
ARC
  5
AC26
  8
0
 10
4386.3083229862850203
 20
253.6617562922884872
 30
0.0
 40
0.044664268494697
 50
290.8027500805890782
 51
315.2796060663955018
  0
ARC
  5
AC27
  8
0
 10
4386.3332911754823726
 20
253.6370306134020893
 30
0.0
 40
0.0095249789718017
 50
315.2796060663965818
 51
359.4981099192232818
  0
ARC
  5
AC28
  8
0
 10
4388.4015350240797488
 20
253.6189130900579869
 30
0.0
 40
2.058798221573412
 50
176.3570246385523888
 51
179.4981099192233103
  0
LINE
  5
AC29
  8
0
 10
4389.2492325137091029
 20
247.2871869364414863
 30
0.0
 11
4389.2492325137091029
 21
257.3239777167128182
 31
0.0
  0
LINE
  5
AC2A
  8
0
 10
4386.3894494851319905
 20
253.7701647237065004
 30
0.0
 11
4388.9252200067139711
 21
253.7701647237065004
 31
0.0
  0
ARC
  5
AC2B
  8
0
 10
4386.3939627826175638
 20
253.7062498767523095
 30
0.0
 40
0.0640740003072195
 50
94.0391924265272223
 51
137.2696198018730911
  0
ARC
  5
AC2C
  8
0
 10
4421.2188434452291403
 20
245.7436612340567024
 30
0.0
 40
32.006850746467947
 50
177.235847292251691
 51
178.5809565540818937
  0
ARC
  5
AC2D
  8
0
 10
4355.8297538211363644
 20
247.7532747208722981
 30
0.0
 40
33.4142241624685923
 50
356.7970661174816769
 51
357.9127653189169109
  0
ARC
  5
AC2E
  8
0
 10
4368.3404389815368631
 20
246.9028594397805136
 30
0.0
 40
20.8761064376937284
 50
355.3367263656808746
 51
357.2089789782319826
  0
ARC
  5
AC2F
  8
0
 10
4359.138573181117863
 20
247.7641079086492084
 30
0.0
 40
30.1177324776370092
 50
352.5676341952636221
 51
355.1269128138835072
  0
ARC
  5
AC30
  8
0
 10
4365.3450550802508587
 20
246.9968158659922892
 30
0.0
 40
23.8641792059060798
 50
349.9655224235419269
 51
352.4667988825123075
  0
ARC
  5
AC31
  8
0
 10
4379.0874563231409411
 20
244.1781606340813937
 30
0.0
 40
9.8482444084742635
 50
341.6736489706752877
 51
352.1829869562516819
  0
ARC
  5
AC32
  8
0
 10
4371.8101325612278742
 20
246.5886189244533
 30
0.0
 40
17.5143875264514115
 50
333.6267680724313891
 51
341.6736489706752877
  0
ARC
  5
AC33
  8
0
 10
4381.9043205103680521
 20
241.5836971443227981
 30
0.0
 40
6.2475391482323701
 50
310.190397225036179
 51
333.6267680724313891
  0
ARC
  5
AC34
  8
0
 10
4381.8415786263212794
 20
241.6579673832771107
 30
0.0
 40
6.3447636945575212
 50
295.9088978374937255
 51
310.190397225036179
  0
ARC
  5
AC35
  8
0
 10
4382.2273649255093915
 20
240.8637857646025111
 30
0.0
 40
5.4618392855156017
 50
276.9634067194867839
 51
295.9088978374937255
  0
ARC
  5
AC36
  8
0
 10
4382.0199777187326617
 20
242.5617837407747004
 30
0.0
 40
7.1724551338636662
 50
270.2284792469898775
 51
276.9634067194867839
  0
ARC
  5
AC37
  8
0
 10
4388.8887033641112794
 20
253.4166814933558953
 30
0.0
 40
0.3553644035719374
 50
44.5702701573500022
 51
84.1019719672818411
  0
ARC
  5
AC38
  8
0
 10
4388.9656284617030906
 20
253.492461252407594
 30
0.0
 40
0.2473827267855356
 50
2.4643598212344888
 51
44.5702701573500022
  0
ARC
  5
AC39
  8
0
 10
4365.5722238771822958
 20
252.485662093219986
 30
0.0
 40
23.6624424662353405
 50
359.4238490447572758
 51
2.4643598212344888
  0
ARC
  5
AC3A
  8
0
 10
4482.1388221724791947
 20
251.3134602084201958
 30
0.0
 40
92.910049552231456
 50
179.4238490447573042
 51
181.118107275853788
  0
ARC
  5
AC3B
  8
0
 10
4384.745463301833297
 20
252.4201749154914012
 30
0.0
 40
1.2291596750079259
 50
75.0300104673184762
 51
88.434556191131847
  0
ARC
  5
AC3C
  8
0
 10
4382.0535793507542621
 20
259.3163885765064833
 30
0.0
 40
0.6692913386
 50
87.5285393608266986
 51
272.4709965816206818
  0
ARC
  5
AC3D
  8
0
 10
4382.0535793507542621
 20
259.3163885765064833
 30
0.0
 40
0.6692913386
 50
277.4857875786709087
 51
82.5127503384949534
  0
ARC
  5
AC3E
  8
0
 10
4382.0815951783952187
 20
259.9654755882801851
 30
0.0
 40
0.0196
 50
9.8492610095857636
 51
87.5285393608266986
  0
CIRCLE
  5
AC3F
  8
0
 10
4382.0535793507542621
 20
259.3163885765064833
 30
0.0
 40
0.9055118109999966
  0
ARC
  5
AC40
  8
0
 10
4378.342949429455075
 20
259.316388576506597
 30
0.0
 40
3.8141732282998979
 50
7.2563368189565312
 51
9.8492610095889717
  0
ARC
  5
AC41
  8
0
 10
4378.342949429451437
 20
259.3163885765063128
 30
0.0
 40
3.8141732283020522
 50
1.196084708463016
 51
7.2563368189565312
  0
ARC
  5
AC42
  8
0
 10
4378.342949429455075
 20
259.3163885765064265
 30
0.0
 40
3.8141732282976171
 50
355.9929316404429187
 51
1.196084708463016
  0
ARC
  5
AC43
  8
0
 10
4378.342949429451437
 20
259.3163885765067107
 30
0.0
 40
3.8141732283025318
 50
351.0740160772352851
 51
355.9929316404429187
  0
ARC
  5
AC44
  8
0
 10
4378.3816611307693165
 20
259.3103084981160009
 30
0.0
 40
3.7749869657587261
 50
350.1410881752506157
 51
351.0740160772352851
  0
ARC
  5
AC45
  8
0
 10
4382.0815899212229851
 20
258.6673013378444921
 30
0.0
 40
0.0196
 50
272.4709965816206818
 51
350.1410881752426008
  0
ARC
  5
AC46
  8
0
 10
4378.3337162632187756
 20
259.3155605714391072
 30
0.0
 40
3.839205888924226
 50
2.117415120747292
 51
9.6218629460738878
  0
ARC
  5
AC47
  8
0
 10
4382.1382377427826214
 20
259.9605405710782975
 30
0.0
 40
0.0196
 50
82.5127503384949534
 51
189.6218629460738043
  0
ARC
  5
AC48
  8
0
 10
4378.3539140931643487
 20
259.3163073397195149
 30
0.0
 40
3.8189942586746088
 50
357.0335958002502252
 51
2.117415120747292
  0
ARC
  5
AC49
  8
0
 10
4378.3298139537992029
 20
259.317556204831817
 30
0.0
 40
3.8431267343350699
 50
352.8069245811548171
 51
357.0335958002502252
  0
ARC
  5
AC4A
  8
0
 10
4378.3655078002402661
 20
259.3130514060167116
 30
0.0
 40
3.80714974326964
 50
350.359989086896519
 51
352.8069245811548171
  0
ARC
  5
AC4B
  8
0
 10
4382.1382213051820145
 20
258.6722344218180751
 30
0.0
 40
0.0196
 50
170.3599890869029139
 51
277.4857875786709087
  0
ARC
  5
AC4C
  8
0
 10
4381.997133997653691
 20
259.9615619144063885
 30
0.0
 40
0.0343579363999991
 50
42.8970343023699598
 51
147.102965701939894
  0
ARC
  5
AC4D
  8
0
 10
4381.6460076801540708
 20
259.8196976736065267
 30
0.0
 40
0.0346270679013499
 50
76.521300465962895
 51
181.4786995349483902
  0
ARC
  5
AC4E
  8
0
 10
4381.4342402469537774
 20
259.5057395427065217
 30
0.0
 40
0.0343579364000007
 50
110.8970341821359966
 51
215.1029658278017962
  0
ARC
  5
AC4F
  8
0
 10
4381.4342402469537774
 20
259.1270376102065143
 30
0.0
 40
0.0343579363999992
 50
144.8970341168561049
 51
249.1029658900997958
  0
ARC
  5
AC50
  8
0
 10
4381.6460076801540708
 20
258.8130794794063831
 30
0.0
 40
0.0343579364000001
 50
178.8970341722859132
 51
283.1029658268150229
  0
ARC
  5
AC51
  8
0
 10
4381.997133997653691
 20
258.6712152385064769
 30
0.0
 40
0.0343579364000015
 50
212.8970340814435929
 51
317.1029659157533729
  0
ARC
  5
AC52
  8
0
 10
4382.2215569868540115
 20
258.6894875038065038
 30
0.0
 40
0.0333271255000034
 50
231.3139199494927141
 51
338.6860800395452884
  0
ARC
  5
AC53
  8
0
 10
4382.5125027872527426
 20
258.8574651399064805
 30
0.0
 40
0.0333271254999994
 50
261.3139198681524249
 51
8.686080119354596
  0
ARC
  5
AC54
  8
0
 10
4382.6804804234534458
 20
259.148410940306519
 30
0.0
 40
0.0333271255
 50
291.3139198950073023
 51
38.6860800988578433
  0
ARC
  5
AC55
  8
0
 10
4382.6804804234534458
 20
259.4843662126065169
 30
0.0
 40
0.0333271255000007
 50
321.3139199495012122
 51
68.6860800395508591
  0
ARC
  5
AC56
  8
0
 10
4382.5125027872527426
 20
259.7753120130063849
 30
0.0
 40
0.0334065006311821
 50
351.2052562753837037
 51
98.7947437245983053
  0
ARC
  5
AC57
  8
0
 10
4382.2215569868540115
 20
259.9432896492065197
 30
0.0
 40
0.0333271255000012
 50
21.3139199604319813
 51
128.6860800505193936
  0
ARC
  5
AC58
  8
0
 10
4382.0608819703293193
 20
259.9788225596194025
 30
0.0
 40
0.0078415690872289
 50
89.4341260806534706
 51
119.1518135555838001
  0
ARC
  5
AC59
  8
0
 10
4382.0546405342529397
 20
259.3468861765761062
 30
0.0
 40
0.6398087737253773
 50
87.2297662824062741
 51
89.4341260806534706
  0
ARC
  5
AC5A
  8
0
 10
4382.0846474481413679
 20
259.9670250456834992
 30
0.0
 40
0.0189443506353383
 50
11.1700854306323105
 51
87.2297662824063451
  0
ARC
  5
AC5B
  8
0
 10
4382.0851643389878518
 20
259.9671271124030909
 30
0.0
 40
0.0184174789581168
 50
356.0987084339548119
 51
11.17008543062272
  0
ARC
  5
AC5C
  8
0
 10
4378.3429169047103642
 20
259.3163830947531778
 30
0.0
 40
3.8162963811302122
 50
9.4915347111565946
 51
9.7987969483225896
  0
ARC
  5
AC5D
  8
0
 10
4379.2323688218521056
 20
259.4585779726369879
 30
0.0
 40
2.915579956139172
 50
7.4392740359736909
 51
9.6177779882083332
  0
ARC
  5
AC5E
  8
0
 10
4378.4336802409616212
 20
259.3216908029930892
 30
0.0
 40
3.7254094401385229
 50
1.8140329547650089
 51
7.9364219991167202
  0
ARC
  5
AC5F
  8
0
 10
4378.342949429455075
 20
259.3163885765064833
 30
0.0
 40
3.8162633977000211
 50
354.0007628255693248
 51
1.8504774445215411
  0
ARC
  5
AC60
  8
0
 10
4378.342949429453256
 20
259.316388576506597
 30
0.0
 40
3.8162633977010052
 50
350.0691934606963969
 51
354.0007628255676764
  0
ARC
  5
AC61
  8
0
 10
4382.0846605159831597
 20
258.6657237765202808
 30
0.0
 40
0.0189154250125352
 50
272.7348442609634844
 51
336.6957675107777277
  0
ARC
  5
AC62
  8
0
 10
4382.0536330683607957
 20
259.3149964110874066
 30
0.0
 40
0.6689290067929625
 50
270.6239546272691996
 51
272.7359380570590019
  0
ARC
  5
AC63
  8
0
 10
4382.0609267208847086
 20
258.6541188693668119
 30
0.0
 40
0.0080118053485441
 50
241.0788487216773035
 51
269.9347952625557809
  0
ARC
  5
AC64
  8
0
 10
4382.1381042443836122
 20
259.9581477425579124
 30
0.0
 40
0.0213131916740964
 50
128.8748148615098899
 51
177.1524525775020038
  0
ARC
  5
AC65
  8
0
 10
4378.3868855499213169
 20
259.3235050726004829
 30
0.0
 40
3.7837161292907409
 50
7.7856231122795547
 51
9.6721261161898422
  0
ARC
  5
AC66
  8
0
 10
4378.4023468183795558
 20
259.3232589731575786
 30
0.0
 40
3.7684314487259112
 50
6.190249738882958
 51
7.8211753019784718
  0
ARC
  5
AC67
  8
0
 10
4382.1805832653953985
 20
259.7131790359887873
 30
0.0
 40
0.0357738995277683
 50
152.6587580164811015
 51
219.1462370645976989
  0
ARC
  5
AC68
  8
0
 10
4379.1111066524508715
 20
259.386223174726581
 30
0.0
 40
3.0569232080807609
 50
3.6443698522282322
 51
5.7142945827034426
  0
ARC
  5
AC69
  8
0
 10
4378.6578172392819397
 20
259.3267307097439129
 30
0.0
 40
3.5132104362202741
 50
1.132634952253105
 51
4.1427617590686259
  0
ARC
  5
AC6A
  8
0
 10
4378.3449186581001413
 20
259.3163511566376087
 30
0.0
 40
3.8262553505085481
 50
352.1944804892933121
 51
1.195414779604359
  0
ARC
  5
AC6B
  8
0
 10
4378.3958823796701836
 20
259.3079648365389858
 30
0.0
 40
3.774625120212022
 50
350.3246564200675834
 51
352.215536831468512
  0
ARC
  5
AC6C
  8
0
 10
4382.1386630725010036
 20
258.6747901371717262
 30
0.0
 40
0.0218796675835435
 50
183.1658969501953891
 51
233.3737885617962888
  0
LINE
  5
AC6D
  8
0
 10
4382.102696277755058
 20
258.6620416063794892
 30
0.0
 11
4382.1198856455066561
 21
258.6635594609202826
 31
0.0
  0
LINE
  5
AC6E
  8
0
 10
4382.1047301316439189
 20
258.6738372017076131
 30
0.0
 11
4382.1170546153343821
 21
258.6749649864469802
 31
0.0
  0
LINE
  5
AC6F
  8
0
 10
4382.104939026714419
 20
258.6750613661603211
 30
0.0
 11
4382.1172566414406901
 21
258.6761670825317765
 31
0.0
  0
LINE
  5
AC70
  8
0
 10
4382.1069680971268099
 20
258.687079598311584
 30
0.0
 11
4382.1192878187475799
 21
258.6882464385236062
 31
0.0
  0
LINE
  5
AC71
  8
0
 10
4382.1168130390542501
 20
258.7494594426065078
 30
0.0
 11
4382.1289612536702407
 21
258.7494594426065078
 31
0.0
  0
LINE
  5
AC72
  8
0
 10
4382.1179137537537827
 20
258.7573334584063787
 30
0.0
 11
4382.1301319641233931
 21
258.7573334584063787
 31
0.0
  0
LINE
  5
AC73
  8
0
 10
4382.1202940000530361
 20
258.7727578971047251
 30
0.0
 11
4382.1323711498953344
 21
258.772757897006386
 31
0.0
  0
LINE
  5
AC74
  8
0
 10
4382.1231698898036484
 20
258.7931299485085219
 30
0.0
 11
4382.135232568713036
 21
258.79312994860652
 31
0.0
  0
LINE
  5
AC75
  8
0
 10
4382.1236628251572256
 20
258.7967035371065094
 30
0.0
 11
4382.1357228417537044
 21
258.7967035371065094
 31
0.0
  0
LINE
  5
AC76
  8
0
 10
4382.1498108896648773
 20
259.0486720410065118
 30
0.0
 11
4382.1617993083618785
 21
259.0486720410065118
 31
0.0
  0
LINE
  5
AC77
  8
0
 10
4382.1512365635526294
 20
259.072617681906479
 30
0.0
 11
4382.1634031743687956
 21
259.0726176827213862
 31
0.0
  0
LINE
  5
AC78
  8
0
 10
4382.1523183766530565
 20
259.0880421198065164
 30
0.0
 11
4382.1643564427740785
 21
259.0880421198065164
 31
0.0
  0
LINE
  5
AC79
  8
0
 10
4382.1528706468843666
 20
259.5368610174065225
 30
0.0
 11
4382.1647026600539903
 21
259.5368610174065225
 31
0.0
  0
LINE
  5
AC7A
  8
0
 10
4382.1524067391128483
 20
259.5447350332065071
 30
0.0
 11
4382.1642572693008333
 21
259.5447350332065071
 31
0.0
  0
LINE
  5
AC7B
  8
0
 10
4382.1514494902576189
 20
259.560159471089321
 30
0.0
 11
4382.1632642268878044
 21
259.5601594703007891
 31
0.0
  0
LINE
  5
AC7C
  8
0
 10
4382.1500867012573508
 20
259.5805315234064778
 30
0.0
 11
4382.1618481632540352
 21
259.5805315234072737
 31
0.0
  0
LINE
  5
AC7D
  8
0
 10
4382.1032329251984265
 20
259.9706949862178931
 30
0.0
 11
4382.12063063070309
 21
259.9691515875230152
 31
0.0
  0
LINE
  5
AC7E
  8
0
 10
4382.1046959111736214
 20
259.9589426793493772
 30
0.0
 11
4382.1170293478644453
 21
259.9579615279429277
 31
0.0
  0
LINE
  5
AC7F
  8
0
 10
4382.1069680971268099
 20
259.9456975547013258
 30
0.0
 11
4382.1192889352096245
 21
259.9445306087457084
 31
0.0
  0
LINE
  5
AC80
  8
0
 10
4382.1168449676852106
 20
259.8833177103065282
 30
0.0
 11
4382.1289595146790816
 21
259.8833177103065282
 31
0.0
  0
LINE
  5
AC81
  8
0
 10
4382.1201161571525518
 20
259.8600192559064226
 30
0.0
 11
4382.1323708693498702
 21
259.8600192560065238
 31
0.0
  0
LINE
  5
AC82
  8
0
 10
4382.1234073065534176
 20
259.8360736158065833
 30
0.0
 11
4382.1357228677552484
 21
259.8360736157981137
 31
0.0
  0
CIRCLE
  5
AC83
  8
0
 10
4382.0535793507542621
 20
259.3163885765064833
 30
0.0
 40
0.6822648632000027
  0
CIRCLE
  5
AC84
  8
0
 10
4382.0535793507542621
 20
259.3163885765064833
 30
0.0
 40
0.6888738461000031
  0
ENDSEC
  0
EOF
