  0
SECTION
  2
HEADER
  9
$ACADVER
  1
AC1009
  9
$INSBASE
 10
4170.680535197881909
 20
111.0938140556160931
 30
0.0
  9
$EXTMIN
 10
4159.0150089699345699
 20
103.0898015092295026
 30
-0.0015258207003583
  9
$EXTMAX
 10
4182.3074791249400732
 20
119.0999048266078972
 30
0.0000000349246037
  9
$LIMMIN
 10
0.0
 20
0.0
  9
$LIMMAX
 10
11.6929133858000007
 20
8.2677165353999982
  9
$ORTHOMODE
 70
     1
  9
$REGENMODE
 70
     1
  9
$FILLMODE
 70
     1
  9
$QTEXTMODE
 70
     0
  9
$MIRRTEXT
 70
     0
  9
$DRAGMODE
 70
     2
  9
$LTSCALE
 40
0.6431102362
  9
$OSMODE
 70
  4095
  9
$ATTMODE
 70
     1
  9
$TEXTSIZE
 40
0.2
  9
$TRACEWID
 40
0.05
  9
$TEXTSTYLE
  7
STANDARD
  9
$CLAYER
  8
0
  9
$CELTYPE
  6
BYLAYER
  9
$CECOLOR
 62
   256
  9
$DIMSCALE
 40
1.0
  9
$DIMASZ
 40
0.1875
  9
$DIMEXO
 40
0.0625
  9
$DIMDLI
 40
0.4443307087
  9
$DIMRND
 40
0.0
  9
$DIMDLE
 40
0.0
  9
$DIMEXE
 40
0.125
  9
$DIMTP
 40
0.01
  9
$DIMTM
 40
0.01
  9
$DIMTXT
 40
2.0
  9
$DIMCEN
 40
0.1052362205
  9
$DIMTSZ
 40
0.0
  9
$DIMTOL
 70
     1
  9
$DIMLIM
 70
     0
  9
$DIMTIH
 70
     1
  9
$DIMTOH
 70
     1
  9
$DIMSE1
 70
     0
  9
$DIMSE2
 70
     0
  9
$DIMTAD
 70
     0
  9
$DIMZIN
 70
     0
  9
$DIMBLK
  1

  9
$DIMASO
 70
     1
  9
$DIMSHO
 70
     1
  9
$DIMPOST
  1
\X
  9
$DIMAPOST
  1

  9
$DIMALT
 70
     1
  9
$DIMALTD
 70
     2
  9
$DIMALTF
 40
25.3999999999999986
  9
$DIMLFAC
 40
1.0
  9
$DIMTOFL
 70
     0
  9
$DIMTVP
 40
0.0
  9
$DIMTIX
 70
     0
  9
$DIMSOXD
 70
     0
  9
$DIMSAH
 70
     0
  9
$DIMBLK1
  1

  9
$DIMBLK2
  1

  9
$DIMSTYLE
  2
STANDARD
  9
$DIMCLRD
 70
     0
  9
$DIMCLRE
 70
     0
  9
$DIMCLRT
 70
     0
  9
$DIMTFAC
 40
1.0
  9
$DIMGAP
 40
0.09
  9
$LUNITS
 70
     2
  9
$LUPREC
 70
     4
  9
$SKETCHINC
 40
0.1
  9
$FILLETRAD
 40
0.0
  9
$AUNITS
 70
     0
  9
$AUPREC
 70
     0
  9
$MENU
  1
.
  9
$ELEVATION
 40
0.0
  9
$PELEVATION
 40
0.0
  9
$THICKNESS
 40
0.0
  9
$LIMCHECK
 70
     0
  9
$BLIPMODE
 70
     0
  9
$CHAMFERA
 40
0.0
  9
$CHAMFERB
 40
0.0
  9
$SKPOLY
 70
     0
  9
$TDCREATE
 40
2458060.468368056230247
  9
$TDUPDATE
 40
2459921.3769097221083939
  9
$TDINDWG
 40
0.326546412
  9
$TDUSRTIMER
 40
0.326546412
  9
$USRTIMER
 70
     1
  9
$ANGBASE
 50
0.0
  9
$ANGDIR
 70
     0
  9
$PDMODE
 70
     0
  9
$PDSIZE
 40
0.3125
  9
$PLINEWID
 40
0.0
  9
$COORDS
 70
     1
  9
$SPLFRAME
 70
     0
  9
$SPLINETYPE
 70
     6
  9
$SPLINESEGS
 70
     8
  9
$ATTDIA
 70
     1
  9
$ATTREQ
 70
     1
  9
$HANDLING
 70
     1
  9
$HANDSEED
  5
A253
  9
$SURFTAB1
 70
     6
  9
$SURFTAB2
 70
     6
  9
$SURFTYPE
 70
     6
  9
$SURFU
 70
     6
  9
$SURFV
 70
     6
  9
$UCSNAME
  2

  9
$UCSORG
 10
0.0
 20
0.0
 30
0.0
  9
$UCSXDIR
 10
1.0
 20
0.0
 30
0.0
  9
$UCSYDIR
 10
0.0
 20
1.0
 30
0.0
  9
$PUCSNAME
  2

  9
$PUCSORG
 10
0.0
 20
0.0
 30
0.0
  9
$PUCSXDIR
 10
1.0
 20
0.0
 30
0.0
  9
$PUCSYDIR
 10
0.0
 20
1.0
 30
0.0
  9
$USERI1
 70
     0
  9
$USERI2
 70
     0
  9
$USERI3
 70
     0
  9
$USERI4
 70
     0
  9
$USERI5
 70
     0
  9
$USERR1
 40
0.0
  9
$USERR2
 40
0.0
  9
$USERR3
 40
0.0
  9
$USERR4
 40
0.0
  9
$USERR5
 40
0.0
  9
$WORLDVIEW
 70
     1
  9
$SHADEDGE
 70
     3
  9
$SHADEDIF
 70
    70
  9
$TILEMODE
 70
     1
  9
$MAXACTVP
 70
    64
  9
$PLIMCHECK
 70
     0
  9
$PEXTMIN
 10
1.0000000000000000E+20
 20
1.0000000000000000E+20
 30
1.0000000000000000E+20
  9
$PEXTMAX
 10
-1.0000000000000000E+20
 20
-1.0000000000000000E+20
 30
-1.0000000000000000E+20
  9
$PLIMMIN
 10
0.0
 20
0.0
  9
$PLIMMAX
 10
12.0
 20
9.0
  9
$UNITMODE
 70
     0
  9
$VISRETAIN
 70
     1
  9
$PLINEGEN
 70
     0
  9
$PSLTSCALE
 70
     1
  0
ENDSEC
  0
SECTION
  2
TABLES
  0
TABLE
  2
VPORT
 70
     1
  0
VPORT
  2
*ACTIVE
 70
     0
 10
0.0
 20
0.0
 11
1.0
 21
1.0
 12
-94.3451036088126642
 22
6.7908408693347431
 13
0.0
 23
0.0
 14
1.0
 24
1.0
 15
0.0
 25
0.0
 16
0.0
 26
0.0
 36
122.0237731519760018
 17
4265.00634765625
 27
104.3040122985839986
 37
0.0
 40
16.1167188777603982
 41
2.1211111111111101
 42
50.0
 43
0.0
 44
0.0
 50
0.0
 51
0.0
 71
     0
 72
   100
 73
     1
 74
     1
 75
     0
 76
     0
 77
     0
 78
     0
  0
ENDTAB
  0
TABLE
  2
LTYPE
 70
     2
  0
LTYPE
  2
CONTINUOUS
 70
     0
  3
Solid line
 72
    65
 73
     0
 40
0.0
  0
LTYPE
  2
PHANTOM2
 70
     0
  3
___ _ _ ___ _ _ ___ _ _ ___ _ _
 72
    65
 73
     6
 40
1.25
 49
0.625
 49
-0.125
 49
0.125
 49
-0.125
 49
0.125
 49
-0.125
  0
ENDTAB
  0
TABLE
  2
LAYER
 70
     2
  0
LAYER
  2
0
 70
     0
 62
   255
  6
CONTINUOUS
  0
LAYER
  2
DEFPOINTS
 70
     0
 62
     7
  6
CONTINUOUS
  0
ENDTAB
  0
TABLE
  2
STYLE
 70
     1
  0
STYLE
  2
STANDARD
 70
     0
 40
0.0
 41
0.8
 50
0.0
 71
     0
 42
0.2
  3
txt
  4

  0
ENDTAB
  0
TABLE
  2
VIEW
 70
     0
  0
ENDTAB
  0
TABLE
  2
UCS
 70
     0
  0
ENDTAB
  0
TABLE
  2
APPID
 70
    10
  0
APPID
  2
ACAD
 70
     0
  0
APPID
  2
ACAD_MLEADERVER
 70
     0
  0
APPID
  2
ACAD_EXEMPT_FROM_CAD_STANDARDS
 70
     0
  0
APPID
  2
ACAD_NAV_VCDISPLAY
 70
     0
  0
APPID
  2
ACAECLAYERSTANDARD
 70
     0
  0
APPID
  2
ACCMTRANSPARENCY
 70
     0
  0
APPID
  2
ACAD_DSTYLE_DIMJAG
 70
     0
  0
APPID
  2
ACAD_DSTYLE_DIMTALN
 70
     0
  0
APPID
  2
ACDBATTR
 70
     0
  0
APPID
  2
DCO15
 70
     0
  0
ENDTAB
  0
TABLE
  2
DIMSTYLE
 70
     1
  0
DIMSTYLE
  2
STANDARD
 70
     0
  3

  4

  5

  6

  7

 40
1.0
 41
0.1875
 42
0.0625
 43
0.38
 44
0.125
 45
0.0
 46
0.0
 47
0.01
 48
0.01
140
0.15625
141
0.09
142
0.0
143
25.3999999999999986
144
1.0
145
0.0
146
1.0
147
0.09
 71
     1
 72
     0
 73
     1
 74
     1
 75
     0
 76
     0
 77
     0
 78
     4
170
     0
171
     2
172
     0
173
     0
174
     0
175
     0
176
     0
177
     0
178
     0
  0
ENDTAB
  0
ENDSEC
  0
SECTION
  2
BLOCKS
  0
BLOCK
  8
0
  2
$MODEL_SPACE
 70
     0
 10
0.0
 20
0.0
 30
0.0
  3
$MODEL_SPACE
  1

  0
ENDBLK
  5
21
  8
0
  0
BLOCK
 67
     1
  8
0
  2
$PAPER_SPACE
 70
     0
 10
0.0
 20
0.0
 30
0.0
  3
$PAPER_SPACE
  1

  0
ENDBLK
  5
1D
 67
     1
  8
0
  0
ENDSEC
  0
SECTION
  2
ENTITIES
  0
ATTDEF
  5
9855
  8
DEFPOINTS
 10
4170.6807676188609548
 20
111.098251514250606
 30
0.0
 40
0.001
  1
K-21060-AE2
  3

  2
MODELNUMBER
 70
     0
1001
ACDBATTR
1070
     0
1070
     1
  0
ATTDEF
  5
9856
  8
DEFPOINTS
 10
4170.6807676188609548
 20
111.0965848475839977
 30
0.0
 40
0.001
  1
BRAZN
  3

  2
TRADENAME
 70
     0
1001
ACDBATTR
1070
     0
1070
     1
  0
ATTDEF
  5
9857
  8
DEFPOINTS
 10
4170.6807676188609548
 20
111.0949181809173041
 30
0.0
 40
0.001
  1
BATHROOM SINK 
  3

  2
PRODUCT
 70
     0
1001
ACDBATTR
1070
     0
1070
     1
  0
LINE
  5
A082
  8
0
 10
4159.8062903832833399
 20
119.0962700195862993
 30
0.0
 11
4181.5547800124795685
 21
119.0962700195862993
 31
0.0
  0
LINE
  5
A083
  8
0
 10
4159.7735244606237757
 20
103.0913580916459011
 30
0.0
 11
4181.5875459351391328
 21
103.0913580916459011
 31
0.0
  0
ARC
  5
A084
  8
0
 10
4159.8926562062051744
 20
103.6711731435546966
 30
0.0
 40
0.7114337878563864
 50
180.2815577051725882
 51
207.3078677421287068
  0
ARC
  5
A085
  8
0
 10
4159.6715713221128681
 20
103.5812107633588965
 30
0.0
 40
0.4742029326489532
 50
209.9054177135537032
 51
248.3950545409778954
  0
ARC
  5
A086
  8
0
 10
4159.8000427855986345
 20
104.0466216015981047
 30
0.0
 40
0.9556315163312987
 50
251.5095507368760934
 51
268.4098649534375909
  0
LINE
  5
A087
  8
0
 10
4159.1812310083487318
 20
103.6676770944529977
 30
0.0
 11
4159.1812310083487318
 21
118.4855691434955958
 31
0.0
  0
ARC
  5
A088
  8
0
 10
4160.2298163518262299
 20
118.476466527562394
 30
0.0
 40
1.048624851971143
 50
167.4996145769476072
 51
179.5026362148763894
  0
ARC
  5
A089
  8
0
 10
4159.6730398201671051
 20
118.5999048423825997
 30
0.0
 40
0.4783292060370432
 50
118.1860150213432945
 51
167.4996145769476072
  0
ARC
  5
A08A
  8
0
 10
4159.7261148692059578
 20
118.5008622538383065
 30
0.0
 40
0.5906964395884746
 50
95.7982203556937151
 51
118.1860150213432945
  0
ARC
  5
A08B
  8
0
 10
4159.8204438618713539
 20
117.5719236372482044
 30
0.0
 40
1.5244120880862491
 50
90.531973110230723
 51
95.7982203556937151
  0
ARC
  5
A08C
  8
0
 10
4171.8004944035492372
 20
-7.4463021184829037
 30
0.0
 40
124.2567866151079983
 50
90.5164290913845662
 51
94.1823379372218454
  0
CIRCLE
  5
A08D
  8
0
 10
4170.680535197881909
 20
114.1508066854973009
 30
0.0
 40
0.8858267716999996
  0
CIRCLE
  5
A08E
  8
0
 10
4170.680535197881909
 20
114.1508066854973009
 30
0.0
 40
1.167096370300001
  0
ARC
  5
A08F
  8
0
 10
4169.4666440445262197
 20
117.7874521803980059
 30
0.0
 40
0.0911797231225154
 50
97.0694657799391649
 51
136.0427096138108141
  0
ARC
  5
A090
  8
0
 10
4169.5174696086623953
 20
117.5032921843228024
 30
0.0
 40
0.3797497818184738
 50
90.2486962117648801
 51
99.4037152247357056
  0
ARC
  5
A091
  8
0
 10
4169.4666433965558099
 20
117.9140293295517949
 30
0.0
 40
0.0911775152340178
 50
223.9564381630127059
 51
262.9307724588313135
  0
ARC
  5
A092
  8
0
 10
4169.5174696086623953
 20
118.198191470071805
 30
0.0
 40
0.3797497818184774
 50
260.5962847752642801
 51
269.7512862339124808
  0
LINE
  5
A093
  8
0
 10
4169.5158212841879504
 20
117.8830383888035982
 30
0.0
 11
4171.8452491115740486
 21
117.8830383888035982
 31
0.0
  0
LINE
  5
A094
  8
0
 10
4169.5158211678399311
 20
117.8184452660960062
 30
0.0
 11
4171.8452492279211583
 21
117.8184452660959067
 31
0.0
  0
ARC
  5
A095
  8
0
 10
4120.3755498485006683
 20
115.5681033498473056
 30
0.0
 40
42.3726073484539825
 50
351.9529461062978726
 51
1.2325966932876791
  0
ARC
  5
A096
  8
0
 10
4144.3119154084588445
 20
112.8588788038508
 30
0.0
 40
18.3048789112841703
 50
327.7508452679448965
 51
327.7535739491638083
  0
ARC
  5
A097
  8
0
 10
4144.3119154084588445
 20
112.8588788038508
 30
0.0
 40
18.3048789112841703
 50
328.1849802365375126
 51
349.8609119730563748
  0
LINE
  5
A098
  8
0
 10
4159.3087830077884064
 20
118.9099303316312017
 30
0.0
 11
4159.3098321823463266
 21
118.9091868412807003
 31
0.0
  0
LINE
  5
A099
  8
0
 10
4159.4150621872486226
 20
118.8346163203858055
 30
0.0
 11
4162.7383524774168109
 21
116.4795894604084054
 31
0.0
  0
LINE
  5
A09A
  8
0
 10
4159.7033953148347791
 20
118.9325077200375063
 30
0.0
 11
4181.6484212258028492
 21
118.9325077200375063
 31
0.0
  0
ARC
  5
A09B
  8
0
 10
4159.7080222423983287
 20
118.2795549693664015
 30
0.0
 40
0.6529691440394975
 50
89.5939997434736597
 51
102.3031442933478985
  0
ARC
  5
A09C
  8
0
 10
4159.6363393190486022
 20
118.6082358811209048
 30
0.0
 40
0.3165622724515848
 50
102.3031442933478985
 51
134.3468549793228135
  0
ARC
  5
A09D
  8
0
 10
4159.6941092845136154
 20
118.5661947983009981
 30
0.0
 40
0.3871916786430141
 50
136.1118887275648888
 51
161.0234353602390911
  0
ARC
  5
A09E
  8
0
 10
4160.5372850916455718
 20
118.3247731453009948
 30
0.0
 40
1.263881282390509
 50
163.1039741866975135
 51
179.3608471366167976
  0
LINE
  5
A09F
  8
0
 10
4159.2734824478957307
 20
118.3388718554218997
 30
0.0
 11
4159.2734824478957307
 21
103.8112529796907069
 31
0.0
  0
LINE
  5
A0A0
  8
0
 10
4159.8434835885300345
 20
103.2089388799603995
 30
0.0
 11
4181.5175868072319645
 21
103.2089388799603995
 31
0.0
  0
ARC
  5
A0A1
  8
0
 10
4161.3961488334589376
 20
103.9266333214031022
 30
0.0
 40
2.1257998983089461
 50
183.1113261116308024
 51
187.6507868706657121
  0
ARC
  5
A0A2
  8
0
 10
4159.9352120621151698
 20
103.7325538704595971
 30
0.0
 40
0.6520332911131014
 50
187.8397133611859999
 51
207.1149196877244947
  0
ARC
  5
A0A3
  8
0
 10
4159.6900995355326813
 20
103.6070429022422985
 30
0.0
 40
0.3766550896689042
 50
207.1149196877244947
 51
245.9059978187048898
  0
ARC
  5
A0A4
  8
0
 10
4159.7615759296813849
 20
103.7668752687191045
 30
0.0
 40
0.5517415263054893
 50
245.9059978187048898
 51
260.6384035628919946
  0
ARC
  5
A0A5
  8
0
 10
4159.8219904086909082
 20
104.1333337513441961
 30
0.0
 40
0.9231465999945863
 50
260.6384035628919946
 51
267.2298518283154181
  0
ARC
  5
A0A6
  8
0
 10
4159.8988182897455772
 20
105.7211487814565061
 30
0.0
 40
2.5128192370987672
 50
267.2298518283154181
 51
268.7381897248505993
  0
ARC
  5
A0A7
  8
0
 10
4181.4684141895577341
 20
103.6711731435546966
 30
0.0
 40
0.7114337878563864
 50
332.6921322578705826
 51
359.7184422948274118
  0
ARC
  5
A0A8
  8
0
 10
4181.6894990736509499
 20
103.5812107633588965
 30
0.0
 40
0.4742029326489532
 50
291.6049454590220762
 51
330.0945822864457
  0
ARC
  5
A0A9
  8
0
 10
4181.5610276101642739
 20
104.0466216015981047
 30
0.0
 40
0.9556315163312987
 50
271.5901350465624091
 51
288.4904492631238782
  0
LINE
  5
A0AA
  8
0
 10
4182.1798393874150861
 20
103.6676770944529977
 30
0.0
 11
4182.1798393874150861
 21
118.4855691434955958
 31
0.0
  0
ARC
  5
A0AB
  8
0
 10
4181.1312540439366785
 20
118.476466527562394
 30
0.0
 40
1.048624851971143
 50
0.4973637851244175
 51
12.5003854230531193
  0
ARC
  5
A0AC
  8
0
 10
4181.6880305755958034
 20
118.5999048423825997
 30
0.0
 40
0.4783292060370432
 50
12.5003854230531193
 51
61.8139849786567126
  0
ARC
  5
A0AD
  8
0
 10
4181.6349555265578601
 20
118.5008622538383065
 30
0.0
 40
0.5906964395884746
 50
61.8139849786567126
 51
84.2017796443062991
  0
ARC
  5
A0AE
  8
0
 10
4181.5406265338933736
 20
117.5719236372482044
 30
0.0
 40
1.5244120880862491
 50
84.2017796443062991
 51
89.468026889769277
  0
ARC
  5
A0AF
  8
0
 10
4169.5605081819030602
 20
-7.4479567000420408
 30
0.0
 40
124.2584417359959019
 50
85.8176865196523408
 51
89.4835467575753967
  0
CIRCLE
  5
A0B0
  8
0
 10
4170.680535197881909
 20
114.1508066854973009
 30
0.0
 40
0.8858267716999996
  0
CIRCLE
  5
A0B1
  8
0
 10
4170.680535197881909
 20
114.1508066854973009
 30
0.0
 40
1.167096370300001
  0
ARC
  5
A0B2
  8
0
 10
4171.8944263512366888
 20
117.7874521803980059
 30
0.0
 40
0.0911797231225154
 50
43.9572903861897117
 51
82.9305342200608351
  0
ARC
  5
A0B3
  8
0
 10
4171.8436007871023321
 20
117.5032921843228024
 30
0.0
 40
0.3797497818184738
 50
80.5962847752642944
 51
89.7513037882351341
  0
ARC
  5
A0B4
  8
0
 10
4171.8944269992070986
 20
117.9140293295517949
 30
0.0
 40
0.0911775152340178
 50
277.0692275411686865
 51
316.0435618369872941
  0
ARC
  5
A0B5
  8
0
 10
4171.8436007871023321
 20
118.198191470071805
 30
0.0
 40
0.3797497818184774
 50
270.2487137660875192
 51
279.4037152247357199
  0
ARC
  5
A0B6
  8
0
 10
4220.9855205472631496
 20
115.5681033498473056
 30
0.0
 40
42.3726073484539825
 50
178.7674033067114863
 51
188.0470538937020137
  0
ARC
  5
A0B7
  8
0
 10
4197.0491549873049735
 20
112.8588788038508
 30
0.0
 40
18.3048789112841703
 50
190.1390880269435968
 51
211.8150197634626011
  0
LINE
  5
A0B8
  8
0
 10
4182.0522873879754115
 20
118.9099303316312017
 30
0.0
 11
4182.0512382134165819
 21
118.9091868412807003
 31
0.0
  0
LINE
  5
A0B9
  8
0
 10
4181.9460082085142858
 20
118.8346163203858055
 30
0.0
 11
4178.6227179183460976
 21
116.4795894604084054
 31
0.0
  0
ARC
  5
A0BA
  8
0
 10
4181.6530481533645798
 20
118.2795549693664015
 30
0.0
 40
0.6529691440394975
 50
77.6968557066520731
 51
90.4060002565263545
  0
ARC
  5
A0BB
  8
0
 10
4181.7247310767143063
 20
118.6082358811209048
 30
0.0
 40
0.3165622724515848
 50
45.6531450206771368
 51
77.6968557066520731
  0
ARC
  5
A0BC
  8
0
 10
4181.6669611112502025
 20
118.5661947983009981
 30
0.0
 40
0.3871916786430141
 50
18.9765646397608485
 51
43.8881112724351325
  0
ARC
  5
A0BD
  8
0
 10
4180.8237853041173366
 20
118.3247731453009948
 30
0.0
 40
1.263881282390509
 50
0.6391528633832096
 51
16.8960258133024617
  0
LINE
  5
A0BE
  8
0
 10
4182.0875879478671777
 20
118.3388718554218997
 30
0.0
 11
4182.0875879478671777
 21
103.8112529796907069
 31
0.0
  0
ARC
  5
A0BF
  8
0
 10
4179.9649215623039709
 20
103.9266333214031022
 30
0.0
 40
2.1257998983089461
 50
352.3492131293342027
 51
356.888673888369226
  0
ARC
  5
A0C0
  8
0
 10
4181.4258583336486481
 20
103.7325538704595971
 30
0.0
 40
0.6520332911131014
 50
332.8850803122747948
 51
352.1602866388132043
  0
ARC
  5
A0C1
  8
0
 10
4181.6709708602302271
 20
103.6070429022422985
 30
0.0
 40
0.3766550896689042
 50
294.0940021812950818
 51
332.8850803122747948
  0
ARC
  5
A0C2
  8
0
 10
4181.5994944660824331
 20
103.7668752687191045
 30
0.0
 40
0.5517415263054893
 50
279.3615964371080054
 51
294.0940021812950818
  0
ARC
  5
A0C3
  8
0
 10
4181.5390799870710907
 20
104.1333337513441961
 30
0.0
 40
0.9231465999945863
 50
272.7701481716845819
 51
279.3615964371080054
  0
ARC
  5
A0C4
  8
0
 10
4181.4622521060173312
 20
105.7211487814565061
 30
0.0
 40
2.5128192370987672
 50
271.261810275149287
 51
272.7701481716845819
  0
ENDSEC
  0
EOF
