  0
SECTION
  2
HEADER
  9
$ACADVER
  1
AC1009
  9
$INSBASE
 10
2942.2637744646372084
 20
129.108291855016887
 30
0.0
  9
$EXTMIN
 10
2933.7061576101668834
 20
125.8115911515129994
 30
0.0
  9
$EXTMAX
 10
2942.2747855694178725
 20
131.0045123274167906
 30
0.0
  9
$LIMMIN
 10
0.0
 20
0.0
  9
$LIMMAX
 10
11.6929133858000007
 20
8.2677165353999982
  9
$ORTHOMODE
 70
     0
  9
$REGENMODE
 70
     1
  9
$FILLMODE
 70
     1
  9
$QTEXTMODE
 70
     0
  9
$MIRRTEXT
 70
     0
  9
$DRAGMODE
 70
     2
  9
$LTSCALE
 40
0.6431102362
  9
$OSMODE
 70
  4095
  9
$ATTMODE
 70
     1
  9
$TEXTSIZE
 40
0.2
  9
$TRACEWID
 40
0.05
  9
$TEXTSTYLE
  7
STANDARD
  9
$CLAYER
  8
0
  9
$CELTYPE
  6
BYLAYER
  9
$CECOLOR
 62
   256
  9
$DIMSCALE
 40
1.0
  9
$DIMASZ
 40
0.1875
  9
$DIMEXO
 40
0.0625
  9
$DIMDLI
 40
0.4443307087
  9
$DIMRND
 40
0.0
  9
$DIMDLE
 40
0.0
  9
$DIMEXE
 40
0.125
  9
$DIMTP
 40
0.01
  9
$DIMTM
 40
0.01
  9
$DIMTXT
 40
2.0
  9
$DIMCEN
 40
0.1052362205
  9
$DIMTSZ
 40
0.0
  9
$DIMTOL
 70
     1
  9
$DIMLIM
 70
     0
  9
$DIMTIH
 70
     1
  9
$DIMTOH
 70
     1
  9
$DIMSE1
 70
     0
  9
$DIMSE2
 70
     0
  9
$DIMTAD
 70
     0
  9
$DIMZIN
 70
     0
  9
$DIMBLK
  1

  9
$DIMASO
 70
     1
  9
$DIMSHO
 70
     1
  9
$DIMPOST
  1
\X
  9
$DIMAPOST
  1

  9
$DIMALT
 70
     1
  9
$DIMALTD
 70
     2
  9
$DIMALTF
 40
25.3999999999999986
  9
$DIMLFAC
 40
1.0
  9
$DIMTOFL
 70
     0
  9
$DIMTVP
 40
0.0
  9
$DIMTIX
 70
     0
  9
$DIMSOXD
 70
     0
  9
$DIMSAH
 70
     0
  9
$DIMBLK1
  1

  9
$DIMBLK2
  1

  9
$DIMSTYLE
  2
STANDARD
  9
$DIMCLRD
 70
     0
  9
$DIMCLRE
 70
     0
  9
$DIMCLRT
 70
     0
  9
$DIMTFAC
 40
1.0
  9
$DIMGAP
 40
0.09
  9
$LUNITS
 70
     2
  9
$LUPREC
 70
     4
  9
$SKETCHINC
 40
0.1
  9
$FILLETRAD
 40
0.0
  9
$AUNITS
 70
     0
  9
$AUPREC
 70
     0
  9
$MENU
  1
.
  9
$ELEVATION
 40
0.0
  9
$PELEVATION
 40
0.0
  9
$THICKNESS
 40
0.0
  9
$LIMCHECK
 70
     0
  9
$BLIPMODE
 70
     0
  9
$CHAMFERA
 40
0.0
  9
$CHAMFERB
 40
0.0
  9
$SKPOLY
 70
     0
  9
$TDCREATE
 40
2458060.468368056230247
  9
$TDUPDATE
 40
2459069.6812731479294598
  9
$TDINDWG
 40
0.3614422454
  9
$TDUSRTIMER
 40
0.3614422454
  9
$USRTIMER
 70
     1
  9
$ANGBASE
 50
0.0
  9
$ANGDIR
 70
     0
  9
$PDMODE
 70
     0
  9
$PDSIZE
 40
0.3125
  9
$PLINEWID
 40
0.0
  9
$COORDS
 70
     1
  9
$SPLFRAME
 70
     0
  9
$SPLINETYPE
 70
     6
  9
$SPLINESEGS
 70
     8
  9
$ATTDIA
 70
     1
  9
$ATTREQ
 70
     1
  9
$HANDLING
 70
     1
  9
$HANDSEED
  5
8B7B
  9
$SURFTAB1
 70
     6
  9
$SURFTAB2
 70
     6
  9
$SURFTYPE
 70
     6
  9
$SURFU
 70
     6
  9
$SURFV
 70
     6
  9
$UCSNAME
  2

  9
$UCSORG
 10
0.0
 20
0.0
 30
0.0
  9
$UCSXDIR
 10
1.0
 20
0.0
 30
0.0
  9
$UCSYDIR
 10
0.0
 20
1.0
 30
0.0
  9
$PUCSNAME
  2

  9
$PUCSORG
 10
0.0
 20
0.0
 30
0.0
  9
$PUCSXDIR
 10
1.0
 20
0.0
 30
0.0
  9
$PUCSYDIR
 10
0.0
 20
1.0
 30
0.0
  9
$USERI1
 70
     0
  9
$USERI2
 70
     0
  9
$USERI3
 70
     0
  9
$USERI4
 70
     0
  9
$USERI5
 70
     0
  9
$USERR1
 40
0.0
  9
$USERR2
 40
0.0
  9
$USERR3
 40
0.0
  9
$USERR4
 40
0.0
  9
$USERR5
 40
0.0
  9
$WORLDVIEW
 70
     1
  9
$SHADEDGE
 70
     3
  9
$SHADEDIF
 70
    70
  9
$TILEMODE
 70
     1
  9
$MAXACTVP
 70
    64
  9
$PLIMCHECK
 70
     0
  9
$PEXTMIN
 10
1.0000000000000000E+20
 20
1.0000000000000000E+20
 30
1.0000000000000000E+20
  9
$PEXTMAX
 10
-1.0000000000000000E+20
 20
-1.0000000000000000E+20
 30
-1.0000000000000000E+20
  9
$PLIMMIN
 10
0.0
 20
0.0
  9
$PLIMMAX
 10
12.0
 20
9.0
  9
$UNITMODE
 70
     0
  9
$VISRETAIN
 70
     1
  9
$PLINEGEN
 70
     0
  9
$PSLTSCALE
 70
     1
  0
ENDSEC
  0
SECTION
  2
TABLES
  0
TABLE
  2
VPORT
 70
     1
  0
VPORT
  2
*ACTIVE
 70
     0
 10
0.0
 20
0.0
 11
1.0
 21
1.0
 12
0.0
 22
0.0
 13
0.0
 23
0.0
 14
1.0
 24
1.0
 15
0.0
 25
0.0
 16
0.0
 26
0.0
 36
36.2596921989070466
 17
2937.9904201286158241
 27
128.4080543518066122
 37
0.0
 40
10.0194617514995592
 41
2.8398203592814371
 42
50.0
 43
0.0
 44
0.0
 50
0.0
 51
0.0
 71
     0
 72
   100
 73
     1
 74
     1
 75
     0
 76
     0
 77
     0
 78
     0
  0
ENDTAB
  0
TABLE
  2
LTYPE
 70
     2
  0
LTYPE
  2
CONTINUOUS
 70
     0
  3
Solid line
 72
    65
 73
     0
 40
0.0
  0
LTYPE
  2
PHANTOM2
 70
     0
  3
___ _ _ ___ _ _ ___ _ _ ___ _ _
 72
    65
 73
     6
 40
1.25
 49
0.625
 49
-0.125
 49
0.125
 49
-0.125
 49
0.125
 49
-0.125
  0
ENDTAB
  0
TABLE
  2
LAYER
 70
     2
  0
LAYER
  2
0
 70
     0
 62
   255
  6
CONTINUOUS
  0
LAYER
  2
DEFPOINTS
 70
     0
 62
     7
  6
CONTINUOUS
  0
ENDTAB
  0
TABLE
  2
STYLE
 70
     1
  0
STYLE
  2
STANDARD
 70
     0
 40
0.0
 41
0.8
 50
0.0
 71
     0
 42
0.2
  3
txt
  4

  0
ENDTAB
  0
TABLE
  2
VIEW
 70
     0
  0
ENDTAB
  0
TABLE
  2
UCS
 70
     0
  0
ENDTAB
  0
TABLE
  2
APPID
 70
     9
  0
APPID
  2
ACAD
 70
     0
  0
APPID
  2
ACAD_MLEADERVER
 70
     0
  0
APPID
  2
ACAD_EXEMPT_FROM_CAD_STANDARDS
 70
     0
  0
APPID
  2
ACAD_NAV_VCDISPLAY
 70
     0
  0
APPID
  2
ACAECLAYERSTANDARD
 70
     0
  0
APPID
  2
ACCMTRANSPARENCY
 70
     0
  0
APPID
  2
ACAD_DSTYLE_DIMJAG
 70
     0
  0
APPID
  2
ACAD_DSTYLE_DIMTALN
 70
     0
  0
APPID
  2
ACDBATTR
 70
     0
  0
ENDTAB
  0
TABLE
  2
DIMSTYLE
 70
     1
  0
DIMSTYLE
  2
STANDARD
 70
     0
  3

  4

  5

  6

  7

 40
1.0
 41
0.1875
 42
0.0625
 43
0.38
 44
0.125
 45
0.0
 46
0.0
 47
0.01
 48
0.01
140
0.15625
141
0.09
142
0.0
143
25.3999999999999986
144
1.0
145
0.0
146
1.0
147
0.09
 71
     1
 72
     0
 73
     1
 74
     1
 75
     0
 76
     0
 77
     0
 78
     4
170
     0
171
     2
172
     0
173
     0
174
     0
175
     0
176
     0
177
     0
178
     0
  0
ENDTAB
  0
ENDSEC
  0
SECTION
  2
BLOCKS
  0
BLOCK
  8
0
  2
$MODEL_SPACE
 70
     0
 10
0.0
 20
0.0
 30
0.0
  3
$MODEL_SPACE
  1

  0
ENDBLK
  5
21
  8
0
  0
BLOCK
 67
     1
  8
0
  2
$PAPER_SPACE
 70
     0
 10
0.0
 20
0.0
 30
0.0
  3
$PAPER_SPACE
  1

  0
ENDBLK
  5
1D
 67
     1
  8
0
  0
BLOCK
  8
0
  2
_FILLED
 70
     0
 10
0.0
 20
0.0
 30
0.0
  3
_FILLED
  1

  0
SOLID
  5
7AD5
  8
0
  6
BYBLOCK
 62
     0
 10
0.0
 20
0.0
 30
0.0
 11
-1.0
 21
0.1666666667
 31
0.0
 12
-1.0
 22
-0.1666666667
 32
0.0
 13
-1.0
 23
-0.1666666667
 33
0.0
  0
ENDBLK
  5
7AD6
  8
0
  6
BYBLOCK
 62
     0
  0
BLOCK
  8
0
  2
*D2
 70
     1
 10
0.0
 20
0.0
 30
0.0
  3
*D2
  1

  0
LINE
  5
813B
  8
0
 62
     0
 10
2934.5743554255600429
 20
142.9876002219797897
 30
0.0
 11
2937.7395921063030073
 21
142.9876002219797897
 31
0.0
  0
LINE
  5
813C
  8
0
 62
     0
 10
2934.5443554255598428
 20
144.2276002219797135
 30
0.0
 11
2937.7395921063030073
 21
144.2276002219797135
 31
0.0
  0
LINE
  5
813D
  8
0
 62
     0
 10
2937.6145921063030073
 20
143.1751002219797897
 30
0.0
 11
2937.6145921063030073
 21
144.0401002219797135
 31
0.0
  0
LINE
  5
813E
  8
0
 62
     0
 10
2937.6145921063030073
 20
144.2276002219797135
 30
0.0
 11
2937.6145921063030073
 21
144.4151002219797135
 31
0.0
  0
LINE
  5
813F
  8
0
 62
     0
 10
2937.6145921063030073
 20
144.4151002219797135
 30
0.0
 11
2937.8020921063020978
 21
144.4151002219797135
 31
0.0
  0
SOLID
  5
8140
  8
0
 62
     0
 10
2937.5833421063020978
 20
143.1751002219797897
 30
0.0
 11
2937.6458421063030073
 21
143.1751002219797897
 31
0.0
 12
2937.6145921063030073
 22
142.9876002219797897
 32
0.0
 13
2937.6145921063030073
 23
142.9876002219797897
 33
0.0
  0
SOLID
  5
8141
  8
0
 62
     0
 10
2937.5833421063020978
 20
144.0401002219797135
 30
0.0
 11
2937.6458421063030073
 21
144.0401002219797135
 31
0.0
 12
2937.6145921063030073
 22
144.2276002219797135
 32
0.0
 13
2937.6145921063030073
 23
144.2276002219797135
 33
0.0
  0
INSERT
  5
8142
  8
0
  2
*U4
 10
0.0
 20
0.0
 30
0.0
  0
INSERT
  5
8143
  8
0
  2
*U5
 10
0.0
 20
0.0
 30
0.0
  0
POINT
  5
8144
  8
DEFPOINTS
 62
     0
 10
2934.5118554255609524
 20
142.9876002219797897
 30
0.0
  0
POINT
  5
8145
  8
DEFPOINTS
 62
     0
 10
2934.4818554255589333
 20
144.2276002219797135
 30
0.0
  0
POINT
  5
8146
  8
DEFPOINTS
 62
     0
 10
2937.6145921063030073
 20
144.2276002219797135
 30
0.0
  0
ENDBLK
  5
813A
  8
0
  0
BLOCK
  8
0
  2
*U4
 70
     1
 10
0.0
 20
0.0
 30
0.0
  3
*U4
  1

  0
TEXT
  5
8B74
  8
0
 62
     0
 10
2937.8920921063031528
 20
144.5051002219788074
 30
0.0
 40
2.0
  1
1.2400±0.0100
 41
0.8
  0
ENDBLK
  5
8B76
  8
0
  0
BLOCK
  8
0
  2
*U5
 70
     1
 10
0.0
 20
0.0
 30
0.0
  3
*U5
  1

  0
TEXT
  5
8B78
  8
0
 62
     0
 10
2938.4254254396360011
 20
142.3251002219788006
 30
0.0
 40
2.0
  1
[31.50±0.25]
 41
0.8
  0
ENDBLK
  5
8B7A
  8
0
  0
ENDSEC
  0
SECTION
  2
ENTITIES
  0
ATTDEF
  5
6F66
  8
DEFPOINTS
 10
2942.2641189027490327
 20
129.1118707564947954
 30
0.0
 40
0.001
  1
K-210T
  3

  2
MODELNUMBER
 70
     0
1001
ACDBATTR
1070
     0
1070
     1
  0
ATTDEF
  5
6F67
  8
DEFPOINTS
 10
2942.2641189027490327
 20
129.1102040898281871
 30
0.0
 40
0.001
  1
FALLING WATER
  3

  2
TRADENAME
 70
     0
1001
ACDBATTR
1070
     0
1070
     1
  0
ATTDEF
  5
6F68
  8
DEFPOINTS
 10
2942.2641189027490327
 20
129.1085374231614935
 30
0.0
 40
0.001
  1
BATHROOM SINK FAUCET
  3

  2
PRODUCT
 70
     0
1001
ACDBATTR
1070
     0
1070
     1
  0
ARC
  5
8867
  8
0
 10
2942.2761721732831575
 20
129.850208063678707
 30
0.0
 40
0.5000000015020164
 50
95.175566982314507
 51
111.2567794977023965
  0
ARC
  5
8868
  8
0
 10
2942.1057744645509047
 20
130.2882316045435118
 30
0.0
 40
0.0299999999137407
 50
111.256779437286994
 51
180.0000000509515132
  0
LINE
  5
8869
  8
0
 10
2942.0757744646371066
 20
130.2882316045167954
 30
0.0
 11
2942.0757744646371066
 21
127.9283521055167938
 31
0.0
  0
ARC
  5
886A
  8
0
 10
2942.1057744645181629
 20
127.9283521054801014
 30
0.0
 40
0.0299999998811949
 50
179.9999999298279079
 51
248.7432207700445872
  0
ARC
  5
886B
  8
0
 10
2942.2761721709262019
 20
128.3663756361424078
 30
0.0
 40
0.4999999911185225
 50
248.7432203390827965
 51
264.824433181013319
  0
LINE
  5
886C
  8
0
 10
2942.0757744646371066
 20
129.9803390991168044
 30
0.0
 11
2941.7586563544368801
 21
129.9803390991168044
 31
0.0
  0
ARC
  5
886D
  8
0
 10
2941.751930404785071
 20
129.9415478023771016
 30
0.0
 40
0.0393700787587252
 50
80.1633890987022397
 51
160.6752106934326889
  0
LINE
  5
886E
  8
0
 10
2941.7147785203369494
 20
129.9545762552172903
 30
0.0
 11
2941.7147785203369494
 21
128.2620074549168123
 31
0.0
  0
ARC
  5
886F
  8
0
 10
2941.7519304100878799
 20
128.2750359166795988
 30
0.0
 40
0.039370086715375
 50
199.3247990063433974
 51
279.8366034761276069
  0
LINE
  5
8870
  8
0
 10
2941.7586563560721515
 20
128.2362446112284999
 30
0.0
 11
2942.0757744646371066
 21
128.2362446112284999
 31
0.0
  0
ARC
  5
8871
  8
0
 10
2941.7499949371372168
 20
132.3586001434169077
 30
0.0
 40
4.1240582884000583
 50
263.1536839630219902
 51
270.0
  0
ARC
  5
8872
  8
0
 10
2941.6326552510849979
 20
129.9624523406415904
 30
0.0
 40
0.0197018979586944
 50
359.9509939989101213
 51
89.9509939868050736
  0
LINE
  5
8873
  8
0
 10
2941.6523571418370011
 20
129.9624354892937106
 30
0.0
 11
2941.652357141847915
 21
129.1082918550168017
 31
0.0
  0
LINE
  5
8874
  8
0
 10
2941.652357141847915
 20
129.1082926159143938
 30
0.0
 11
2941.2598554010369298
 21
128.2665691556167928
 31
0.0
  0
ARC
  5
8875
  8
0
 10
2941.2420147632651606
 20
128.2748883741166139
 30
0.0
 40
0.0196849625996387
 50
263.6189765286662805
 51
335.0000198361572075
  0
ARC
  5
8876
  8
0
 10
2941.6534800677031853
 20
131.9541844913127022
 30
0.0
 40
3.721917210145802
 50
241.5452964777325917
 51
263.6189765286662805
  0
ARC
  5
8877
  8
0
 10
2939.9082551422329743
 20
128.7338112691296885
 30
0.0
 40
0.0590476068651034
 50
179.9956608820446036
 51
241.5452964777329896
  0
LINE
  5
8878
  8
0
 10
2939.8492075355370616
 20
128.7338157409168105
 30
0.0
 11
2939.8492642539999906
 21
129.4827533367690933
 31
0.0
  0
ARC
  5
8879
  8
0
 10
2939.9083752724850456
 20
129.4827488601796972
 30
0.0
 40
0.0591110186539826
 50
118.5548675639673064
 51
179.9956608820446036
  0
ARC
  5
887A
  8
0
 10
2941.3636672343927785
 20
126.808544648798204
 30
0.0
 40
3.1036541467053449
 50
117.5953534435648038
 51
118.5548675639673064
  0
ARC
  5
887B
  8
0
 10
2939.6903898574378218
 20
130.4418121867043965
 30
0.0
 40
0.9135804360084346
 50
284.9440239126903975
 51
305.3317070230689865
  0
ARC
  5
887C
  8
0
 10
2941.6220565761909711
 20
126.338487492463301
 30
0.0
 40
3.6394473576934301
 50
103.147022783735494
 51
112.6803774921983035
  0
ARC
  5
887D
  8
0
 10
2940.6931228317230307
 20
130.983769535220091
 30
0.0
 40
1.1058606539374549
 50
275.2474666395132772
 51
288.5012720750257245
  0
ARC
  5
887E
  8
0
 10
2940.9121996615372154
 20
129.8173504804167919
 30
0.0
 40
0.1887130281999996
 50
38.5917723101553634
 51
141.4082276898446082
  0
LINE
  5
887F
  8
0
 10
2940.7646996614421369
 20
129.9350635085168051
 30
0.0
 11
2941.0596996616309298
 21
129.9350635085168051
 31
0.0
  0
LINE
  5
8880
  8
0
 10
2940.7990041015368661
 20
129.9350635085168051
 30
0.0
 11
2940.7940686323458976
 21
129.8824983607125034
 31
0.0
  0
LINE
  5
8881
  8
0
 10
2941.02539522153711
 20
129.9350635085168051
 30
0.0
 11
2941.025927335968845
 21
129.9291753251656871
 31
0.0
  0
ARC
  5
8882
  8
0
 10
2941.6565529097019862
 20
126.1822439614528975
 30
0.0
 40
3.799985309518644
 50
90.3600746747184331
 51
99.0367097905089508
  0
ARC
  5
8883
  8
0
 10
2941.763353810721128
 20
125.3833947641399931
 30
0.0
 40
4.598778870217493
 50
90.1664372594394763
 51
91.531003315780481
  0
LINE
  5
8884
  8
0
 10
2939.8492075355370616
 20
128.7647918550167958
 30
0.0
 11
2938.5388925749371083
 21
128.7647918550167958
 31
0.0
  0
ARC
  5
8885
  8
0
 10
2938.5388925749371083
 20
124.3782918550167977
 30
0.0
 40
4.3865000000000007
 50
90.0
 51
150.0000000000027001
  0
LINE
  5
8886
  8
0
 10
2934.7400721412368512
 20
126.5715418550168039
 30
0.0
 11
2934.6500721412289749
 21
126.4156572823217033
 31
0.0
  0
LINE
  5
8887
  8
0
 10
2939.8492075355370616
 20
129.4517918550168076
 30
0.0
 11
2938.5388925749371083
 21
129.4517918550168076
 31
0.0
  0
ARC
  5
8888
  8
0
 10
2938.5388925749371083
 20
124.3782918550173946
 30
0.0
 40
5.0734999999993988
 50
90.0
 51
150.0000000000055138
  0
LINE
  5
8889
  8
0
 10
2934.145112688836889
 20
126.9150418550167956
 30
0.0
 11
2934.0551126888290128
 21
126.759157282321496
 31
0.0
  0
LINE
  5
888A
  8
0
 10
2934.0551126888290128
 20
126.759157282321496
 30
0.0
 11
2934.6500721412371604
 21
126.4156572823168005
 31
0.0
  0
LINE
  5
888B
  8
0
 10
2933.7111576872580372
 20
126.1494494182036021
 30
0.0
 11
2934.2940235942369327
 21
125.8129316299168039
 31
0.0
  0
ARC
  5
888C
  8
0
 10
2934.2990263277470149
 20
125.8215966185326948
 30
0.0
 40
0.010005467019755
 50
240.0000000006349126
 51
313.7434521045630049
  0
ARC
  5
888D
  8
0
 10
2933.4592542511950342
 20
126.6990346946197974
 30
0.0
 40
1.224548474872023
 50
313.7434521045630049
 51
346.4325995525362032
  0
ARC
  5
888E
  8
0
 10
2934.6447677732330703
 20
126.4129426905077054
 30
0.0
 40
0.0050030900045636
 50
346.4325997044279006
 51
59.9735007764462296
  0
ARC
  5
888F
  8
0
 10
2933.7161579589837856
 20
126.1581099181398002
 30
0.0
 40
0.010000348817852
 50
166.2345546740056932
 51
239.9993558690495092
  0
ARC
  5
8890
  8
0
 10
2934.8976768147072107
 20
125.8685571791580031
 30
0.0
 40
1.2264819947965999
 50
133.5938758612358868
 51
166.2300482982637106
  0
ARC
  5
8891
  8
0
 10
2934.0554135107349794
 20
126.7532100999986966
 30
0.0
 40
0.0050000000177558
 50
60.0000005029469108
 51
133.5938664879334112
  0
LINE
  5
8892
  8
0
 10
2934.2199647913371336
 20
125.8556894996168012
 30
0.0
 11
2934.214407311037121
 21
125.8460636614168067
 31
0.0
  0
LINE
  5
8893
  8
0
 10
2934.214407311037121
 20
125.8460636614168067
 30
0.0
 11
2933.7796625588071038
 21
126.0970636622317045
 31
0.0
  0
LINE
  5
8894
  8
0
 10
2933.7796625588071038
 20
126.0970636622317045
 30
0.0
 11
2933.7852200386369077
 21
126.106689499616806
 31
0.0
  0
LINE
  5
8895
  8
0
 10
2939.9780898943649845
 20
130.8335922415168113
 30
0.0
 11
2940.1612700585437778
 21
130.8335922414975983
 31
0.0
  0
ARC
  5
8896
  8
0
 10
2940.0696799764368734
 20
130.8945123274168054
 30
0.0
 40
0.1100000000000003
 50
326.3705936592501757
 51
213.6301514957307859
  0
ARC
  5
8897
  8
0
 10
2940.1862491720771686
 20
130.8169776726251996
 30
0.0
 40
0.0300000002352313
 50
146.3705939266060909
 51
193.8746868804500139
  0
ARC
  5
8898
  8
0
 10
2937.2446799756658038
 20
130.0902929619558108
 30
0.0
 40
3.0000000007700001
 50
352.4572856889953982
 51
13.87652151836439
  0
ARC
  5
8899
  8
0
 10
2938.9359299528891825
 20
129.5173196297014044
 30
0.0
 40
1.0000000235953701
 50
2.53641207890659
 51
8.2355537202480171
  0
ARC
  5
889A
  8
0
 10
2942.894679975112922
 20
130.0902929621111923
 30
0.0
 40
2.9999999986677302
 50
166.1234966373355064
 51
188.2355723053518943
  0
ARC
  5
889B
  8
0
 10
2939.9531107814968891
 20
130.8169776728036027
 30
0.0
 40
0.0299999996130587
 50
346.1234962259155736
 51
33.6294064455935668
  0
ARC
  5
889C
  8
0
 10
2941.6545846351527871
 20
129.9556073269031913
 30
0.0
 40
0.0605788472517885
 50
267.8927505479653064
 51
353.5372649663443099
  0
ARC
  5
889D
  8
0
 10
2942.2337744646370084
 20
130.3182918550157865
 30
0.0
 40
0.030000000000971
 50
0.0000000021576883
 51
95.1755672659602538
  0
LINE
  5
889E
  8
0
 10
2942.2637744646372084
 20
130.3182918550168949
 30
0.0
 11
2942.2637744646372084
 21
127.8982918550167938
 31
0.0
  0
ARC
  5
889F
  8
0
 10
2942.2337744646370084
 20
127.8982918550167938
 30
0.0
 40
0.0300000000000083
 50
264.8244331892021819
 51
359.9999999999919282
  0
LINE
  5
88A0
  8
0
 10
2941.3255854882368112
 20
128.4075279099126874
 30
0.0
 11
2941.3255854883150278
 21
128.3859857237216886
 31
0.0
  0
ARC
  5
88A1
  8
0
 10
2941.7729250408337975
 20
129.7929609074215875
 30
0.0
 40
1.4763779471379399
 50
252.3622412579688898
 51
265.6222791489769861
  0
ARC
  5
88A2
  8
0
 10
2941.6557234022370722
 20
128.2620074549168123
 30
0.0
 40
0.0590551181000052
 50
0.0000000000056996
 51
85.6222791110865273
  0
LINE
  5
88A3
  8
0
 10
2942.0757744646371066
 20
128.2345418550168006
 30
0.0
 11
2941.7499949371372168
 21
128.2345418550168006
 31
0.0
  0
LINE
  5
88A4
  8
0
 10
2942.0757744646371066
 20
129.9821542313937073
 30
0.0
 11
2941.7499949371372168
 21
129.9821542313937073
 31
0.0
  0
ENDSEC
  0
EOF
