  0
SECTION
  2
HEADER
  9
$ACADVER
  1
AC1009
  9
$INSBASE
 10
7909.5006893691952428
 20
1824.2545954542979416
 30
0.0
  9
$EXTMIN
 10
7885.8565469171990117
 20
1824.1623044760710854
 30
-0.0000000349181948
  9
$EXTMAX
 10
7909.9951906476017029
 20
1841.583982391967993
 30
0.0000000814935746
  9
$LIMMIN
 10
0.0
 20
0.0
  9
$LIMMAX
 10
11.6929133858000007
 20
8.2677165353999982
  9
$ORTHOMODE
 70
     0
  9
$REGENMODE
 70
     1
  9
$FILLMODE
 70
     1
  9
$QTEXTMODE
 70
     0
  9
$MIRRTEXT
 70
     0
  9
$DRAGMODE
 70
     2
  9
$LTSCALE
 40
0.6431102362
  9
$OSMODE
 70
  4063
  9
$ATTMODE
 70
     1
  9
$TEXTSIZE
 40
0.2
  9
$TRACEWID
 40
0.05
  9
$TEXTSTYLE
  7
STANDARD
  9
$CLAYER
  8
0
  9
$CELTYPE
  6
BYLAYER
  9
$CECOLOR
 62
   256
  9
$DIMSCALE
 40
1.0
  9
$DIMASZ
 40
0.1875
  9
$DIMEXO
 40
0.0625
  9
$DIMDLI
 40
0.4443307087
  9
$DIMRND
 40
0.0
  9
$DIMDLE
 40
0.0
  9
$DIMEXE
 40
0.125
  9
$DIMTP
 40
0.01
  9
$DIMTM
 40
0.01
  9
$DIMTXT
 40
2.0
  9
$DIMCEN
 40
0.1052362205
  9
$DIMTSZ
 40
0.0
  9
$DIMTOL
 70
     1
  9
$DIMLIM
 70
     0
  9
$DIMTIH
 70
     1
  9
$DIMTOH
 70
     1
  9
$DIMSE1
 70
     0
  9
$DIMSE2
 70
     0
  9
$DIMTAD
 70
     0
  9
$DIMZIN
 70
     0
  9
$DIMBLK
  1

  9
$DIMASO
 70
     1
  9
$DIMSHO
 70
     1
  9
$DIMPOST
  1
\X
  9
$DIMAPOST
  1

  9
$DIMALT
 70
     1
  9
$DIMALTD
 70
     2
  9
$DIMALTF
 40
25.3999999999999986
  9
$DIMLFAC
 40
1.0
  9
$DIMTOFL
 70
     0
  9
$DIMTVP
 40
0.0
  9
$DIMTIX
 70
     0
  9
$DIMSOXD
 70
     0
  9
$DIMSAH
 70
     0
  9
$DIMBLK1
  1

  9
$DIMBLK2
  1

  9
$DIMSTYLE
  2
STANDARD
  9
$DIMCLRD
 70
     0
  9
$DIMCLRE
 70
     0
  9
$DIMCLRT
 70
     0
  9
$DIMTFAC
 40
1.0
  9
$DIMGAP
 40
0.09
  9
$LUNITS
 70
     2
  9
$LUPREC
 70
     4
  9
$SKETCHINC
 40
0.1
  9
$FILLETRAD
 40
0.0
  9
$AUNITS
 70
     0
  9
$AUPREC
 70
     0
  9
$MENU
  1
.
  9
$ELEVATION
 40
0.0
  9
$PELEVATION
 40
0.0
  9
$THICKNESS
 40
0.0
  9
$LIMCHECK
 70
     0
  9
$BLIPMODE
 70
     0
  9
$CHAMFERA
 40
0.0
  9
$CHAMFERB
 40
0.0
  9
$SKPOLY
 70
     0
  9
$TDCREATE
 40
2458060.468368056230247
  9
$TDUPDATE
 40
2459423.6580671300180256
  9
$TDINDWG
 40
0.531071875
  9
$TDUSRTIMER
 40
0.531071875
  9
$USRTIMER
 70
     1
  9
$ANGBASE
 50
0.0
  9
$ANGDIR
 70
     0
  9
$PDMODE
 70
     0
  9
$PDSIZE
 40
0.3125
  9
$PLINEWID
 40
0.0
  9
$COORDS
 70
     1
  9
$SPLFRAME
 70
     0
  9
$SPLINETYPE
 70
     6
  9
$SPLINESEGS
 70
     8
  9
$ATTDIA
 70
     1
  9
$ATTREQ
 70
     1
  9
$HANDLING
 70
     1
  9
$HANDSEED
  5
104F3
  9
$SURFTAB1
 70
     6
  9
$SURFTAB2
 70
     6
  9
$SURFTYPE
 70
     6
  9
$SURFU
 70
     6
  9
$SURFV
 70
     6
  9
$UCSNAME
  2

  9
$UCSORG
 10
0.0
 20
0.0
 30
0.0
  9
$UCSXDIR
 10
1.0
 20
0.0
 30
0.0
  9
$UCSYDIR
 10
0.0
 20
1.0
 30
0.0
  9
$PUCSNAME
  2

  9
$PUCSORG
 10
0.0
 20
0.0
 30
0.0
  9
$PUCSXDIR
 10
1.0
 20
0.0
 30
0.0
  9
$PUCSYDIR
 10
0.0
 20
1.0
 30
0.0
  9
$USERI1
 70
     0
  9
$USERI2
 70
     0
  9
$USERI3
 70
     0
  9
$USERI4
 70
     0
  9
$USERI5
 70
     0
  9
$USERR1
 40
0.0
  9
$USERR2
 40
0.0
  9
$USERR3
 40
0.0
  9
$USERR4
 40
0.0
  9
$USERR5
 40
0.0
  9
$WORLDVIEW
 70
     1
  9
$SHADEDGE
 70
     3
  9
$SHADEDIF
 70
    70
  9
$TILEMODE
 70
     1
  9
$MAXACTVP
 70
    64
  9
$PLIMCHECK
 70
     0
  9
$PEXTMIN
 10
1.0000000000000000E+20
 20
1.0000000000000000E+20
 30
1.0000000000000000E+20
  9
$PEXTMAX
 10
-1.0000000000000000E+20
 20
-1.0000000000000000E+20
 30
-1.0000000000000000E+20
  9
$PLIMMIN
 10
0.0
 20
0.0
  9
$PLIMMAX
 10
12.0
 20
9.0
  9
$UNITMODE
 70
     0
  9
$VISRETAIN
 70
     1
  9
$PLINEGEN
 70
     0
  9
$PSLTSCALE
 70
     1
  0
ENDSEC
  0
SECTION
  2
TABLES
  0
TABLE
  2
VPORT
 70
     1
  0
VPORT
  2
*ACTIVE
 70
     0
 10
0.0
 20
0.0
 11
1.0
 21
1.0
 12
3082.6275289386508121
 22
1585.0645191664409595
 13
0.0
 23
0.0
 14
1.0
 24
1.0
 15
0.0
 25
0.0
 16
0.0
 26
0.0
 36
9.5192988075487186
 17
4815.2983398437490905
 27
247.8086242675780966
 37
0.0
 40
17.5539944570314184
 41
2.0798479087452471
 42
50.0
 43
0.0
 44
0.0
 50
0.0
 51
0.0
 71
     0
 72
   100
 73
     1
 74
     1
 75
     0
 76
     0
 77
     0
 78
     0
  0
ENDTAB
  0
TABLE
  2
LTYPE
 70
     2
  0
LTYPE
  2
CONTINUOUS
 70
     0
  3
Solid line
 72
    65
 73
     0
 40
0.0
  0
LTYPE
  2
PHANTOM2
 70
     0
  3
___ _ _ ___ _ _ ___ _ _ ___ _ _
 72
    65
 73
     6
 40
1.25
 49
0.625
 49
-0.125
 49
0.125
 49
-0.125
 49
0.125
 49
-0.125
  0
ENDTAB
  0
TABLE
  2
LAYER
 70
     2
  0
LAYER
  2
0
 70
     0
 62
   255
  6
CONTINUOUS
  0
LAYER
  2
DEFPOINTS
 70
     0
 62
     7
  6
CONTINUOUS
  0
ENDTAB
  0
TABLE
  2
STYLE
 70
     1
  0
STYLE
  2
STANDARD
 70
     0
 40
0.0
 41
0.8
 50
0.0
 71
     0
 42
0.2
  3
txt
  4

  0
ENDTAB
  0
TABLE
  2
VIEW
 70
     0
  0
ENDTAB
  0
TABLE
  2
UCS
 70
     0
  0
ENDTAB
  0
TABLE
  2
APPID
 70
    10
  0
APPID
  2
ACAD
 70
     0
  0
APPID
  2
ACAD_MLEADERVER
 70
     0
  0
APPID
  2
ACAD_EXEMPT_FROM_CAD_STANDARDS
 70
     0
  0
APPID
  2
ACAD_NAV_VCDISPLAY
 70
     0
  0
APPID
  2
ACAECLAYERSTANDARD
 70
     0
  0
APPID
  2
ACCMTRANSPARENCY
 70
     0
  0
APPID
  2
ACAD_DSTYLE_DIMJAG
 70
     0
  0
APPID
  2
ACAD_DSTYLE_DIMTALN
 70
     0
  0
APPID
  2
ACDBATTR
 70
     0
  0
APPID
  2
ACADANNOTATIVE
 70
     0
  0
ENDTAB
  0
TABLE
  2
DIMSTYLE
 70
     1
  0
DIMSTYLE
  2
STANDARD
 70
     0
  3

  4

  5

  6

  7

 40
1.0
 41
0.1875
 42
0.0625
 43
0.38
 44
0.125
 45
0.0
 46
0.0
 47
0.01
 48
0.01
140
0.15625
141
0.09
142
0.0
143
25.3999999999999986
144
1.0
145
0.0
146
1.0
147
0.09
 71
     1
 72
     0
 73
     1
 74
     1
 75
     0
 76
     0
 77
     0
 78
     4
170
     0
171
     2
172
     0
173
     0
174
     0
175
     0
176
     0
177
     0
178
     0
  0
ENDTAB
  0
ENDSEC
  0
SECTION
  2
BLOCKS
  0
BLOCK
  8
0
  2
$MODEL_SPACE
 70
     0
 10
0.0
 20
0.0
 30
0.0
  3
$MODEL_SPACE
  1

  0
ENDBLK
  5
21
  8
0
  0
BLOCK
 67
     1
  8
0
  2
$PAPER_SPACE
 70
     0
 10
0.0
 20
0.0
 30
0.0
  3
$PAPER_SPACE
  1

  0
ENDBLK
  5
1D
 67
     1
  8
0
  0
BLOCK
  8
0
  2
_FILLED
 70
     0
 10
0.0
 20
0.0
 30
0.0
  3
_FILLED
  1

  0
SOLID
  5
10393
  8
0
  6
BYBLOCK
 62
     0
 10
0.0
 20
0.0
 30
0.0
 11
-1.0
 21
0.1666666667
 31
0.0
 12
-1.0
 22
-0.1666666667
 32
0.0
 13
-1.0
 23
-0.1666666667
 33
0.0
  0
ENDBLK
  5
10394
  8
0
  6
BYBLOCK
 62
     0
  0
ENDSEC
  0
SECTION
  2
ENTITIES
  0
ATTDEF
  5
3930
  8
DEFPOINTS
 10
7909.5017214569297721
 20
1824.2525124151738964
 30
0.0
 40
0.001
  1
K-21297K-SL
  3

  2
MODELNUMBER
 70
     0
1001
ACDBATTR
1070
     0
1070
     1
  0
ATTDEF
  5
3931
  8
DEFPOINTS
 10
7909.5017214569297721
 20
1824.2508457485068902
 30
0.0
 40
0.001
  1
VEIL
  3

  2
TRADENAME
 70
     0
1001
ACDBATTR
1070
     0
1070
     1
  0
ATTDEF
  5
3932
  8
DEFPOINTS
 10
7909.5017214569297721
 20
1824.2491790818410209
 30
0.0
 40
0.001
  1
TOILET
  3

  2
PRODUCT
 70
     0
1001
ACDBATTR
1070
     0
1070
     1
  0
LINE
  5
10405
  8
0
 10
7889.3584983393384391
 20
1824.2545954542979416
 30
0.0
 11
7909.5006893691952428
 21
1824.2545954542979416
 31
0.0
  0
LINE
  5
10406
  8
0
 10
7886.3190807358942038
 20
1839.4069954856979621
 30
0.0
 11
7886.3170281680932021
 21
1839.4120757692980987
 31
0.0
  0
LINE
  5
10407
  8
0
 10
7886.3170281680932021
 20
1839.4120757692980987
 30
0.0
 11
7909.5006893691952428
 21
1839.4120757692980987
 31
0.0
  0
ARC
  5
10408
  8
0
 10
7886.3678275236770787
 20
1839.175845788801098
 30
0.0
 40
0.2362338495953664
 50
101.9085215595162026
 51
206.6655324529909876
  0
ARC
  5
10409
  8
0
 10
7853.8237388986817678
 20
1824.6111810113150113
 30
0.0
 40
35.418555818662611
 50
359.6112110452945103
 51
24.0932167441689806
  0
ARC
  5
1040A
  8
0
 10
7889.3590365231857504
 20
1824.3721587896959591
 30
0.0
 40
0.1175645672458419
 50
180.6402837302265141
 51
269.737712037903691
  0
LINE
  5
1040B
  8
0
 10
7909.5006893691952428
 20
1824.2545954542979416
 30
0.0
 11
7909.5006893691952428
 21
1839.4120757692980987
 31
0.0
  0
ARC
  5
1040C
  8
0
 10
7892.2284299482080314
 20
1824.3545971150410878
 30
0.0
 40
0.3060239171705016
 50
340.9296711065171053
 51
3.9000834680354481
  0
LINE
  5
1040D
  8
0
 10
7892.5337451689956652
 20
1824.3754118654981085
 30
0.0
 11
7892.5307623728776889
 21
1824.6416112871479527
 31
0.0
  0
LINE
  5
1040E
  8
0
 10
7898.2048912943046162
 20
1824.6416112871479527
 30
0.0
 11
7898.3062961573950815
 21
1824.3711033236979802
 31
0.0
  0
ARC
  5
1040F
  8
0
 10
7899.5252133068497642
 20
1824.3563733384039551
 30
0.0
 40
1.2190061483454191
 50
179.3076437468884023
 51
184.789325109676895
  0
CIRCLE
  5
10410
  8
0
 10
7898.5947434784939105
 20
1825.2389078521980537
 30
0.0
 40
0.5308650676066256
  0
LINE
  5
10411
  8
0
 10
7892.5307623728776889
 20
1824.6416112871479527
 30
0.0
 11
7898.2048912943046162
 21
1824.6416112871479527
 31
0.0
  0
LINE
  5
10412
  8
0
 10
7897.8364040127944463
 20
1839.5695560841979841
 30
0.0
 11
7899.0411276230570365
 21
1839.5695560841979841
 31
0.0
  0
LINE
  5
10413
  8
0
 10
7897.875772656623667
 20
1839.4711308872979316
 30
0.0
 11
7899.0024593646094218
 21
1839.4711308872979316
 31
0.0
  0
LINE
  5
10414
  8
0
 10
7904.1575054997947518
 20
1839.4120757692980987
 30
0.0
 11
7904.1575054997947518
 21
1839.4457725161980761
 31
0.0
  0
ARC
  5
10415
  8
0
 10
7904.1968755794932804
 20
1839.4457725157260484
 30
0.0
 40
0.0393700796980849
 50
141.8279055317439088
 51
179.9999993122885087
  0
ARC
  5
10416
  8
0
 10
7903.9304607060776107
 20
1839.6602242564179051
 30
0.0
 40
0.3026364337006117
 50
321.0816249379597025
 51
357.7411778611424893
  0
LINE
  5
10417
  8
0
 10
7904.2328619850213727
 20
1839.6482962432990007
 30
0.0
 11
7904.2360109248529625
 21
1839.708381596298068
 31
0.0
  0
ARC
  5
10418
  8
0
 10
7904.255769346787929
 20
1839.707308147590993
 30
0.0
 40
0.019787559967169
 50
89.9534244369550038
 51
176.8902537266075115
  0
ARC
  5
10419
  8
0
 10
7904.2573123593620039
 20
1839.7467231445580182
 30
0.0
 40
0.0196867480021919
 50
178.1808010506433959
 51
269.9646716140514968
  0
LINE
  5
1041A
  8
0
 10
7904.2376355338947178
 20
1839.7473481136980809
 30
0.0
 11
7904.2568323405112096
 21
1840.3639892443179633
 31
0.0
  0
LINE
  5
1041B
  8
0
 10
7904.2573002205799639
 20
1839.7270364002979477
 30
0.0
 11
7905.281059775959875
 21
1839.7270413897979324
 31
0.0
  0
LINE
  5
1041C
  8
0
 10
7905.3164870949531178
 20
1839.4120757692980987
 30
0.0
 11
7905.3009583645953171
 21
1839.708381596298068
 31
0.0
  0
ARC
  5
1041D
  8
0
 10
7905.2812893133714169
 20
1839.7073464563140988
 30
0.0
 40
0.0196962710268125
 50
3.0125749216467739
 51
90.6677316044595329
  0
ARC
  5
1041E
  8
0
 10
7905.2795765281225613
 20
1839.7467518821611066
 30
0.0
 40
0.0197662220300345
 50
274.3034931021448983
 51
1.728541408493637
  0
LINE
  5
1041F
  8
0
 10
7905.299333755693624
 20
1839.7473481136980809
 30
0.0
 11
7905.280307482261378
 21
1840.3695940088909992
 31
0.0
  0
ARC
  5
10420
  8
0
 10
7904.7650086703370107
 20
1840.3759610174070076
 30
0.0
 40
0.5153381456550254
 50
359.292091996701572
 51
16.3635923310672702
  0
LINE
  5
10421
  8
0
 10
7905.2594721117066001
 20
1840.5211481708190604
 30
0.0
 11
7905.005169204277081
 21
1841.3872112161579935
 31
0.0
  0
ARC
  5
10422
  8
0
 10
7904.8918305209354003
 20
1841.3539247618489298
 30
0.0
 40
0.1181255483882382
 50
16.3669938101285304
 51
88.3889759792450036
  0
ARC
  5
10423
  8
0
 10
7904.8918305209354003
 20
1841.3539247618489298
 30
0.0
 40
0.1181255483882382
 50
91.611024020754968
 51
108.1255831646410996
  0
ARC
  5
10424
  8
0
 10
7897.776858659739446
 20
1864.1730564079600754
 30
0.0
 40
23.7845135992594585
 50
271.4277939061447
 51
287.3133884646987894
  0
ARC
  5
10425
  8
0
 10
7904.7685158051908729
 20
1840.3766718536589906
 30
0.0
 40
0.5118406164088963
 50
177.0034415145910884
 51
359.2076760897901977
  0
ARC
  5
10426
  8
0
 10
7915.1703720477289608
 20
1841.0176768565208931
 30
0.0
 40
10.9330991230918393
 50
182.7465280363209104
 51
183.4277464956230972
  0
ARC
  5
10427
  8
0
 10
58156.5772072889885749
 20
-793.1930240582250917
 30
0.0
 40
50321.2825631383384462
 50
176.9999573974282043
 51
177.0000182305404053
  0
ARC
  5
10428
  8
0
 10
7904.1883073358039837
 20
1840.4566516916061119
 30
0.0
 40
0.0718640443105946
 50
0.1051925538153444
 51
67.5012999284765556
  0
LINE
  5
10429
  8
0
 10
7905.18213259377535
 20
1840.7845383896049043
 30
0.0
 11
7904.2158070085943109
 21
1840.5230460351979218
 31
0.0
  0
ARC
  5
1042A
  8
0
 10
7904.1180546553759996
 20
1840.5753571560169348
 30
0.0
 40
0.0797761345675361
 50
287.154648713793506
 51
304.3017651677458275
  0
ARC
  5
1042B
  8
0
 10
7902.266153225976268
 20
1836.7023336418819781
 30
0.0
 40
3.0709346704762579
 50
105.494243912841398
 51
118.0687642957383048
  0
ARC
  5
1042C
  8
0
 10
7951.0158154740383907
 20
1684.8535303926469169
 30
0.0
 40
162.5507496437381008
 50
106.7602007149555021
 51
107.7552244462073929
  0
ARC
  5
1042D
  8
0
 10
7897.4752954592031529
 20
1866.5984114375589797
 30
0.0
 40
26.9324929557976311
 50
272.0919305863782824
 51
284.4937460336232107
  0
LINE
  5
1042E
  8
0
 10
7886.070004770693231
 20
1839.667451422043996
 30
0.0
 11
7897.8573458529090203
 21
1839.667451422043996
 31
0.0
  0
LINE
  5
1042F
  8
0
 10
7886.1848473452946564
 20
1839.9134866847600733
 30
0.0
 11
7898.1628535207346431
 21
1839.9134866847600733
 31
0.0
  0
LINE
  5
10430
  8
0
 10
7886.187886136994166
 20
1840.3959274190979158
 30
0.0
 11
7898.3695003730890676
 21
1840.3959274190979158
 31
0.0
  0
LINE
  5
10431
  8
0
 10
7904.8951514989003044
 20
1841.4720036180740408
 30
0.0
 11
7904.8885095429714056
 21
1841.4720036180740408
 31
0.0
  0
ARC
  5
10432
  8
0
 10
7886.1974333507178017
 20
1839.786625394209068
 30
0.0
 40
0.1274840953716386
 50
95.6658174176371574
 51
178.3090455088203043
  0
ARC
  5
10433
  8
0
 10
7886.200258007602315
 20
1840.265842275480054
 30
0.0
 40
0.130672138470607
 50
95.4328283874241947
 51
175.4109984047250919
  0
ARC
  5
10434
  8
0
 10
7897.9069584637099979
 20
1863.5393094145529176
 30
0.0
 40
23.3771245349456009
 50
273.7126915500390965
 51
287.7601120189706876
  0
ARC
  5
10435
  8
0
 10
7897.4515112142444195
 20
1871.9709331219960404
 30
0.0
 40
31.820676034128379
 50
270.2892313495855205
 51
273.5479658280675039
  0
ARC
  5
10436
  8
0
 10
7891.4947897821639344
 20
1839.9237542110579398
 30
0.0
 40
0.2312083081567122
 50
101.0673900427228062
 51
158.2356586323321039
  0
ARC
  5
10437
  8
0
 10
7889.9537257012107148
 20
1839.9238796013999035
 30
0.0
 40
0.2301342096576285
 50
21.827765736000071
 51
80.2100335445163637
  0
LINE
  5
10438
  8
0
 10
7891.2645932988143613
 20
1839.9973177848980868
 30
0.0
 11
7890.1828559035020589
 21
1839.9973177848980868
 31
0.0
  0
ARC
  5
10439
  8
0
 10
7890.185533650547768
 20
1840.0169962382390167
 30
0.0
 40
0.0196784536179474
 50
202.5568553787134931
 51
270.0096209597369921
  0
ARC
  5
1043A
  8
0
 10
7891.2609232631411942
 20
1840.018015579790017
 30
0.0
 40
0.0209549311639607
 50
278.9850662647052104
 51
335.9744898528051067
  0
LINE
  5
1043B
  8
0
 10
7891.2645932988143613
 20
1839.9382626667979821
 30
0.0
 11
7891.2645932988143613
 21
1839.9973177848980868
 31
0.0
  0
LINE
  5
1043C
  8
0
 10
7890.1828559035020589
 20
1839.9382626667979821
 30
0.0
 11
7890.1828559035020589
 21
1839.9973177848980868
 31
0.0
  0
ARC
  5
1043D
  8
0
 10
7891.2242468249942249
 20
1839.9385078696288929
 30
0.0
 40
0.0403472189139917
 50
321.6731696530562203
 51
359.6517932534951001
  0
ARC
  5
1043E
  8
0
 10
7890.2224697555393504
 20
1839.9383834353770908
 30
0.0
 40
0.0396140361272408
 50
180.1746739595789961
 51
218.9382938641651037
  0
ARC
  5
1043F
  8
0
 10
7904.001085090621018
 20
1840.731219499783947
 30
0.0
 40
0.235912447114954
 50
14.6522411837413102
 51
93.4009806040185566
  0
ARC
  5
10440
  8
0
 10
7801.6154031746582405
 20
2211.9818139752001116
 30
0.0
 40
385.1133809181706056
 50
285.407561949741023
 51
285.5715885668942065
  0
ARC
  5
10441
  8
0
 10
7905.0269830155557429
 20
1840.8860607764640918
 30
0.0
 40
0.1216425348753678
 50
25.0036006319253588
 51
104.7175771403738054
  0
ARC
  5
10442
  8
0
 10
7897.706143121000423
 20
1864.5470437290859991
 30
0.0
 40
24.6377904253868216
 50
271.0621519528103249
 51
284.6409627540840006
  0
ARC
  5
10443
  8
0
 10
7897.5956365327183448
 20
1839.9150136976320482
 30
0.0
 40
0.2362262027358075
 50
32.3303816879255876
 51
85.9932608586087071
  0
ARC
  5
10444
  8
0
 10
7899.302347099729559
 20
1839.9656434353289569
 30
0.0
 40
0.2383821431631836
 50
96.1861389231755766
 51
149.6129636077168925
  0
LINE
  5
10445
  8
0
 10
7897.8125621077952019
 20
1840.0322034972980418
 30
0.0
 11
7899.0803978152944183
 21
1840.0764772957979858
 31
0.0
  0
ARC
  5
10446
  8
0
 10
7899.0790458436977133
 20
1840.0972643511220213
 30
0.0
 40
0.020830974442849
 50
273.7212254284743267
 51
328.0022982868579788
  0
ARC
  5
10447
  8
0
 10
7897.8125263059173449
 20
1840.0531099453769457
 30
0.0
 40
0.0209064787334562
 50
214.237041047357593
 51
270.0981177917669811
  0
LINE
  5
10448
  8
0
 10
7897.8442586527962703
 20
1840.0333103650400517
 30
0.0
 11
7897.8463175311198938
 21
1839.9742911475889287
 31
0.0
  0
LINE
  5
10449
  8
0
 10
7899.0503093048264418
 20
1840.0163354667411113
 30
0.0
 11
7899.0482483109790337
 21
1840.0753546103690041
 31
0.0
  0
LINE
  5
1044A
  8
0
 10
7897.8870382603781763
 20
1839.9363184022690803
 30
0.0
 11
7899.0123452567941058
 21
1839.9756156566979826
 31
0.0
  0
ARC
  5
1044B
  8
0
 10
7899.0122497043430485
 20
1840.0137620403058918
 30
0.0
 40
0.0381465032821911
 50
270.1435192608328748
 51
3.868206272843469
  0
ARC
  5
1044C
  8
0
 10
7897.8856794555940724
 20
1839.9756814257980295
 30
0.0
 40
0.0393864693999996
 50
182.0228679053020073
 51
271.9770553811180775
  0
ARC
  5
1044D
  8
0
 10
7887.1409419535011693
 20
1837.6579923865779165
 30
0.0
 40
1.9955914024392829
 50
61.5194719561632581
 51
86.5455510492103741
  0
ARC
  5
1044E
  8
0
 10
7887.4806738688694168
 20
1844.0402395844550938
 30
0.0
 40
4.3957648529720981
 50
264.1392459674962083
 51
267.1379398427415026
  0
ARC
  5
1044F
  8
0
 10
7891.5074899496639773
 20
1839.4276910631328974
 30
0.0
 40
0.2464621256788495
 50
103.3920246447811024
 51
157.3340617761377871
  0
ARC
  5
10450
  8
0
 10
7889.94154106977021
 20
1839.428014840977994
 30
0.0
 40
0.2448400262325821
 50
22.733152017126411
 51
77.9403761636806962
  0
LINE
  5
10451
  8
0
 10
7891.2645932988143613
 20
1839.5105009660981068
 30
0.0
 11
7890.1828559035020589
 21
1839.5105009660981068
 31
0.0
  0
ARC
  5
10452
  8
0
 10
7890.1855357327540332
 20
1839.5301825396009008
 30
0.0
 40
0.0196815735401956
 50
202.562918499748605
 51
270.0035578386728048
  0
ARC
  5
10453
  8
0
 10
7891.2609232287131817
 20
1839.531198805889062
 30
0.0
 40
0.0209549808880247
 50
278.985140067148393
 51
335.9744160503852868
  0
LINE
  5
10454
  8
0
 10
7891.2645932988143613
 20
1839.4368517513360075
 30
0.0
 11
7891.2645932988143613
 21
1839.5105009660981068
 31
0.0
  0
LINE
  5
10455
  8
0
 10
7890.1828559035020589
 20
1839.4368517513360075
 30
0.0
 11
7890.1828559035020589
 21
1839.5105009660981068
 31
0.0
  0
ARC
  5
10456
  8
0
 10
7891.2242468249942249
 20
1839.4370969541669183
 30
0.0
 40
0.0403472189139524
 50
321.6731696536502909
 51
359.6517932535081172
  0
ARC
  5
10457
  8
0
 10
7890.2224697555393504
 20
1839.4369725199148888
 30
0.0
 40
0.0396140361272373
 50
180.1746739595789961
 51
218.9382938647489993
  0
LINE
  5
10458
  8
0
 10
7897.8364040127944463
 20
1839.5695560853980624
 30
0.0
 11
7897.8364019630316761
 21
1839.5105009670560321
 31
0.0
  0
LINE
  5
10459
  8
0
 10
7899.0411276230570365
 20
1839.5105009669919127
 30
0.0
 11
7899.0411276230570365
 21
1839.5695560841979841
 31
0.0
  0
ARC
  5
1045A
  8
0
 10
7897.8757869423161537
 20
1839.5105158668109198
 30
0.0
 40
0.0393849821033921
 50
180.0216755990475974
 51
269.9792177050206874
  0
ARC
  5
1045B
  8
0
 10
7897.8494850329871042
 20
1839.6126151880789621
 30
0.0
 40
0.0431092738687208
 50
223.3727489382866054
 51
267.235501205567175
  0
ARC
  5
1045C
  8
0
 10
7897.6751236010495631
 20
1839.4579808118849087
 30
0.0
 40
0.1899699418641937
 50
41.1592202920043206
 51
70.8616337624391832
  0
ARC
  5
1045D
  8
0
 10
7899.0017326734559902
 20
1839.5105191381380791
 30
0.0
 40
0.0393949537916909
 50
271.0569551096955934
 51
359.9735719912076775
  0
ARC
  5
1045E
  8
0
 10
7899.0302501237783872
 20
1839.6100329498749488
 30
0.0
 40
0.0404995259388716
 50
271.9167495950283069
 51
331.0348428666799236
  0
ARC
  5
1045F
  8
0
 10
7899.2333282437866728
 20
1839.5019343245269283
 30
0.0
 40
0.1895636634190733
 50
112.0409438857029016
 51
152.1741482805529984
  0
ARC
  5
10460
  8
0
 10
7899.1342160341318959
 20
1839.9396028657399711
 30
0.0
 40
0.2634484572434927
 50
276.0955653394439082
 51
290.8255972160060878
  0
ARC
  5
10461
  8
0
 10
7899.2269029990247873
 20
1839.6945173265639824
 30
0.0
 40
0.0015087495889892
 50
310.2795692457211771
 51
48.4324508823317927
  0
ARC
  5
10462
  8
0
 10
7899.2192581902672828
 20
1839.6830109074319353
 30
0.0
 40
0.0153101266555365
 50
55.6174527483785326
 51
82.2066325642306452
  0
ARC
  5
10463
  8
0
 10
7898.0392056324853911
 20
1835.6040496412169887
 30
0.0
 40
4.0674693621283957
 50
92.562594000442914
 51
95.0219572714240712
  0
ARC
  5
10464
  8
0
 10
7897.763098614233968
 20
1840.0025664929369213
 30
0.0
 40
0.3660183596219924
 50
255.7643320321537033
 51
265.9747185737920745
  0
ARC
  5
10465
  8
0
 10
7897.6709422804806309
 20
1839.6506882946080168
 30
0.0
 40
0.0015793632107731
 50
116.7972684739171996
 51
244.7289773795922088
  0
ARC
  5
10466
  8
0
 10
7897.6885453019258421
 20
1839.613767924432068
 30
0.0
 40
0.0424810473656917
 50
97.2972129034730671
 51
115.5395965227778987
  0
ARC
  5
10467
  8
0
 10
7897.6776685671011364
 20
1839.6600053426570867
 30
0.0
 40
0.0130471590397978
 50
235.4438954156649118
 51
249.4595622875856122
  0
ARC
  5
10468
  8
0
 10
7891.7979627103241
 20
2072.5363611721700181
 30
0.0
 40
232.9477307300531095
 50
271.4905328421360196
 51
271.7778091612152025
  0
ARC
  5
10469
  8
0
 10
7899.1033338591478241
 20
1838.1947368031860606
 30
0.0
 40
1.5080664460407409
 50
85.5122383463777425
 51
92.9831625843197429
  0
LINE
  5
1046A
  8
0
 10
7886.070004770693231
 20
1840.276297037418999
 30
0.0
 11
7886.070004770693231
 21
1840.1506625253989569
 31
0.0
  0
LINE
  5
1046B
  8
0
 10
7886.070004770693231
 20
1839.790387250897993
 30
0.0
 11
7886.070004770693231
 21
1839.667451422043996
 31
0.0
  0
LINE
  5
1046D
  8
0
 10
7886.070004770693231
 20
1840.1506625253989569
 30
0.0
 11
7897.6121425568053382
 21
1840.1506625253989569
 31
0.0
  0
ENDSEC
  0
EOF
