  0
SECTION
  2
HEADER
  9
$ACADVER
  1
AC1009
  9
$INSBASE
 10
-4.3841710784001151
 20
42.3257984786349368
 30
0.0
  9
$EXTMIN
 10
-4.935349759600129
 20
41.6722499001718774
 30
0.0
  9
$EXTMAX
 10
-3.8329923972001039
 20
42.8769771599019407
 30
0.0
  9
$LIMMIN
 10
0.0
 20
0.0
  9
$LIMMAX
 10
11.6929133858000007
 20
8.2677165353999982
  9
$ORTHOMODE
 70
     0
  9
$REGENMODE
 70
     1
  9
$FILLMODE
 70
     1
  9
$QTEXTMODE
 70
     0
  9
$MIRRTEXT
 70
     0
  9
$DRAGMODE
 70
     2
  9
$LTSCALE
 40
0.6431102362
  9
$OSMODE
 70
  3839
  9
$ATTMODE
 70
     1
  9
$TEXTSIZE
 40
0.2
  9
$TRACEWID
 40
0.05
  9
$TEXTSTYLE
  7
STANDARD
  9
$CLAYER
  8
0
  9
$CELTYPE
  6
BYLAYER
  9
$CECOLOR
 62
   256
  9
$DIMSCALE
 40
1.0
  9
$DIMASZ
 40
0.1875
  9
$DIMEXO
 40
0.0625
  9
$DIMDLI
 40
0.4443307087
  9
$DIMRND
 40
0.0
  9
$DIMDLE
 40
0.0
  9
$DIMEXE
 40
0.125
  9
$DIMTP
 40
0.01
  9
$DIMTM
 40
0.01
  9
$DIMTXT
 40
0.15625
  9
$DIMCEN
 40
0.1052362205
  9
$DIMTSZ
 40
0.0
  9
$DIMTOL
 70
     1
  9
$DIMLIM
 70
     0
  9
$DIMTIH
 70
     1
  9
$DIMTOH
 70
     1
  9
$DIMSE1
 70
     0
  9
$DIMSE2
 70
     0
  9
$DIMTAD
 70
     0
  9
$DIMZIN
 70
     0
  9
$DIMBLK
  1

  9
$DIMASO
 70
     1
  9
$DIMSHO
 70
     1
  9
$DIMPOST
  1

  9
$DIMAPOST
  1

  9
$DIMALT
 70
     0
  9
$DIMALTD
 70
     2
  9
$DIMALTF
 40
25.3999999999999986
  9
$DIMLFAC
 40
1.0
  9
$DIMTOFL
 70
     0
  9
$DIMTVP
 40
0.0
  9
$DIMTIX
 70
     0
  9
$DIMSOXD
 70
     0
  9
$DIMSAH
 70
     0
  9
$DIMBLK1
  1

  9
$DIMBLK2
  1

  9
$DIMSTYLE
  2
STANDARD
  9
$DIMCLRD
 70
     0
  9
$DIMCLRE
 70
     0
  9
$DIMCLRT
 70
     0
  9
$DIMTFAC
 40
1.0
  9
$DIMGAP
 40
0.09
  9
$LUNITS
 70
     2
  9
$LUPREC
 70
     4
  9
$SKETCHINC
 40
0.1
  9
$FILLETRAD
 40
0.0
  9
$AUNITS
 70
     0
  9
$AUPREC
 70
     0
  9
$MENU
  1
.
  9
$ELEVATION
 40
0.0
  9
$PELEVATION
 40
0.0
  9
$THICKNESS
 40
0.0
  9
$LIMCHECK
 70
     0
  9
$BLIPMODE
 70
     0
  9
$CHAMFERA
 40
0.0
  9
$CHAMFERB
 40
0.0
  9
$SKPOLY
 70
     0
  9
$TDCREATE
 40
2457730.4652893519960344
  9
$TDUPDATE
 40
2459072.5116666671819985
  9
$TDINDWG
 40
0.0834692014
  9
$TDUSRTIMER
 40
0.0834692014
  9
$USRTIMER
 70
     1
  9
$ANGBASE
 50
0.0
  9
$ANGDIR
 70
     0
  9
$PDMODE
 70
     0
  9
$PDSIZE
 40
0.3125
  9
$PLINEWID
 40
0.0
  9
$COORDS
 70
     1
  9
$SPLFRAME
 70
     0
  9
$SPLINETYPE
 70
     6
  9
$SPLINESEGS
 70
     8
  9
$ATTDIA
 70
     1
  9
$ATTREQ
 70
     1
  9
$HANDLING
 70
     1
  9
$HANDSEED
  5
42B7
  9
$SURFTAB1
 70
     6
  9
$SURFTAB2
 70
     6
  9
$SURFTYPE
 70
     6
  9
$SURFU
 70
     6
  9
$SURFV
 70
     6
  9
$UCSNAME
  2

  9
$UCSORG
 10
0.0
 20
0.0
 30
0.0
  9
$UCSXDIR
 10
1.0
 20
0.0
 30
0.0
  9
$UCSYDIR
 10
0.0
 20
1.0
 30
0.0
  9
$PUCSNAME
  2

  9
$PUCSORG
 10
0.0
 20
0.0
 30
0.0
  9
$PUCSXDIR
 10
1.0
 20
0.0
 30
0.0
  9
$PUCSYDIR
 10
0.0
 20
1.0
 30
0.0
  9
$USERI1
 70
     0
  9
$USERI2
 70
     0
  9
$USERI3
 70
     0
  9
$USERI4
 70
     0
  9
$USERI5
 70
     0
  9
$USERR1
 40
0.0
  9
$USERR2
 40
0.0
  9
$USERR3
 40
0.0
  9
$USERR4
 40
0.0
  9
$USERR5
 40
0.0
  9
$WORLDVIEW
 70
     1
  9
$SHADEDGE
 70
     3
  9
$SHADEDIF
 70
    70
  9
$TILEMODE
 70
     1
  9
$MAXACTVP
 70
    64
  9
$PLIMCHECK
 70
     0
  9
$PEXTMIN
 10
1.0000000000000000E+20
 20
1.0000000000000000E+20
 30
1.0000000000000000E+20
  9
$PEXTMAX
 10
-1.0000000000000000E+20
 20
-1.0000000000000000E+20
 30
-1.0000000000000000E+20
  9
$PLIMMIN
 10
0.0
 20
0.0
  9
$PLIMMAX
 10
12.0
 20
9.0
  9
$UNITMODE
 70
     0
  9
$VISRETAIN
 70
     1
  9
$PLINEGEN
 70
     0
  9
$PSLTSCALE
 70
     1
  0
ENDSEC
  0
SECTION
  2
TABLES
  0
TABLE
  2
VPORT
 70
     1
  0
VPORT
  2
*ACTIVE
 70
     0
 10
0.0
 20
0.0
 11
1.0
 21
1.0
 12
0.0
 22
0.0
 13
0.0
 23
0.0
 14
1.0
 24
1.0
 15
0.0
 25
0.0
 16
-0.0000000000000018
 26
0.0
 36
6.7793133148106497
 17
-4.3841711282730103
 27
42.2746124267578125
 37
0.0
 40
1.632960469981426
 41
3.314341846758349
 42
50.0
 43
0.0
 44
0.0
 50
0.0
 51
0.0
 71
     0
 72
   100
 73
     1
 74
     1
 75
     0
 76
     0
 77
     0
 78
     0
  0
ENDTAB
  0
TABLE
  2
LTYPE
 70
     2
  0
LTYPE
  2
CONTINUOUS
 70
     0
  3
Solid line
 72
    65
 73
     0
 40
0.0
  0
LTYPE
  2
PHANTOM2
 70
     0
  3
___ _ _ ___ _ _ ___ _ _ ___ _ _
 72
    65
 73
     6
 40
1.25
 49
0.625
 49
-0.125
 49
0.125
 49
-0.125
 49
0.125
 49
-0.125
  0
ENDTAB
  0
TABLE
  2
LAYER
 70
     2
  0
LAYER
  2
0
 70
     0
 62
     7
  6
CONTINUOUS
  0
LAYER
  2
DEFPOINTS
 70
     0
 62
     7
  6
CONTINUOUS
  0
ENDTAB
  0
TABLE
  2
STYLE
 70
     1
  0
STYLE
  2
STANDARD
 70
     0
 40
0.0
 41
0.8
 50
0.0
 71
     0
 42
0.2
  3
txt
  4

  0
ENDTAB
  0
TABLE
  2
VIEW
 70
     0
  0
ENDTAB
  0
TABLE
  2
UCS
 70
     0
  0
ENDTAB
  0
TABLE
  2
APPID
 70
     5
  0
APPID
  2
ACAD
 70
     0
  0
APPID
  2
ACAD_NAV_VCDISPLAY
 70
     0
  0
APPID
  2
ACAD_MLEADERVER
 70
     0
  0
APPID
  2
ACAD_EXEMPT_FROM_CAD_STANDARDS
 70
     0
  0
APPID
  2
ACDBATTR
 70
     0
  0
ENDTAB
  0
TABLE
  2
DIMSTYLE
 70
     1
  0
DIMSTYLE
  2
STANDARD
 70
     0
  3

  4

  5

  6

  7

 40
1.0
 41
0.1875
 42
0.0625
 43
0.38
 44
0.125
 45
0.0
 46
0.0
 47
0.01
 48
0.01
140
0.15625
141
0.09
142
0.0
143
25.3999999999999986
144
1.0
145
0.0
146
1.0
147
0.09
 71
     1
 72
     0
 73
     1
 74
     1
 75
     0
 76
     0
 77
     0
 78
     4
170
     0
171
     2
172
     0
173
     0
174
     0
175
     0
176
     0
177
     0
178
     0
  0
ENDTAB
  0
ENDSEC
  0
SECTION
  2
BLOCKS
  0
BLOCK
  8
0
  2
$MODEL_SPACE
 70
     0
 10
0.0
 20
0.0
 30
0.0
  3
$MODEL_SPACE
  1

  0
ENDBLK
  5
21
  8
0
  0
BLOCK
 67
     1
  8
0
  2
$PAPER_SPACE
 70
     0
 10
0.0
 20
0.0
 30
0.0
  3
$PAPER_SPACE
  1

  0
ENDBLK
  5
1D
 67
     1
  8
0
  0
BLOCK
  8
0
  2
_FILLED
 70
     0
 10
0.0
 20
0.0
 30
0.0
  3
_FILLED
  1

  0
SOLID
  5
7FB
  8
0
  6
BYBLOCK
 62
     0
 10
0.0
 20
0.0
 30
0.0
 11
-1.0
 21
0.1666666667
 31
0.0
 12
-1.0
 22
-0.1666666667
 32
0.0
 13
-1.0
 23
-0.1666666667
 33
0.0
  0
ENDBLK
  5
7FC
  8
0
  6
BYBLOCK
 62
     0
  0
ENDSEC
  0
SECTION
  2
ENTITIES
  0
ATTDEF
  5
766
  8
DEFPOINTS
 10
-4.3839209848445071
 20
42.3294495053021294
 30
0.0
 40
0.001
  1
K-21336T
  3

  2
MODELNUMBER
 70
     0
1001
ACDBATTR
1070
     0
1070
     1
  0
ATTDEF
  5
767
  8
DEFPOINTS
 10
-4.3839209848445071
 20
42.3277828386354713
 30
0.0
 40
0.001
  1
SHIFT
  3

  2
TRADENAME
 70
     0
1001
ACDBATTR
1070
     0
1070
     1
  0
ATTDEF
  5
768
  8
DEFPOINTS
 10
-4.3839209848445071
 20
42.3261161719687991
 30
0.0
 40
0.001
  1
HANDSHOWER
  3

  2
PRODUCT
 70
     0
1001
ACDBATTR
1070
     0
1070
     1
  0
ARC
  5
409C
  8
0
 10
-4.3841710784001364
 20
45.1210687979017635
 30
0.0
 40
3.3464490005998249
 50
261.4511574442992128
 51
270.0
  0
ARC
  5
409D
  8
0
 10
-4.8787027156145149
 20
41.8312668413875528
 30
0.0
 40
0.0196850394371507
 50
188.5488426067207968
 51
261.4511574443091035
  0
ARC
  5
409E
  8
0
 10
-1.588900751839851
 20
42.3257984784718886
 30
0.0
 40
3.3464490077602771
 50
171.4511574590976863
 51
188.548842535318613
  0
ARC
  5
409F
  8
0
 10
-4.87870271564001
 20
42.8203301158878631
 30
0.0
 40
0.0196850393626388
 50
98.5488425132741241
 51
171.4511573876843045
  0
ARC
  5
40A0
  8
0
 10
-4.3841710396221236
 20
39.5305281261479209
 30
0.0
 40
3.3464490337540229
 50
90.0000000424258388
 51
98.5488425132741241
  0
ARC
  5
40A1
  8
0
 10
-4.3841710784000787
 20
45.1210687979021827
 30
0.0
 40
3.3149529376002458
 50
261.6020926116997884
 51
270.0
  0
ARC
  5
40A2
  8
0
 10
-1.5889007630575589
 20
42.3257984786019392
 30
0.0
 40
3.314952933642572
 50
171.6020926007228127
 51
188.3979073992759083
  0
ARC
  5
40A3
  8
0
 10
-4.384171078400108
 20
39.5305281593017028
 30
0.0
 40
3.3149529376002489
 50
90.0
 51
98.3979073883002116
  0
ARC
  5
40A4
  8
0
 10
-4.3856039560616447
 20
41.9379350943045921
 30
0.0
 40
0.2027814572102802
 50
258.6523148235510234
 51
270.4048620676244923
  0
ARC
  5
40A5
  8
0
 10
-4.3833572869552588
 20
41.5339701261500025
 30
0.0
 40
0.2094322602611885
 50
90.222634937906264
 51
101.6095494565054054
  0
LINE
  5
40A6
  8
0
 10
-4.4255036829001213
 20
41.7391177631019517
 30
0.0
 11
-4.4325000489899997
 21
41.774968795777319
 31
0.0
  0
ARC
  5
40A7
  8
0
 10
-4.3841710824001217
 20
41.8643543156188827
 30
0.0
 40
0.1270625121169467
 50
260.1893858816292777
 51
279.8106141183704949
  0
ARC
  5
40A8
  8
0
 10
-4.3841710824001217
 20
41.6178070598899268
 30
0.0
 40
0.1232592049120174
 50
79.8835317095131643
 51
100.116468290485102
  0
LINE
  5
40A9
  8
0
 10
-4.4621502161173856
 20
41.7755284577330173
 30
0.0
 11
-4.4729222712001109
 21
41.7380660525019493
 31
0.0
  0
ARC
  5
40AA
  8
0
 10
-4.4931520686088851
 20
41.9810773838580999
 30
0.0
 40
0.2438519056121743
 50
255.2413098638367046
 51
274.7586901558992736
  0
LINE
  5
40AB
  8
0
 10
-4.555273004700104
 20
41.7452708081019566
 30
0.0
 11
-4.5576603074146433
 21
41.7678245838161715
 31
0.0
  0
ARC
  5
40AC
  8
0
 10
-4.5343335863825942
 20
41.5103704808640401
 30
0.0
 40
0.2358317683772699
 50
74.9060200993332899
 51
95.0939799204016651
  0
ARC
  5
40AD
  8
0
 10
-4.5246902341439821
 20
41.6200897262889669
 30
0.0
 40
0.1239839949783922
 50
74.9629720950563438
 51
95.0774626039704742
  0
ARC
  5
40AE
  8
0
 10
-4.503228750468657
 20
41.8663965850463669
 30
0.0
 40
0.1270202079529684
 50
255.2057836452065089
 51
274.8346510538194138
  0
LINE
  5
40AF
  8
0
 10
-4.5948465003475363
 20
41.7703144283842533
 30
0.0
 11
-4.605298672699071
 21
41.7422495622108585
 31
0.0
  0
ARC
  5
40B0
  8
0
 10
-4.6032228492107734
 20
41.9910024997711204
 30
0.0
 40
0.2487615987004671
 50
250.3934289375675064
 51
269.5218823730613167
  0
LINE
  5
40B1
  8
0
 10
-4.6866971940000957
 20
41.7566643536019413
 30
0.0
 11
-4.6873206847001043
 21
41.7883790088851299
 31
0.0
  0
ARC
  5
40B2
  8
0
 10
-4.6866092534793387
 20
41.520129920354762
 30
0.0
 40
0.2365344495947934
 50
69.8940094629890041
 51
90.0213018476256792
  0
ARC
  5
40B3
  8
0
 10
-4.6674601192140202
 20
41.6271128917531783
 30
0.0
 40
0.1261619944323995
 50
70.1674601852588609
 51
89.9313787843877037
  0
ARC
  5
40B4
  8
0
 10
-4.6241998731898732
 20
41.8736974616247224
 30
0.0
 40
0.127906281887581
 50
250.3035470636843911
 51
269.7952919059499095
  0
LINE
  5
40B5
  8
0
 10
-4.5298403697001168
 20
41.7777917571545174
 30
0.0
 11
-4.5298403697001168
 21
41.7659618677019466
 31
0.0
  0
LINE
  5
40B6
  8
0
 10
-4.5298403697001168
 20
41.7659618677019466
 30
0.0
 11
-4.6870869638043819
 21
41.7764904953268825
 31
0.0
  0
ARC
  5
40B7
  8
0
 10
-4.384171078400108
 20
45.1210687979017635
 30
0.0
 40
3.3464490005998249
 50
270.0
 51
278.5488425557006167
  0
ARC
  5
40B8
  8
0
 10
-3.8896394411856998
 20
41.8312668413875528
 30
0.0
 40
0.0196850394371507
 50
278.5488425556907828
 51
351.4511573932783222
  0
ARC
  5
40B9
  8
0
 10
-7.1794414049604214
 20
42.3257984784718886
 30
0.0
 40
3.3464490077603171
 50
351.4511574646809891
 51
8.5488425409023172
  0
ARC
  5
40BA
  8
0
 10
-3.8896394411602051
 20
42.8203301158878631
 30
0.0
 40
0.0196850393626388
 50
8.5488426123156742
 51
81.4511574867259043
  0
ARC
  5
40BB
  8
0
 10
-4.3841710445780739
 20
39.5305281261479209
 30
0.0
 40
3.3464490337540229
 50
81.4511574867259043
 51
89.9999999575725127
  0
ARC
  5
40BC
  8
0
 10
-4.3841710784001364
 20
45.1210687979021827
 30
0.0
 40
3.3149529376002458
 50
270.0
 51
278.3979073883002116
  0
ARC
  5
40BD
  8
0
 10
-7.1794413937426853
 20
42.3257984786019392
 30
0.0
 40
3.314952933642572
 50
351.6020926007228127
 51
8.3979073992771944
  0
ARC
  5
40BE
  8
0
 10
-4.3841710784001364
 20
39.5305281593017028
 30
0.0
 40
3.3149529376002489
 50
81.6020926116997884
 51
90.0
  0
ARC
  5
40BF
  8
0
 10
-4.382738200758256
 20
41.9379350944377407
 30
0.0
 40
0.202781457344712
 50
269.595137881698804
 51
281.3476851744987925
  0
ARC
  5
40C0
  8
0
 10
-4.3849848698539899
 20
41.5339701260250465
 30
0.0
 40
0.2094322603853902
 50
78.3904505479600857
 51
89.7773651144728149
  0
LINE
  5
40C1
  8
0
 10
-4.3428384739000938
 20
41.7391177631019517
 30
0.0
 11
-4.3358421078102154
 21
41.774968795777319
 31
0.0
  0
ARC
  5
40C2
  8
0
 10
-4.3841710744000926
 20
41.8643543156188827
 30
0.0
 40
0.1270625121169467
 50
260.1893858816292777
 51
279.8106141183689033
  0
ARC
  5
40C3
  8
0
 10
-4.3841710744000926
 20
41.6178070598899268
 30
0.0
 40
0.1232592049120174
 50
79.8835317095148412
 51
100.1164682904867931
  0
LINE
  5
40C4
  8
0
 10
-4.306191940682857
 20
41.7755284577330173
 30
0.0
 11
-4.2954198856001042
 21
41.7380660525019493
 31
0.0
  0
ARC
  5
40C5
  8
0
 10
-4.2751900881913301
 20
41.9810773838580999
 30
0.0
 40
0.2438519056121743
 50
265.2413098441006127
 51
284.7586901361632954
  0
LINE
  5
40C6
  8
0
 10
-4.2130691521001111
 20
41.7452708081019566
 30
0.0
 11
-4.2106818493855718
 21
41.7678245838161715
 31
0.0
  0
ARC
  5
40C7
  8
0
 10
-4.2340085704176502
 20
41.5103704808640401
 30
0.0
 40
0.2358317683772699
 50
84.9060200795983633
 51
105.0939799006667954
  0
ARC
  5
40C8
  8
0
 10
-4.243651922656233
 20
41.6200897262889669
 30
0.0
 40
0.1239839949783922
 50
84.9225373960295258
 51
105.0370279049435993
  0
ARC
  5
40C9
  8
0
 10
-4.2651134063315581
 20
41.8663965850463669
 30
0.0
 40
0.1270202079529684
 50
265.1653489461805862
 51
284.7942163547934911
  0
LINE
  5
40CA
  8
0
 10
-4.1734956564526788
 20
41.7703144283842533
 30
0.0
 11
-4.1630434841011734
 21
41.7422495622108585
 31
0.0
  0
ARC
  5
40CB
  8
0
 10
-4.1651193075894417
 20
41.9910024997711204
 30
0.0
 40
0.2487615987004671
 50
270.478117626936978
 51
289.6065710624322946
  0
LINE
  5
40CC
  8
0
 10
-4.0816449628001186
 20
41.7566643536019413
 30
0.0
 11
-4.0810214721001108
 21
41.7883790088851299
 31
0.0
  0
ARC
  5
40CD
  8
0
 10
-4.0817329033208756
 20
41.520129920354762
 30
0.0
 40
0.2365344495947934
 50
89.978698152372715
 51
110.1059905370109959
  0
ARC
  5
40CE
  8
0
 10
-4.100882037586195
 20
41.6271128917531783
 30
0.0
 40
0.1261619944323995
 50
90.0686212156123247
 51
109.8325398147410965
  0
ARC
  5
40CF
  8
0
 10
-4.1441422836103712
 20
41.8736974616247224
 30
0.0
 40
0.127906281887581
 50
270.2047080940499768
 51
289.6964529363137899
  0
LINE
  5
40D0
  8
0
 10
-4.2385017871000983
 20
41.7777917571545174
 30
0.0
 11
-4.2385017871000983
 21
41.7659618677019466
 31
0.0
  0
LINE
  5
40D1
  8
0
 10
-4.2385017871000983
 20
41.7659618677019466
 30
0.0
 11
-4.0812551929958332
 21
41.7764904953268825
 31
0.0
  0
LINE
  5
40D2
  8
0
 10
-4.1080213053477941
 20
41.7488823826225826
 30
0.0
 11
-4.1084888100001073
 21
41.6944143446718769
 31
0.0
  0
ARC
  5
40D3
  8
0
 10
-4.1202975084286857
 20
41.6945156999191227
 30
0.0
 40
0.0118091333917131
 50
274.5112201701751928
 51
359.5082366329971251
  0
LINE
  5
40D4
  8
0
 10
-4.6603208516524139
 20
41.7488823826225826
 30
0.0
 11
-4.6598533470001007
 21
41.6944143446718769
 31
0.0
  0
ARC
  5
40D5
  8
0
 10
-4.6480446485715223
 20
41.6945156999191227
 30
0.0
 40
0.0118091333917131
 50
180.4917633670027897
 51
265.4887798298249209
  0
ARC
  5
40D6
  8
0
 10
-4.3841710785001018
 20
45.0187065930728068
 30
0.0
 40
3.3464566929009241
 50
265.4614866508011914
 51
274.5385133491985812
  0
ENDSEC
  0
EOF
