  0
SECTION
  2
HEADER
  9
$ACADVER
  1
AC1009
  9
$INSBASE
 10
4431.3639551884198227
 20
252.3531146180513076
 30
0.0
  9
$EXTMIN
 10
4409.8404538713530201
 20
247.751713578707097
 30
0.0
  9
$EXTMAX
 10
4434.5839907501704147
 20
267.6680752480513092
 30
0.0
  9
$LIMMIN
 10
0.0
 20
0.0
  9
$LIMMAX
 10
11.6929133858000007
 20
8.2677165353999982
  9
$ORTHOMODE
 70
     0
  9
$REGENMODE
 70
     1
  9
$FILLMODE
 70
     1
  9
$QTEXTMODE
 70
     0
  9
$MIRRTEXT
 70
     0
  9
$DRAGMODE
 70
     2
  9
$LTSCALE
 40
0.6431102362
  9
$OSMODE
 70
  4095
  9
$ATTMODE
 70
     1
  9
$TEXTSIZE
 40
0.2
  9
$TRACEWID
 40
0.05
  9
$TEXTSTYLE
  7
STANDARD
  9
$CLAYER
  8
0
  9
$CELTYPE
  6
BYLAYER
  9
$CECOLOR
 62
   256
  9
$DIMSCALE
 40
1.0
  9
$DIMASZ
 40
0.1875
  9
$DIMEXO
 40
0.0625
  9
$DIMDLI
 40
0.4443307087
  9
$DIMRND
 40
0.0
  9
$DIMDLE
 40
0.0
  9
$DIMEXE
 40
0.125
  9
$DIMTP
 40
0.01
  9
$DIMTM
 40
0.01
  9
$DIMTXT
 40
2.0
  9
$DIMCEN
 40
0.1052362205
  9
$DIMTSZ
 40
0.0
  9
$DIMTOL
 70
     1
  9
$DIMLIM
 70
     0
  9
$DIMTIH
 70
     1
  9
$DIMTOH
 70
     1
  9
$DIMSE1
 70
     0
  9
$DIMSE2
 70
     0
  9
$DIMTAD
 70
     0
  9
$DIMZIN
 70
     0
  9
$DIMBLK
  1

  9
$DIMASO
 70
     1
  9
$DIMSHO
 70
     1
  9
$DIMPOST
  1
\X
  9
$DIMAPOST
  1

  9
$DIMALT
 70
     1
  9
$DIMALTD
 70
     2
  9
$DIMALTF
 40
25.3999999999999986
  9
$DIMLFAC
 40
1.0
  9
$DIMTOFL
 70
     0
  9
$DIMTVP
 40
0.0
  9
$DIMTIX
 70
     0
  9
$DIMSOXD
 70
     0
  9
$DIMSAH
 70
     0
  9
$DIMBLK1
  1

  9
$DIMBLK2
  1

  9
$DIMSTYLE
  2
STANDARD
  9
$DIMCLRD
 70
     0
  9
$DIMCLRE
 70
     0
  9
$DIMCLRT
 70
     0
  9
$DIMTFAC
 40
1.0
  9
$DIMGAP
 40
0.09
  9
$LUNITS
 70
     2
  9
$LUPREC
 70
     4
  9
$SKETCHINC
 40
0.1
  9
$FILLETRAD
 40
0.0
  9
$AUNITS
 70
     0
  9
$AUPREC
 70
     0
  9
$MENU
  1
.
  9
$ELEVATION
 40
0.0
  9
$PELEVATION
 40
0.0
  9
$THICKNESS
 40
0.0
  9
$LIMCHECK
 70
     0
  9
$BLIPMODE
 70
     0
  9
$CHAMFERA
 40
0.0
  9
$CHAMFERB
 40
0.0
  9
$SKPOLY
 70
     0
  9
$TDCREATE
 40
2458060.468368056230247
  9
$TDUPDATE
 40
2459935.8374652778729796
  9
$TDINDWG
 40
0.4695325231
  9
$TDUSRTIMER
 40
0.4695325231
  9
$USRTIMER
 70
     1
  9
$ANGBASE
 50
0.0
  9
$ANGDIR
 70
     0
  9
$PDMODE
 70
     0
  9
$PDSIZE
 40
0.3125
  9
$PLINEWID
 40
0.0
  9
$COORDS
 70
     1
  9
$SPLFRAME
 70
     0
  9
$SPLINETYPE
 70
     6
  9
$SPLINESEGS
 70
     8
  9
$ATTDIA
 70
     1
  9
$ATTREQ
 70
     1
  9
$HANDLING
 70
     1
  9
$HANDSEED
  5
1E77F
  9
$SURFTAB1
 70
     6
  9
$SURFTAB2
 70
     6
  9
$SURFTYPE
 70
     6
  9
$SURFU
 70
     6
  9
$SURFV
 70
     6
  9
$UCSNAME
  2

  9
$UCSORG
 10
0.0
 20
0.0
 30
0.0
  9
$UCSXDIR
 10
1.0
 20
0.0
 30
0.0
  9
$UCSYDIR
 10
0.0
 20
1.0
 30
0.0
  9
$PUCSNAME
  2

  9
$PUCSORG
 10
0.0
 20
0.0
 30
0.0
  9
$PUCSXDIR
 10
1.0
 20
0.0
 30
0.0
  9
$PUCSYDIR
 10
0.0
 20
1.0
 30
0.0
  9
$USERI1
 70
     0
  9
$USERI2
 70
     0
  9
$USERI3
 70
     0
  9
$USERI4
 70
     0
  9
$USERI5
 70
     0
  9
$USERR1
 40
0.0
  9
$USERR2
 40
0.0
  9
$USERR3
 40
0.0
  9
$USERR4
 40
0.0
  9
$USERR5
 40
0.0
  9
$WORLDVIEW
 70
     1
  9
$SHADEDGE
 70
     3
  9
$SHADEDIF
 70
    70
  9
$TILEMODE
 70
     1
  9
$MAXACTVP
 70
    64
  9
$PLIMCHECK
 70
     0
  9
$PEXTMIN
 10
1.0000000000000000E+20
 20
1.0000000000000000E+20
 30
1.0000000000000000E+20
  9
$PEXTMAX
 10
-1.0000000000000000E+20
 20
-1.0000000000000000E+20
 30
-1.0000000000000000E+20
  9
$PLIMMIN
 10
0.0
 20
0.0
  9
$PLIMMAX
 10
12.0
 20
9.0
  9
$UNITMODE
 70
     0
  9
$VISRETAIN
 70
     1
  9
$PLINEGEN
 70
     0
  9
$PSLTSCALE
 70
     1
  0
ENDSEC
  0
SECTION
  2
TABLES
  0
TABLE
  2
VPORT
 70
     1
  0
VPORT
  2
*ACTIVE
 70
     0
 10
0.0
 20
0.0
 11
1.0
 21
1.0
 12
33.9949691481966312
 22
9.2909933112250656
 13
0.0
 23
0.0
 14
1.0
 24
1.0
 15
0.0
 25
0.0
 16
0.0
 26
0.0
 36
0.0438225416440575
 17
4401.1384025952247612
 27
249.4223564301429121
 37
0.0
 40
20.5803511635051599
 41
2.8353293413173648
 42
50.0
 43
0.0
 44
0.0
 50
0.0
 51
0.0
 71
     0
 72
   100
 73
     1
 74
     1
 75
     0
 76
     0
 77
     0
 78
     0
  0
ENDTAB
  0
TABLE
  2
LTYPE
 70
     2
  0
LTYPE
  2
CONTINUOUS
 70
     0
  3
Solid line
 72
    65
 73
     0
 40
0.0
  0
LTYPE
  2
PHANTOM2
 70
     0
  3
___ _ _ ___ _ _ ___ _ _ ___ _ _
 72
    65
 73
     6
 40
1.25
 49
0.625
 49
-0.125
 49
0.125
 49
-0.125
 49
0.125
 49
-0.125
  0
ENDTAB
  0
TABLE
  2
LAYER
 70
     2
  0
LAYER
  2
0
 70
     0
 62
   255
  6
CONTINUOUS
  0
LAYER
  2
DEFPOINTS
 70
     0
 62
     7
  6
CONTINUOUS
  0
ENDTAB
  0
TABLE
  2
STYLE
 70
     1
  0
STYLE
  2
STANDARD
 70
     0
 40
0.0
 41
0.8
 50
0.0
 71
     0
 42
0.2
  3
txt
  4

  0
ENDTAB
  0
TABLE
  2
VIEW
 70
     0
  0
ENDTAB
  0
TABLE
  2
UCS
 70
     0
  0
ENDTAB
  0
TABLE
  2
APPID
 70
    11
  0
APPID
  2
ACAD
 70
     0
  0
APPID
  2
ACAD_MLEADERVER
 70
     0
  0
APPID
  2
ACAD_EXEMPT_FROM_CAD_STANDARDS
 70
     0
  0
APPID
  2
ACAD_NAV_VCDISPLAY
 70
     0
  0
APPID
  2
ACAECLAYERSTANDARD
 70
     0
  0
APPID
  2
ACCMTRANSPARENCY
 70
     0
  0
APPID
  2
ACAD_DSTYLE_DIMJAG
 70
     0
  0
APPID
  2
ACAD_DSTYLE_DIMTALN
 70
     0
  0
APPID
  2
ACDBATTR
 70
     0
  0
APPID
  2
ACADANNOTATIVE
 70
     0
  0
APPID
  2
DCO15
 70
     0
  0
ENDTAB
  0
TABLE
  2
DIMSTYLE
 70
     1
  0
DIMSTYLE
  2
STANDARD
 70
     0
  3

  4

  5

  6

  7

 40
1.0
 41
0.1875
 42
0.0625
 43
0.38
 44
0.125
 45
0.0
 46
0.0
 47
0.01
 48
0.01
140
0.15625
141
0.09
142
0.0
143
25.3999999999999986
144
1.0
145
0.0
146
1.0
147
0.09
 71
     1
 72
     0
 73
     1
 74
     1
 75
     0
 76
     0
 77
     0
 78
     4
170
     0
171
     2
172
     0
173
     0
174
     0
175
     0
176
     0
177
     0
178
     0
  0
ENDTAB
  0
ENDSEC
  0
SECTION
  2
BLOCKS
  0
BLOCK
  8
0
  2
$MODEL_SPACE
 70
     0
 10
0.0
 20
0.0
 30
0.0
  3
$MODEL_SPACE
  1

  0
ENDBLK
  5
21
  8
0
  0
BLOCK
 67
     1
  8
0
  2
$PAPER_SPACE
 70
     0
 10
0.0
 20
0.0
 30
0.0
  3
$PAPER_SPACE
  1

  0
ENDBLK
  5
1D
 67
     1
  8
0
  0
BLOCK
  8
0
  2
_FILLED
 70
     0
 10
0.0
 20
0.0
 30
0.0
  3
_FILLED
  1

  0
SOLID
  5
1C78F
  8
0
  6
BYBLOCK
 62
     0
 10
0.0
 20
0.0
 30
0.0
 11
-1.0
 21
0.1666666667
 31
0.0
 12
-1.0
 22
-0.1666666667
 32
0.0
 13
-1.0
 23
-0.1666666667
 33
0.0
  0
ENDBLK
  5
1C790
  8
0
  6
BYBLOCK
 62
     0
  0
ENDSEC
  0
SECTION
  2
ENTITIES
  0
ATTDEF
  5
1C5FC
  8
0
 10
4431.3646153327099455
 20
252.3513990080965073
 30
0.0
 40
0.001
  1
K-21367T-4
  3

  2
MODELNUMBER
 70
     0
1001
ACDBATTR
1070
     0
1070
     1
  0
ATTDEF
  5
1C5FD
  8
0
 10
4431.3644895230527254
 20
252.349732167717292
 30
0.0
 40
0.001
  1
TAUT
  3

  2
TRADENAME
 70
     0
1001
ACDBATTR
1070
     0
1070
     1
  0
ATTDEF
  5
1C5FE
  8
0
 10
4431.3646153327099455
 20
252.3480656747630917
 30
0.0
 40
0.001
  1
KITCHEN SINK FAUCET
  3

  2
PRODUCT
 70
     0
1001
ACDBATTR
1070
     0
1070
     1
  0
LINE
  5
1DED3
  8
0
 10
4430.3600181805713873
 20
252.3531146180513076
 30
0.0
 11
4432.367892196270077
 21
252.3531146180513076
 31
0.0
  0
LINE
  5
1DED4
  8
0
 10
4432.2547631074703531
 20
252.7302115807513019
 30
0.0
 11
4430.4731472693711112
 21
252.7302115807513019
 31
0.0
  0
LINE
  5
1DED5
  8
0
 10
4432.4466323537699282
 20
254.0066579251513019
 30
0.0
 11
4433.5096244797714462
 21
254.0066579251513019
 31
0.0
  0
LINE
  5
1DED6
  8
0
 10
4434.5524934155710071
 20
254.0066744077512908
 30
0.0
 11
4434.0263388861767453
 21
254.0066744077512908
 31
0.0
  0
LINE
  5
1DED7
  8
0
 10
4433.5096244797714462
 20
255.6602012322512962
 30
0.0
 11
4432.4466323537963035
 21
255.66020204255301
 31
0.0
  0
LINE
  5
1DED8
  8
0
 10
4433.9300136224073867
 20
255.6602177147512975
 30
0.0
 11
4433.6336402277702291
 21
255.6602177147512975
 31
0.0
  0
LINE
  5
1DED9
  8
0
 10
4430.4909272659706403
 20
256.5971043471512871
 30
0.0
 11
4432.2369831108699145
 21
256.5971043471512871
 31
0.0
  0
LINE
  5
1DEDA
  8
0
 10
4431.9193026806706257
 20
256.880673673151307
 30
0.0
 11
4430.8086200684711002
 21
256.880673673151307
 31
0.0
  0
LINE
  5
1DEDB
  8
0
 10
4430.8127740860709309
 20
256.912169736151327
 30
0.0
 11
4431.9151362907696239
 21
256.912169736151327
 31
0.0
  0
LINE
  5
1DEDC
  8
0
 10
4432.2369831108699145
 20
256.5971043471512871
 30
0.0
 11
4431.9325882954699409
 21
256.875514239251288
 31
0.0
  0
LINE
  5
1DEDD
  8
0
 10
4430.8119087902696265
 20
263.8669611432512738
 30
0.0
 11
4430.4796626740044303
 21
260.659653740051283
 31
0.0
  0
LINE
  5
1DEDE
  8
0
 10
4434.4384666754704085
 20
257.999723063451313
 30
0.0
 11
4434.4306810863708961
 21
257.9977915598512936
 31
0.0
  0
LINE
  5
1DEDF
  8
0
 10
4434.4421047613122937
 20
257.9999279280513065
 30
0.0
 11
4434.4384666754704085
 21
257.999723063451313
 31
0.0
  0
LINE
  5
1DEE0
  8
0
 10
4432.367892196270077
 20
252.3531146180513076
 30
0.0
 11
4432.2547631074703531
 21
252.7302115807513019
 31
0.0
  0
LINE
  5
1DEE1
  8
0
 10
4430.7103861826708453
 20
260.5438585515512955
 30
0.0
 11
4430.7071542709127243
 21
260.5743752399571918
 31
0.0
  0
LINE
  5
1DEE2
  8
0
 10
4430.6866306816536962
 20
260.585980141462187
 30
0.0
 11
4430.6821397099010937
 21
260.6409650408388075
 31
0.0
  0
LINE
  5
1DEE3
  8
0
 10
4430.4781284167711419
 20
252.7641503073512865
 30
0.0
 11
4430.4781284167711419
 21
256.5680531361513204
 31
0.0
  0
LINE
  5
1DEE4
  8
0
 10
4430.5581395000699558
 20
260.6292575527513122
 30
0.0
 11
4430.5581395000699558
 21
260.6808435948053102
 31
0.0
  0
LINE
  5
1DEE5
  8
0
 10
4430.6212394094709452
 20
260.6292575527513122
 30
0.0
 11
4430.6212394094709452
 21
260.6526939229513005
 31
0.0
  0
LINE
  5
1DEE6
  8
0
 10
4430.6287189679705989
 20
260.6409757378513063
 30
0.0
 11
4430.6287189679705989
 21
260.6704855200417228
 31
0.0
  0
LINE
  5
1DEE7
  8
0
 10
4430.8127740860709309
 20
256.912169736151327
 30
0.0
 11
4430.8127740860709309
 21
260.4651817990932727
 31
0.0
  0
LINE
  5
1DEE8
  8
0
 10
4430.8324591254713596
 20
256.912169736151327
 30
0.0
 11
4430.8324591254713596
 21
256.880673673151307
 31
0.0
  0
LINE
  5
1DEE9
  8
0
 10
4430.8924551884701941
 20
260.6647235757748717
 30
0.0
 11
4430.8924551884701941
 21
260.4592219625512826
 31
0.0
  0
LINE
  5
1DEEA
  8
0
 10
4431.081651252769916
 20
260.712297918451327
 30
0.0
 11
4431.1037762125697554
 21
260.777816963351313
 31
0.0
  0
LINE
  5
1DEEB
  8
0
 10
4430.9491775796695947
 20
260.6862606410513195
 30
0.0
 11
4430.9739973085697784
 21
260.752399966751284
 31
0.0
  0
LINE
  5
1DEEC
  8
0
 10
4430.8461517276628001
 20
260.6531834107104828
 30
0.0
 11
4430.8739345137601049
 21
260.719265898294509
 31
0.0
  0
LINE
  5
1DEED
  8
0
 10
4430.8423791037757837
 20
260.4943630091383966
 30
0.0
 11
4430.8728400166710344
 21
260.5596251582513219
 31
0.0
  0
LINE
  5
1DEEE
  8
0
 10
4430.7784808017258911
 20
260.6137635781694826
 30
0.0
 11
4430.7971473019688347
 21
260.653021330611125
 31
0.0
  0
LINE
  5
1DEEF
  8
0
 10
4430.7750239712713665
 20
260.5317145710512818
 30
0.0
 11
4430.809239412154966
 21
260.5979304980371012
 31
0.0
  0
LINE
  5
1DEF0
  8
0
 10
4430.751260479359189
 20
260.5727075988008892
 30
0.0
 11
4430.772772137181164
 21
260.6124213688952977
 31
0.0
  0
LINE
  5
1DEF1
  8
0
 10
4434.4421047613122937
 20
257.9999279280513065
 30
0.0
 11
4434.552492751169666
 21
257.9999279280513065
 31
0.0
  0
LINE
  5
1DEF2
  8
0
 10
4430.7804627697169053
 20
260.6600307197576853
 30
0.0
 11
4430.7699763070522749
 21
260.719943513857686
 31
0.0
  0
LINE
  5
1DEF3
  8
0
 10
4430.7773300492435737
 20
260.5037300692067106
 30
0.0
 11
4430.7731701911452546
 21
260.5311311199326951
 31
0.0
  0
LINE
  5
1DEF4
  8
0
 10
4430.7134443243776332
 20
260.6240219599279726
 30
0.0
 11
4430.7058633929700591
 21
260.6816995729512882
 31
0.0
  0
LINE
  5
1DEF5
  8
0
 10
4431.0017504640709376
 20
260.4713515547113047
 30
0.0
 11
4431.0017504640709376
 21
260.4206381694513084
 31
0.0
  0
LINE
  5
1DEF6
  8
0
 10
4431.009959736370547
 20
260.4007933655852867
 30
0.0
 11
4431.009959736370547
 21
260.3964320318513046
 31
0.0
  0
LINE
  5
1DEF7
  8
0
 10
4431.009959736370547
 20
260.4448443070513122
 30
0.0
 11
4431.009959736370547
 21
260.475755392231008
 31
0.0
  0
LINE
  5
1DEF8
  8
0
 10
4431.0475102060690915
 20
260.4916750517119794
 30
0.0
 11
4431.0475102060690915
 21
260.4683075095513232
 31
0.0
  0
LINE
  5
1DEF9
  8
0
 10
4431.0509128402691204
 20
260.4677949360512912
 30
0.0
 11
4431.0509128402691204
 21
260.4928027906577199
 31
0.0
  0
LINE
  5
1DEFA
  8
0
 10
4431.0992564937705538
 20
260.4626579697513193
 30
0.0
 11
4431.0992564937705538
 21
260.4550522546513207
 31
0.0
  0
LINE
  5
1DEFB
  8
0
 10
4431.0992564937705538
 20
260.4439243861513091
 30
0.0
 11
4431.0992564937705538
 21
260.4363186709513229
 31
0.0
  0
LINE
  5
1DEFC
  8
0
 10
4431.0992564937705538
 20
260.4251908024513114
 30
0.0
 11
4431.0992564937705538
 21
260.4175850873513127
 31
0.0
  0
LINE
  5
1DEFD
  8
0
 10
4431.0992564937705538
 20
260.4064572188513011
 30
0.0
 11
4431.0992564937705538
 21
260.3988515036513149
 31
0.0
  0
LINE
  5
1DEFE
  8
0
 10
4431.1219868193711591
 20
260.4626579697513193
 30
0.0
 11
4431.1219868193711591
 21
260.4550522546513207
 31
0.0
  0
LINE
  5
1DEFF
  8
0
 10
4431.1219868193711591
 20
260.4439243861513091
 30
0.0
 11
4431.1219868193711591
 21
260.4363186709513229
 31
0.0
  0
LINE
  5
1DF00
  8
0
 10
4431.1219868193711591
 20
260.4251908024513114
 30
0.0
 11
4431.1219868193711591
 21
260.4175850873513127
 31
0.0
  0
LINE
  5
1DF01
  8
0
 10
4431.1219868193711591
 20
260.4064572188513011
 30
0.0
 11
4431.1219868193711591
 21
260.3988515036513149
 31
0.0
  0
LINE
  5
1DF02
  8
0
 10
4431.1354469983707531
 20
260.472024761651312
 30
0.0
 11
4431.1354469983707531
 21
260.4644190464513258
 31
0.0
  0
LINE
  5
1DF03
  8
0
 10
4431.1354469983707531
 20
260.4532911779513142
 30
0.0
 11
4431.1354469983707531
 21
260.445685462751328
 31
0.0
  0
LINE
  5
1DF04
  8
0
 10
4431.1354469983707531
 20
260.434557594351304
 30
0.0
 11
4431.1354469983707531
 21
260.4269518791513178
 31
0.0
  0
LINE
  5
1DF05
  8
0
 10
4431.1354469983707531
 20
260.3970904269513085
 30
0.0
 11
4431.1354469983707531
 21
260.3894847118513098
 31
0.0
  0
LINE
  5
1DF06
  8
0
 10
4431.1354469983707531
 20
260.4158240106513063
 30
0.0
 11
4431.1354469983707531
 21
260.40821829545132
 31
0.0
  0
LINE
  5
1DF07
  8
0
 10
4431.158177323871314
 20
260.472024761651312
 30
0.0
 11
4431.158177323871314
 21
260.4644190464513258
 31
0.0
  0
LINE
  5
1DF08
  8
0
 10
4431.158177323871314
 20
260.4532911779513142
 30
0.0
 11
4431.158177323871314
 21
260.445685462751328
 31
0.0
  0
LINE
  5
1DF09
  8
0
 10
4431.158177323871314
 20
260.434557594351304
 30
0.0
 11
4431.158177323871314
 21
260.4269518791513178
 31
0.0
  0
LINE
  5
1DF0A
  8
0
 10
4431.158177323871314
 20
260.3970904269513085
 30
0.0
 11
4431.158177323871314
 21
260.3894847118513098
 31
0.0
  0
LINE
  5
1DF0B
  8
0
 10
4431.158177323871314
 20
260.4158240106513063
 30
0.0
 11
4431.158177323871314
 21
260.40821829545132
 31
0.0
  0
LINE
  5
1DF0C
  8
0
 10
4431.1716375028699986
 20
260.4813915534513171
 30
0.0
 11
4431.1716375028699986
 21
260.4737858382512741
 31
0.0
  0
LINE
  5
1DF0D
  8
0
 10
4431.1716375028699986
 20
260.4626579697513193
 30
0.0
 11
4431.1716375028699986
 21
260.4550522546513207
 31
0.0
  0
LINE
  5
1DF0E
  8
0
 10
4431.1716375028699986
 20
260.4439243861513091
 30
0.0
 11
4431.1716375028699986
 21
260.4363186709513229
 31
0.0
  0
LINE
  5
1DF0F
  8
0
 10
4431.1716375028699986
 20
260.4251908024513114
 30
0.0
 11
4431.1716375028699986
 21
260.4175850873513127
 31
0.0
  0
LINE
  5
1DF10
  8
0
 10
4431.1716375028699986
 20
260.4064572188513011
 30
0.0
 11
4431.1716375028699986
 21
260.3988515036513149
 31
0.0
  0
LINE
  5
1DF11
  8
0
 10
4431.1716375028699986
 20
260.3877236351513034
 30
0.0
 11
4431.1716375028699986
 21
260.3801179199513172
 31
0.0
  0
LINE
  5
1DF12
  8
0
 10
4431.1773453012710888
 20
260.6910654115512784
 30
0.0
 11
4431.1773453012710888
 21
260.5712906090512888
 31
0.0
  0
LINE
  5
1DF13
  8
0
 10
4431.1797750015703059
 20
260.3398773355642106
 30
0.0
 11
4431.1797750015703059
 21
260.3387361813512939
 31
0.0
  0
LINE
  5
1DF14
  8
0
 10
4431.1797750015703059
 20
260.5025401576513104
 30
0.0
 11
4431.1797750015703059
 21
260.5208292830361074
 31
0.0
  0
LINE
  5
1DF15
  8
0
 10
4431.1943678284706039
 20
260.4813915534513171
 30
0.0
 11
4431.1943678284706039
 21
260.4737858382512741
 31
0.0
  0
LINE
  5
1DF16
  8
0
 10
4431.1943678284706039
 20
260.4626579697513193
 30
0.0
 11
4431.1943678284706039
 21
260.4550522546513207
 31
0.0
  0
LINE
  5
1DF17
  8
0
 10
4431.1943678284706039
 20
260.4439243861513091
 30
0.0
 11
4431.1943678284706039
 21
260.4363186709513229
 31
0.0
  0
LINE
  5
1DF18
  8
0
 10
4431.1943678284706039
 20
260.4251908024513114
 30
0.0
 11
4431.1943678284706039
 21
260.4175850873513127
 31
0.0
  0
LINE
  5
1DF19
  8
0
 10
4431.1943678284706039
 20
260.4064572188513011
 30
0.0
 11
4431.1943678284706039
 21
260.3988515036513149
 31
0.0
  0
LINE
  5
1DF1A
  8
0
 10
4431.1943678284706039
 20
260.3877236351513034
 30
0.0
 11
4431.1943678284706039
 21
260.3801179199513172
 31
0.0
  0
LINE
  5
1DF1B
  8
0
 10
4431.2078280074720169
 20
260.4907583452513222
 30
0.0
 11
4431.2078280074720169
 21
260.4831526301513236
 31
0.0
  0
LINE
  5
1DF1C
  8
0
 10
4431.2078280074720169
 20
260.472024761651312
 30
0.0
 11
4431.2078280074720169
 21
260.4644190464513258
 31
0.0
  0
LINE
  5
1DF1D
  8
0
 10
4431.2078280074720169
 20
260.4532911779513142
 30
0.0
 11
4431.2078280074720169
 21
260.445685462751328
 31
0.0
  0
LINE
  5
1DF1E
  8
0
 10
4431.2078280074720169
 20
260.434557594351304
 30
0.0
 11
4431.2078280074720169
 21
260.4269518791513178
 31
0.0
  0
LINE
  5
1DF1F
  8
0
 10
4431.2078280074720169
 20
260.3970904269513085
 30
0.0
 11
4431.2078280074720169
 21
260.3894847118513098
 31
0.0
  0
LINE
  5
1DF20
  8
0
 10
4431.2078280074720169
 20
260.4158240106513063
 30
0.0
 11
4431.2078280074720169
 21
260.40821829545132
 31
0.0
  0
LINE
  5
1DF21
  8
0
 10
4431.2078280074720169
 20
260.3783568433512983
 30
0.0
 11
4431.2078280074720169
 21
260.3707511281513121
 31
0.0
  0
LINE
  5
1DF22
  8
0
 10
4431.2305583329707588
 20
260.4907583452513222
 30
0.0
 11
4431.2305583329707588
 21
260.4831526301513236
 31
0.0
  0
LINE
  5
1DF23
  8
0
 10
4431.2305583329707588
 20
260.472024761651312
 30
0.0
 11
4431.2305583329707588
 21
260.4644190464513258
 31
0.0
  0
LINE
  5
1DF24
  8
0
 10
4431.2305583329707588
 20
260.4532911779513142
 30
0.0
 11
4431.2305583329707588
 21
260.445685462751328
 31
0.0
  0
LINE
  5
1DF25
  8
0
 10
4431.2305583329707588
 20
260.434557594351304
 30
0.0
 11
4431.2305583329707588
 21
260.4269518791513178
 31
0.0
  0
LINE
  5
1DF26
  8
0
 10
4431.2305583329707588
 20
260.3970904269513085
 30
0.0
 11
4431.2305583329707588
 21
260.3894847118513098
 31
0.0
  0
LINE
  5
1DF27
  8
0
 10
4431.2305583329707588
 20
260.4158240106513063
 30
0.0
 11
4431.2305583329707588
 21
260.40821829545132
 31
0.0
  0
LINE
  5
1DF28
  8
0
 10
4431.2305583329707588
 20
260.3783568433512983
 30
0.0
 11
4431.2305583329707588
 21
260.3707511281513121
 31
0.0
  0
LINE
  5
1DF29
  8
0
 10
4431.2440185119712623
 20
260.4960097425354206
 30
0.0
 11
4431.2440185119712623
 21
260.4925194219512719
 31
0.0
  0
LINE
  5
1DF2A
  8
0
 10
4431.2440185119712623
 20
260.4626579697513193
 30
0.0
 11
4431.2440185119712623
 21
260.4550522546513207
 31
0.0
  0
LINE
  5
1DF2B
  8
0
 10
4431.2440185119712623
 20
260.4813915534513171
 30
0.0
 11
4431.2440185119712623
 21
260.4737858382512741
 31
0.0
  0
LINE
  5
1DF2C
  8
0
 10
4431.2440185119712623
 20
260.4439243861513091
 30
0.0
 11
4431.2440185119712623
 21
260.4363186709513229
 31
0.0
  0
LINE
  5
1DF2D
  8
0
 10
4431.2440185119712623
 20
260.4251908024513114
 30
0.0
 11
4431.2440185119712623
 21
260.4175850873513127
 31
0.0
  0
LINE
  5
1DF2E
  8
0
 10
4431.2440185119712623
 20
260.4064572188513011
 30
0.0
 11
4431.2440185119712623
 21
260.3988515036513149
 31
0.0
  0
LINE
  5
1DF2F
  8
0
 10
4431.2440185119712623
 20
260.3877236351513034
 30
0.0
 11
4431.2440185119712623
 21
260.3801179199513172
 31
0.0
  0
LINE
  5
1DF30
  8
0
 10
4431.2440185119712623
 20
260.3689900514513056
 30
0.0
 11
4431.2440185119712623
 21
260.361384336351307
 31
0.0
  0
LINE
  5
1DF31
  8
0
 10
4431.2667488375700486
 20
260.4981766674350183
 30
0.0
 11
4431.2667488375700486
 21
260.4925194219512719
 31
0.0
  0
LINE
  5
1DF32
  8
0
 10
4431.2667488375700486
 20
260.4626579697513193
 30
0.0
 11
4431.2667488375700486
 21
260.4550522546513207
 31
0.0
  0
LINE
  5
1DF33
  8
0
 10
4431.2667488375700486
 20
260.4813915534513171
 30
0.0
 11
4431.2667488375700486
 21
260.4737858382512741
 31
0.0
  0
LINE
  5
1DF34
  8
0
 10
4431.2667488375700486
 20
260.4439243861513091
 30
0.0
 11
4431.2667488375700486
 21
260.4363186709513229
 31
0.0
  0
LINE
  5
1DF35
  8
0
 10
4431.2667488375700486
 20
260.4251908024513114
 30
0.0
 11
4431.2667488375700486
 21
260.4175850873513127
 31
0.0
  0
LINE
  5
1DF36
  8
0
 10
4431.2667488375700486
 20
260.4064572188513011
 30
0.0
 11
4431.2667488375700486
 21
260.3988515036513149
 31
0.0
  0
LINE
  5
1DF37
  8
0
 10
4431.2667488375700486
 20
260.3877236351513034
 30
0.0
 11
4431.2667488375700486
 21
260.3801179199513172
 31
0.0
  0
LINE
  5
1DF38
  8
0
 10
4431.2667488375700486
 20
260.3689900514513056
 30
0.0
 11
4431.2667488375700486
 21
260.361384336351307
 31
0.0
  0
LINE
  5
1DF39
  8
0
 10
4431.2704298546696009
 20
260.5297353261896092
 30
0.0
 11
4431.2704298546696009
 21
260.51225893435128
 31
0.0
  0
LINE
  5
1DF3A
  8
0
 10
4431.2714352714137931
 20
260.5112772120439786
 30
0.0
 11
4431.2714355037642235
 21
260.5297983042773922
 31
0.0
  0
LINE
  5
1DF3B
  8
0
 10
4431.2802090165723712
 20
260.4907583452513222
 30
0.0
 11
4431.2802090165723712
 21
260.4831526301513236
 31
0.0
  0
LINE
  5
1DF3C
  8
0
 10
4431.2802090165723712
 20
260.472024761651312
 30
0.0
 11
4431.2802090165723712
 21
260.4644190464513258
 31
0.0
  0
LINE
  5
1DF3D
  8
0
 10
4431.2802090165723712
 20
260.4532911779513142
 30
0.0
 11
4431.2802090165723712
 21
260.445685462751328
 31
0.0
  0
LINE
  5
1DF3E
  8
0
 10
4431.2802090165723712
 20
260.434557594351304
 30
0.0
 11
4431.2802090165723712
 21
260.4269518791513178
 31
0.0
  0
LINE
  5
1DF3F
  8
0
 10
4431.2802090165723712
 20
260.4158240106513063
 30
0.0
 11
4431.2802090165723712
 21
260.40821829545132
 31
0.0
  0
LINE
  5
1DF40
  8
0
 10
4431.2802090165723712
 20
260.3970904269513085
 30
0.0
 11
4431.2802090165723712
 21
260.3894847118513098
 31
0.0
  0
LINE
  5
1DF41
  8
0
 10
4431.2802090165723712
 20
260.3783568433512983
 30
0.0
 11
4431.2802090165723712
 21
260.3707511281513121
 31
0.0
  0
LINE
  5
1DF42
  8
0
 10
4431.3029393420711131
 20
260.4907583452513222
 30
0.0
 11
4431.3029393420711131
 21
260.4831526301513236
 31
0.0
  0
LINE
  5
1DF43
  8
0
 10
4431.3029393420711131
 20
260.472024761651312
 30
0.0
 11
4431.3029393420711131
 21
260.4644190464513258
 31
0.0
  0
LINE
  5
1DF44
  8
0
 10
4431.3029393420711131
 20
260.4532911779513142
 30
0.0
 11
4431.3029393420711131
 21
260.445685462751328
 31
0.0
  0
LINE
  5
1DF45
  8
0
 10
4431.3029393420711131
 20
260.434557594351304
 30
0.0
 11
4431.3029393420711131
 21
260.4269518791513178
 31
0.0
  0
LINE
  5
1DF46
  8
0
 10
4431.3029393420711131
 20
260.4158240106513063
 30
0.0
 11
4431.3029393420711131
 21
260.40821829545132
 31
0.0
  0
LINE
  5
1DF47
  8
0
 10
4431.3029393420711131
 20
260.3970904269513085
 30
0.0
 11
4431.3029393420711131
 21
260.3894847118513098
 31
0.0
  0
LINE
  5
1DF48
  8
0
 10
4431.3029393420711131
 20
260.3783568433512983
 30
0.0
 11
4431.3029393420711131
 21
260.3707511281513121
 31
0.0
  0
LINE
  5
1DF49
  8
0
 10
4431.3163995210707071
 20
260.5001251371513149
 30
0.0
 11
4431.3163995210707071
 21
260.4925194219512719
 31
0.0
  0
LINE
  5
1DF4A
  8
0
 10
4431.3163995210707071
 20
260.4626579697513193
 30
0.0
 11
4431.3163995210707071
 21
260.4550522546513207
 31
0.0
  0
LINE
  5
1DF4B
  8
0
 10
4431.3163995210707071
 20
260.4813915534513171
 30
0.0
 11
4431.3163995210707071
 21
260.4737858382512741
 31
0.0
  0
LINE
  5
1DF4C
  8
0
 10
4431.3163995210707071
 20
260.4439243861513091
 30
0.0
 11
4431.3163995210707071
 21
260.4363186709513229
 31
0.0
  0
LINE
  5
1DF4D
  8
0
 10
4431.3163995210707071
 20
260.4251908024513114
 30
0.0
 11
4431.3163995210707071
 21
260.4175850873513127
 31
0.0
  0
LINE
  5
1DF4E
  8
0
 10
4431.3163995210707071
 20
260.4064572188513011
 30
0.0
 11
4431.3163995210707071
 21
260.3988515036513149
 31
0.0
  0
LINE
  5
1DF4F
  8
0
 10
4431.3163995210707071
 20
260.3877236351513034
 30
0.0
 11
4431.3163995210707071
 21
260.3801179199513172
 31
0.0
  0
LINE
  5
1DF50
  8
0
 10
4431.3163995210707071
 20
260.3689900514513056
 30
0.0
 11
4431.3163995210707071
 21
260.361384336351307
 31
0.0
  0
LINE
  5
1DF51
  8
0
 10
4431.3186795978708687
 20
260.833204726551287
 30
0.0
 11
4431.3186795978708687
 21
260.8542350878796015
 31
0.0
  0
LINE
  5
1DF52
  8
0
 10
4431.3391298466704029
 20
260.5001251371513149
 30
0.0
 11
4431.3391298466704029
 21
260.4925194219512719
 31
0.0
  0
LINE
  5
1DF53
  8
0
 10
4431.3391298466704029
 20
260.4626579697513193
 30
0.0
 11
4431.3391298466704029
 21
260.4550522546513207
 31
0.0
  0
LINE
  5
1DF54
  8
0
 10
4431.3391298466704029
 20
260.4813915534513171
 30
0.0
 11
4431.3391298466704029
 21
260.4737858382512741
 31
0.0
  0
LINE
  5
1DF55
  8
0
 10
4431.3391298466704029
 20
260.4439243861513091
 30
0.0
 11
4431.3391298466704029
 21
260.4363186709513229
 31
0.0
  0
LINE
  5
1DF56
  8
0
 10
4431.3391298466704029
 20
260.4251908024513114
 30
0.0
 11
4431.3391298466704029
 21
260.4175850873513127
 31
0.0
  0
LINE
  5
1DF57
  8
0
 10
4431.3391298466704029
 20
260.4064572188513011
 30
0.0
 11
4431.3391298466704029
 21
260.3988515036513149
 31
0.0
  0
LINE
  5
1DF58
  8
0
 10
4431.3391298466704029
 20
260.3877236351513034
 30
0.0
 11
4431.3391298466704029
 21
260.3801179199513172
 31
0.0
  0
LINE
  5
1DF59
  8
0
 10
4431.3391298466704029
 20
260.3689900514513056
 30
0.0
 11
4431.3391298466704029
 21
260.361384336351307
 31
0.0
  0
LINE
  5
1DF5A
  8
0
 10
4431.352590025669997
 20
260.4907583452513222
 30
0.0
 11
4431.352590025669997
 21
260.4831526301513236
 31
0.0
  0
LINE
  5
1DF5B
  8
0
 10
4431.352590025669997
 20
260.472024761651312
 30
0.0
 11
4431.352590025669997
 21
260.4644190464513258
 31
0.0
  0
LINE
  5
1DF5C
  8
0
 10
4431.352590025669997
 20
260.4532911779513142
 30
0.0
 11
4431.352590025669997
 21
260.445685462751328
 31
0.0
  0
LINE
  5
1DF5D
  8
0
 10
4431.352590025669997
 20
260.434557594351304
 30
0.0
 11
4431.352590025669997
 21
260.4269518791513178
 31
0.0
  0
LINE
  5
1DF5E
  8
0
 10
4431.352590025669997
 20
260.3970904269513085
 30
0.0
 11
4431.352590025669997
 21
260.3894847118513098
 31
0.0
  0
LINE
  5
1DF5F
  8
0
 10
4431.352590025669997
 20
260.4158240106513063
 30
0.0
 11
4431.352590025669997
 21
260.40821829545132
 31
0.0
  0
LINE
  5
1DF60
  8
0
 10
4431.352590025669997
 20
260.3783568433512983
 30
0.0
 11
4431.352590025669997
 21
260.3707511281513121
 31
0.0
  0
LINE
  5
1DF61
  8
0
 10
4431.3753203511705578
 20
260.4907583452513222
 30
0.0
 11
4431.3753203511705578
 21
260.4831526301513236
 31
0.0
  0
LINE
  5
1DF62
  8
0
 10
4431.3753203511705578
 20
260.472024761651312
 30
0.0
 11
4431.3753203511705578
 21
260.4644190464513258
 31
0.0
  0
LINE
  5
1DF63
  8
0
 10
4431.3753203511705578
 20
260.4532911779513142
 30
0.0
 11
4431.3753203511705578
 21
260.445685462751328
 31
0.0
  0
LINE
  5
1DF64
  8
0
 10
4431.3753203511705578
 20
260.434557594351304
 30
0.0
 11
4431.3753203511705578
 21
260.4269518791513178
 31
0.0
  0
LINE
  5
1DF65
  8
0
 10
4431.3753203511705578
 20
260.3970904269513085
 30
0.0
 11
4431.3753203511705578
 21
260.3894847118513098
 31
0.0
  0
LINE
  5
1DF66
  8
0
 10
4431.3753203511705578
 20
260.4158240106513063
 30
0.0
 11
4431.3753203511705578
 21
260.40821829545132
 31
0.0
  0
LINE
  5
1DF67
  8
0
 10
4431.3753203511705578
 20
260.3783568433512983
 30
0.0
 11
4431.3753203511705578
 21
260.3707511281513121
 31
0.0
  0
LINE
  5
1DF68
  8
0
 10
4431.3985783091702615
 20
260.735293899051328
 30
0.0
 11
4431.4162556382707407
 21
260.7992967476512831
 31
0.0
  0
LINE
  5
1DF69
  8
0
 10
4431.2347753178883067
 20
260.7290008213482224
 30
0.0
 11
4431.2545697951700276
 21
260.7938061444511959
 31
0.0
  0
LINE
  5
1DF6A
  8
0
 10
4431.2714355033713218
 20
260.3300025741513082
 30
0.0
 11
4431.2704298546696009
 21
260.3290174046513243
 31
0.0
  0
LINE
  5
1DF6B
  8
0
 10
4434.0263388861767453
 20
254.0066744077512908
 30
0.0
 11
4433.6705269221711205
 21
254.7697156704512906
 31
0.0
  0
LINE
  5
1DF6C
  8
0
 10
4431.1688552307823556
 20
260.7298820549415836
 30
0.0
 11
4431.1511657782994007
 21
260.7938688980473216
 31
0.0
  0
LINE
  5
1DF6D
  8
0
 10
4431.0157925524708844
 20
260.7150718677513055
 30
0.0
 11
4431.0002874071642509
 21
260.7780267879757048
 31
0.0
  0
LINE
  5
1DF6E
  8
0
 10
4430.8834603691539087
 20
260.691171571566997
 30
0.0
 11
4430.8703331708647966
 21
260.7528057463757136
 31
0.0
  0
LINE
  5
1DF6F
  8
0
 10
4430.8802891691702825
 20
260.4694534039513201
 30
0.0
 11
4430.8690452457585707
 21
260.5277639328106147
 31
0.0
  0
LINE
  5
1DF70
  8
0
 10
4431.8954512514692397
 20
256.912169736151327
 30
0.0
 11
4431.8954512514692397
 21
256.880673673151307
 31
0.0
  0
LINE
  5
1DF71
  8
0
 10
4431.9151362907696239
 20
256.912169736151327
 30
0.0
 11
4431.9151362907696239
 21
260.4651817990932727
 31
0.0
  0
LINE
  5
1DF72
  8
0
 10
4431.1354469983707531
 20
260.4746087726513224
 30
0.0
 11
4431.1240818355699957
 21
260.4695139095513241
 31
0.0
  0
LINE
  5
1DF73
  8
0
 10
4431.1248689091698907
 20
260.4639499752512961
 30
0.0
 11
4431.1219868193711591
 21
260.4626579697513193
 31
0.0
  0
LINE
  5
1DF74
  8
0
 10
4431.1716375028699986
 20
260.4839755644513275
 30
0.0
 11
4431.1602723401711046
 21
260.4788807013512724
 31
0.0
  0
LINE
  5
1DF75
  8
0
 10
4431.0992564937705538
 20
260.4465083971513195
 30
0.0
 11
4431.0878913310698408
 21
260.4414135340513212
 31
0.0
  0
LINE
  5
1DF76
  8
0
 10
4431.1610594136700456
 20
260.4733167671512888
 30
0.0
 11
4431.158177323871314
 21
260.472024761651312
 31
0.0
  0
LINE
  5
1DF77
  8
0
 10
4431.1219868193711591
 20
260.4550522546513207
 30
0.0
 11
4431.133351982171007
 21
260.460147117751319
 31
0.0
  0
LINE
  5
1DF78
  8
0
 10
4431.2013815181271639
 20
260.4904524741443765
 30
0.0
 11
4431.1964628446712595
 21
260.4882474931512775
 31
0.0
  0
LINE
  5
1DF79
  8
0
 10
4431.1354469983707531
 20
260.4558751889513246
 30
0.0
 11
4431.1240818355699957
 21
260.4507803258513263
 31
0.0
  0
LINE
  5
1DF7A
  8
0
 10
4431.197249918270245
 20
260.4826835589512939
 30
0.0
 11
4431.1943678284706039
 21
260.4813915534513171
 31
0.0
  0
LINE
  5
1DF7B
  8
0
 10
4431.158177323871314
 20
260.4644190464513258
 30
0.0
 11
4431.1695424866702524
 21
260.4695139095513241
 31
0.0
  0
LINE
  5
1DF7C
  8
0
 10
4431.1248689091698907
 20
260.4452163916512859
 30
0.0
 11
4431.1219868193711591
 21
260.4439243861513091
 31
0.0
  0
LINE
  5
1DF7D
  8
0
 10
4431.1716375028699986
 20
260.4652419808513173
 30
0.0
 11
4431.1602723401711046
 21
260.460147117751319
 31
0.0
  0
LINE
  5
1DF7E
  8
0
 10
4431.2334404227713094
 20
260.492050350751299
 30
0.0
 11
4431.2305583329707588
 21
260.4907583452513222
 31
0.0
  0
LINE
  5
1DF7F
  8
0
 10
4431.1943678284706039
 20
260.4737858382512741
 30
0.0
 11
4431.2057329912713612
 21
260.4788807013512724
 31
0.0
  0
LINE
  5
1DF80
  8
0
 10
4431.0992564937705538
 20
260.4277748134513217
 30
0.0
 11
4431.0878913310698408
 21
260.4226799503513234
 31
0.0
  0
LINE
  5
1DF81
  8
0
 10
4431.1610594136700456
 20
260.454583183451291
 30
0.0
 11
4431.158177323871314
 21
260.4532911779513142
 31
0.0
  0
LINE
  5
1DF82
  8
0
 10
4431.1219868193711591
 20
260.4363186709513229
 30
0.0
 11
4431.133351982171007
 21
260.4414135340513212
 31
0.0
  0
LINE
  5
1DF83
  8
0
 10
4431.2078280074720169
 20
260.4746087726513224
 30
0.0
 11
4431.1964628446712595
 21
260.4695139095513241
 31
0.0
  0
LINE
  5
1DF84
  8
0
 10
4431.2305583329707588
 20
260.4831526301513236
 30
0.0
 11
4431.2419234957706067
 21
260.4882474931512775
 31
0.0
  0
LINE
  5
1DF85
  8
0
 10
4431.1354469983707531
 20
260.4371416053513144
 30
0.0
 11
4431.1240818355699957
 21
260.4320467422513161
 31
0.0
  0
LINE
  5
1DF86
  8
0
 10
4431.197249918270245
 20
260.4639499752512961
 30
0.0
 11
4431.1943678284706039
 21
260.4626579697513193
 31
0.0
  0
LINE
  5
1DF87
  8
0
 10
4431.158177323871314
 20
260.445685462751328
 30
0.0
 11
4431.1695424866702524
 21
260.4507803258513263
 31
0.0
  0
LINE
  5
1DF88
  8
0
 10
4431.2440185119712623
 20
260.4839755644513275
 30
0.0
 11
4431.2326533492705494
 21
260.4788807013512724
 31
0.0
  0
LINE
  5
1DF89
  8
0
 10
4431.2667488375700486
 20
260.4925194219512719
 30
0.0
 11
4431.278114000368987
 21
260.497614285051327
 31
0.0
  0
LINE
  5
1DF8A
  8
0
 10
4431.1248689091698907
 20
260.4264828079512881
 30
0.0
 11
4431.1219868193711591
 21
260.4251908024513114
 31
0.0
  0
LINE
  5
1DF8B
  8
0
 10
4431.1716375028699986
 20
260.4465083971513195
 30
0.0
 11
4431.1602723401711046
 21
260.4414135340513212
 31
0.0
  0
LINE
  5
1DF8C
  8
0
 10
4431.2334404227713094
 20
260.4733167671512888
 30
0.0
 11
4431.2305583329707588
 21
260.472024761651312
 31
0.0
  0
LINE
  5
1DF8D
  8
0
 10
4431.1943678284706039
 20
260.4550522546513207
 30
0.0
 11
4431.2057329912713612
 21
260.460147117751319
 31
0.0
  0
LINE
  5
1DF8E
  8
0
 10
4431.2802090165723712
 20
260.4933423562512758
 30
0.0
 11
4431.2688438537707043
 21
260.4882474931512775
 31
0.0
  0
LINE
  5
1DF8F
  8
0
 10
4431.0992564937705538
 20
260.4090412298513115
 30
0.0
 11
4431.0878913310698408
 21
260.4039463667513132
 31
0.0
  0
LINE
  5
1DF90
  8
0
 10
4431.1610594136700456
 20
260.4358495998512808
 30
0.0
 11
4431.158177323871314
 21
260.434557594351304
 31
0.0
  0
LINE
  5
1DF91
  8
0
 10
4431.1219868193711591
 20
260.4175850873513127
 30
0.0
 11
4431.133351982171007
 21
260.4226799503513234
 31
0.0
  0
LINE
  5
1DF92
  8
0
 10
4431.2078280074720169
 20
260.4558751889513246
 30
0.0
 11
4431.1964628446712595
 21
260.4507803258513263
 31
0.0
  0
LINE
  5
1DF93
  8
0
 10
4431.2696309273696897
 20
260.4826835589512939
 30
0.0
 11
4431.2667488375700486
 21
260.4813915534513171
 31
0.0
  0
LINE
  5
1DF94
  8
0
 10
4431.2305583329707588
 20
260.4644190464513258
 30
0.0
 11
4431.2419234957706067
 21
260.4695139095513241
 31
0.0
  0
LINE
  5
1DF95
  8
0
 10
4431.3127395041119598
 20
260.5010684074258052
 30
0.0
 11
4431.3050343583709036
 21
260.497614285051327
 31
0.0
  0
LINE
  5
1DF96
  8
0
 10
4431.1354469983707531
 20
260.4184080216513166
 30
0.0
 11
4431.1240818355699957
 21
260.4133131585513183
 31
0.0
  0
LINE
  5
1DF97
  8
0
 10
4431.197249918270245
 20
260.4452163916512859
 30
0.0
 11
4431.1943678284706039
 21
260.4439243861513091
 31
0.0
  0
LINE
  5
1DF98
  8
0
 10
4431.158177323871314
 20
260.4269518791513178
 30
0.0
 11
4431.1695424866702524
 21
260.4320467422513161
 31
0.0
  0
LINE
  5
1DF99
  8
0
 10
4431.2440185119712623
 20
260.4652419808513173
 30
0.0
 11
4431.2326533492705494
 21
260.460147117751319
 31
0.0
  0
LINE
  5
1DF9A
  8
0
 10
4431.3058214318698447
 20
260.492050350751299
 30
0.0
 11
4431.3029393420711131
 21
260.4907583452513222
 31
0.0
  0
LINE
  5
1DF9B
  8
0
 10
4431.2667488375700486
 20
260.4737858382512741
 30
0.0
 11
4431.278114000368987
 21
260.4788807013512724
 31
0.0
  0
LINE
  5
1DF9C
  8
0
 10
4431.1248689091698907
 20
260.4077492243512779
 30
0.0
 11
4431.1219868193711591
 21
260.4064572188513011
 31
0.0
  0
LINE
  5
1DF9D
  8
0
 10
4431.1716375028699986
 20
260.4277748134513217
 30
0.0
 11
4431.1602723401711046
 21
260.4226799503513234
 31
0.0
  0
LINE
  5
1DF9E
  8
0
 10
4431.2334404227713094
 20
260.454583183451291
 30
0.0
 11
4431.2305583329707588
 21
260.4532911779513142
 31
0.0
  0
LINE
  5
1DF9F
  8
0
 10
4431.1943678284706039
 20
260.4363186709513229
 30
0.0
 11
4431.2057329912713612
 21
260.4414135340513212
 31
0.0
  0
LINE
  5
1DFA0
  8
0
 10
4431.2802090165723712
 20
260.4746087726513224
 30
0.0
 11
4431.2688438537707043
 21
260.4695139095513241
 31
0.0
  0
LINE
  5
1DFA1
  8
0
 10
4431.3420119364709535
 20
260.5014171426512917
 30
0.0
 11
4431.3391298466704029
 21
260.5001251371513149
 31
0.0
  0
LINE
  5
1DFA2
  8
0
 10
4431.3029393420711131
 20
260.4831526301513236
 30
0.0
 11
4431.314304504870961
 21
260.4882474931512775
 31
0.0
  0
LINE
  5
1DFA3
  8
0
 10
4431.1610594136700456
 20
260.417116016151283
 30
0.0
 11
4431.158177323871314
 21
260.4158240106513063
 31
0.0
  0
LINE
  5
1DFA4
  8
0
 10
4431.1219868193711591
 20
260.3988515036513149
 30
0.0
 11
4431.133351982171007
 21
260.4039463667513132
 31
0.0
  0
LINE
  5
1DFA5
  8
0
 10
4431.2078280074720169
 20
260.4371416053513144
 30
0.0
 11
4431.1964628446712595
 21
260.4320467422513161
 31
0.0
  0
LINE
  5
1DFA6
  8
0
 10
4431.2696309273696897
 20
260.4639499752512961
 30
0.0
 11
4431.2667488375700486
 21
260.4626579697513193
 31
0.0
  0
LINE
  5
1DFA7
  8
0
 10
4431.2305583329707588
 20
260.445685462751328
 30
0.0
 11
4431.2419234957706067
 21
260.4507803258513263
 31
0.0
  0
LINE
  5
1DFA8
  8
0
 10
4431.3163995210707071
 20
260.4839755644513275
 30
0.0
 11
4431.3050343583709036
 21
260.4788807013512724
 31
0.0
  0
LINE
  5
1DFA9
  8
0
 10
4431.3391298466704029
 20
260.4925194219512719
 30
0.0
 11
4431.3504950094702508
 21
260.497614285051327
 31
0.0
  0
LINE
  5
1DFAA
  8
0
 10
4431.1354469983707531
 20
260.3996744380513064
 30
0.0
 11
4431.1240818355699957
 21
260.3945795749513081
 31
0.0
  0
LINE
  5
1DFAB
  8
0
 10
4431.197249918270245
 20
260.4264828079512881
 30
0.0
 11
4431.1943678284706039
 21
260.4251908024513114
 31
0.0
  0
LINE
  5
1DFAC
  8
0
 10
4431.158177323871314
 20
260.40821829545132
 30
0.0
 11
4431.1695424866702524
 21
260.4133131585513183
 31
0.0
  0
LINE
  5
1DFAD
  8
0
 10
4431.2440185119712623
 20
260.4465083971513195
 30
0.0
 11
4431.2326533492705494
 21
260.4414135340513212
 31
0.0
  0
LINE
  5
1DFAE
  8
0
 10
4431.3058214318698447
 20
260.4733167671512888
 30
0.0
 11
4431.3029393420711131
 21
260.472024761651312
 31
0.0
  0
LINE
  5
1DFAF
  8
0
 10
4431.2667488375700486
 20
260.4550522546513207
 30
0.0
 11
4431.278114000368987
 21
260.460147117751319
 31
0.0
  0
LINE
  5
1DFB0
  8
0
 10
4431.352590025669997
 20
260.4933423562512758
 30
0.0
 11
4431.3412248628701491
 21
260.4882474931512775
 31
0.0
  0
LINE
  5
1DFB1
  8
0
 10
4431.1716375028699986
 20
260.4090412298513115
 30
0.0
 11
4431.1602723401711046
 21
260.4039463667513132
 31
0.0
  0
LINE
  5
1DFB2
  8
0
 10
4431.2334404227713094
 20
260.4358495998512808
 30
0.0
 11
4431.2305583329707588
 21
260.434557594351304
 31
0.0
  0
LINE
  5
1DFB3
  8
0
 10
4431.1943678284706039
 20
260.4175850873513127
 30
0.0
 11
4431.2057329912713612
 21
260.4226799503513234
 31
0.0
  0
LINE
  5
1DFB4
  8
0
 10
4431.2802090165723712
 20
260.4558751889513246
 30
0.0
 11
4431.2688438537707043
 21
260.4507803258513263
 31
0.0
  0
LINE
  5
1DFB5
  8
0
 10
4431.3420119364709535
 20
260.4826835589512939
 30
0.0
 11
4431.3391298466704029
 21
260.4813915534513171
 31
0.0
  0
LINE
  5
1DFB6
  8
0
 10
4431.3029393420711131
 20
260.4644190464513258
 30
0.0
 11
4431.314304504870961
 21
260.4695139095513241
 31
0.0
  0
LINE
  5
1DFB7
  8
0
 10
4431.1610594136700456
 20
260.3983824324512852
 30
0.0
 11
4431.158177323871314
 21
260.3970904269513085
 31
0.0
  0
LINE
  5
1DFB8
  8
0
 10
4431.2078280074720169
 20
260.4184080216513166
 30
0.0
 11
4431.1964628446712595
 21
260.4133131585513183
 31
0.0
  0
LINE
  5
1DFB9
  8
0
 10
4431.2696309273696897
 20
260.4452163916512859
 30
0.0
 11
4431.2667488375700486
 21
260.4439243861513091
 31
0.0
  0
LINE
  5
1DFBA
  8
0
 10
4431.2305583329707588
 20
260.4269518791513178
 30
0.0
 11
4431.2419234957706067
 21
260.4320467422513161
 31
0.0
  0
LINE
  5
1DFBB
  8
0
 10
4431.3163995210707071
 20
260.4652419808513173
 30
0.0
 11
4431.3050343583709036
 21
260.460147117751319
 31
0.0
  0
LINE
  5
1DFBC
  8
0
 10
4431.3782024409701989
 20
260.492050350751299
 30
0.0
 11
4431.3753203511705578
 21
260.4907583452513222
 31
0.0
  0
LINE
  5
1DFBD
  8
0
 10
4431.3391298466704029
 20
260.4737858382512741
 30
0.0
 11
4431.3504950094702508
 21
260.4788807013512724
 31
0.0
  0
LINE
  5
1DFBE
  8
0
 10
4431.197249918270245
 20
260.4077492243512779
 30
0.0
 11
4431.1943678284706039
 21
260.4064572188513011
 31
0.0
  0
LINE
  5
1DFBF
  8
0
 10
4431.158177323871314
 20
260.3894847118513098
 30
0.0
 11
4431.1695424866702524
 21
260.3945795749513081
 31
0.0
  0
LINE
  5
1DFC0
  8
0
 10
4431.2440185119712623
 20
260.4277748134513217
 30
0.0
 11
4431.2326533492705494
 21
260.4226799503513234
 31
0.0
  0
LINE
  5
1DFC1
  8
0
 10
4431.3058214318698447
 20
260.454583183451291
 30
0.0
 11
4431.3029393420711131
 21
260.4532911779513142
 31
0.0
  0
LINE
  5
1DFC2
  8
0
 10
4431.2667488375700486
 20
260.4363186709513229
 30
0.0
 11
4431.278114000368987
 21
260.4414135340513212
 31
0.0
  0
LINE
  5
1DFC3
  8
0
 10
4431.352590025669997
 20
260.4746087726513224
 30
0.0
 11
4431.3412248628701491
 21
260.4695139095513241
 31
0.0
  0
LINE
  5
1DFC4
  8
0
 10
4431.3753203511705578
 20
260.4831526301513236
 30
0.0
 11
4431.3866855139713152
 21
260.4882474931512775
 31
0.0
  0
LINE
  5
1DFC5
  8
0
 10
4431.1716375028699986
 20
260.3903076461513137
 30
0.0
 11
4431.1602723401711046
 21
260.3852127830513155
 31
0.0
  0
LINE
  5
1DFC6
  8
0
 10
4431.2334404227713094
 20
260.417116016151283
 30
0.0
 11
4431.2305583329707588
 21
260.4158240106513063
 31
0.0
  0
LINE
  5
1DFC7
  8
0
 10
4431.1943678284706039
 20
260.3988515036513149
 30
0.0
 11
4431.2057329912713612
 21
260.4039463667513132
 31
0.0
  0
LINE
  5
1DFC8
  8
0
 10
4431.2802090165723712
 20
260.4371416053513144
 30
0.0
 11
4431.2688438537707043
 21
260.4320467422513161
 31
0.0
  0
LINE
  5
1DFC9
  8
0
 10
4431.3420119364709535
 20
260.4639499752512961
 30
0.0
 11
4431.3391298466704029
 21
260.4626579697513193
 31
0.0
  0
LINE
  5
1DFCA
  8
0
 10
4431.3029393420711131
 20
260.445685462751328
 30
0.0
 11
4431.314304504870961
 21
260.4507803258513263
 31
0.0
  0
LINE
  5
1DFCB
  8
0
 10
4431.2078280074720169
 20
260.3996744380513064
 30
0.0
 11
4431.1964628446712595
 21
260.3945795749513081
 31
0.0
  0
LINE
  5
1DFCC
  8
0
 10
4431.2696309273696897
 20
260.4264828079512881
 30
0.0
 11
4431.2667488375700486
 21
260.4251908024513114
 31
0.0
  0
LINE
  5
1DFCD
  8
0
 10
4431.2305583329707588
 20
260.40821829545132
 30
0.0
 11
4431.2419234957706067
 21
260.4133131585513183
 31
0.0
  0
LINE
  5
1DFCE
  8
0
 10
4431.3163995210707071
 20
260.4465083971513195
 30
0.0
 11
4431.3050343583709036
 21
260.4414135340513212
 31
0.0
  0
LINE
  5
1DFCF
  8
0
 10
4431.3782024409701989
 20
260.4733167671512888
 30
0.0
 11
4431.3753203511705578
 21
260.472024761651312
 31
0.0
  0
LINE
  5
1DFD0
  8
0
 10
4431.3391298466704029
 20
260.4550522546513207
 30
0.0
 11
4431.3504950094702508
 21
260.460147117751319
 31
0.0
  0
LINE
  5
1DFD1
  8
0
 10
4431.197249918270245
 20
260.3890156406512801
 30
0.0
 11
4431.1943678284706039
 21
260.3877236351513034
 31
0.0
  0
LINE
  5
1DFD2
  8
0
 10
4431.2440185119712623
 20
260.4090412298513115
 30
0.0
 11
4431.2326533492705494
 21
260.4039463667513132
 31
0.0
  0
LINE
  5
1DFD3
  8
0
 10
4431.3058214318698447
 20
260.4358495998512808
 30
0.0
 11
4431.3029393420711131
 21
260.434557594351304
 31
0.0
  0
LINE
  5
1DFD4
  8
0
 10
4431.2667488375700486
 20
260.4175850873513127
 30
0.0
 11
4431.278114000368987
 21
260.4226799503513234
 31
0.0
  0
LINE
  5
1DFD5
  8
0
 10
4431.352590025669997
 20
260.4558751889513246
 30
0.0
 11
4431.3412248628701491
 21
260.4507803258513263
 31
0.0
  0
LINE
  5
1DFD6
  8
0
 10
4431.3753203511705578
 20
260.4644190464513258
 30
0.0
 11
4431.3866855139713152
 21
260.4695139095513241
 31
0.0
  0
LINE
  5
1DFD7
  8
0
 10
4431.2334404227713094
 20
260.3983824324512852
 30
0.0
 11
4431.2305583329707588
 21
260.3970904269513085
 31
0.0
  0
LINE
  5
1DFD8
  8
0
 10
4431.1943678284706039
 20
260.3801179199513172
 30
0.0
 11
4431.2057329912713612
 21
260.3852127830513155
 31
0.0
  0
LINE
  5
1DFD9
  8
0
 10
4431.2802090165723712
 20
260.4184080216513166
 30
0.0
 11
4431.2688438537707043
 21
260.4133131585513183
 31
0.0
  0
LINE
  5
1DFDA
  8
0
 10
4431.3420119364709535
 20
260.4452163916512859
 30
0.0
 11
4431.3391298466704029
 21
260.4439243861513091
 31
0.0
  0
LINE
  5
1DFDB
  8
0
 10
4431.3029393420711131
 20
260.4269518791513178
 30
0.0
 11
4431.314304504870961
 21
260.4320467422513161
 31
0.0
  0
LINE
  5
1DFDC
  8
0
 10
4431.2078280074720169
 20
260.3809408543513086
 30
0.0
 11
4431.1964628446712595
 21
260.3758459912513104
 31
0.0
  0
LINE
  5
1DFDD
  8
0
 10
4431.2696309273696897
 20
260.4077492243512779
 30
0.0
 11
4431.2667488375700486
 21
260.4064572188513011
 31
0.0
  0
LINE
  5
1DFDE
  8
0
 10
4431.2305583329707588
 20
260.3894847118513098
 30
0.0
 11
4431.2419234957706067
 21
260.3945795749513081
 31
0.0
  0
LINE
  5
1DFDF
  8
0
 10
4431.3163995210707071
 20
260.4277748134513217
 30
0.0
 11
4431.3050343583709036
 21
260.4226799503513234
 31
0.0
  0
LINE
  5
1DFE0
  8
0
 10
4431.3782024409701989
 20
260.454583183451291
 30
0.0
 11
4431.3753203511705578
 21
260.4532911779513142
 31
0.0
  0
LINE
  5
1DFE1
  8
0
 10
4431.3391298466704029
 20
260.4363186709513229
 30
0.0
 11
4431.3504950094702508
 21
260.4414135340513212
 31
0.0
  0
LINE
  5
1DFE2
  8
0
 10
4431.2440185119712623
 20
260.3903076461513137
 30
0.0
 11
4431.2326533492705494
 21
260.3852127830513155
 31
0.0
  0
LINE
  5
1DFE3
  8
0
 10
4431.3058214318698447
 20
260.417116016151283
 30
0.0
 11
4431.3029393420711131
 21
260.4158240106513063
 31
0.0
  0
LINE
  5
1DFE4
  8
0
 10
4431.2667488375700486
 20
260.3988515036513149
 30
0.0
 11
4431.278114000368987
 21
260.4039463667513132
 31
0.0
  0
LINE
  5
1DFE5
  8
0
 10
4431.352590025669997
 20
260.4371416053513144
 30
0.0
 11
4431.3412248628701491
 21
260.4320467422513161
 31
0.0
  0
LINE
  5
1DFE6
  8
0
 10
4431.3753203511705578
 20
260.445685462751328
 30
0.0
 11
4431.3866855139713152
 21
260.4507803258513263
 31
0.0
  0
LINE
  5
1DFE7
  8
0
 10
4431.2334404227713094
 20
260.379648848851275
 30
0.0
 11
4431.2305583329707588
 21
260.3783568433512983
 31
0.0
  0
LINE
  5
1DFE8
  8
0
 10
4431.2802090165723712
 20
260.3996744380513064
 30
0.0
 11
4431.2688438537707043
 21
260.3945795749513081
 31
0.0
  0
LINE
  5
1DFE9
  8
0
 10
4431.3420119364709535
 20
260.4264828079512881
 30
0.0
 11
4431.3391298466704029
 21
260.4251908024513114
 31
0.0
  0
LINE
  5
1DFEA
  8
0
 10
4431.3029393420711131
 20
260.40821829545132
 30
0.0
 11
4431.314304504870961
 21
260.4133131585513183
 31
0.0
  0
LINE
  5
1DFEB
  8
0
 10
4431.2696309273696897
 20
260.3890156406512801
 30
0.0
 11
4431.2667488375700486
 21
260.3877236351513034
 31
0.0
  0
LINE
  5
1DFEC
  8
0
 10
4431.2305583329707588
 20
260.3707511281513121
 30
0.0
 11
4431.2419234957706067
 21
260.3758459912513104
 31
0.0
  0
LINE
  5
1DFED
  8
0
 10
4431.3163995210707071
 20
260.4090412298513115
 30
0.0
 11
4431.3050343583709036
 21
260.4039463667513132
 31
0.0
  0
LINE
  5
1DFEE
  8
0
 10
4431.3782024409701989
 20
260.4358495998512808
 30
0.0
 11
4431.3753203511705578
 21
260.434557594351304
 31
0.0
  0
LINE
  5
1DFEF
  8
0
 10
4431.3391298466704029
 20
260.4175850873513127
 30
0.0
 11
4431.3504950094702508
 21
260.4226799503513234
 31
0.0
  0
LINE
  5
1DFF0
  8
0
 10
4431.2440185119712623
 20
260.3715740625513035
 30
0.0
 11
4431.2326533492705494
 21
260.3664791994513052
 31
0.0
  0
LINE
  5
1DFF1
  8
0
 10
4431.3058214318698447
 20
260.3983824324512852
 30
0.0
 11
4431.3029393420711131
 21
260.3970904269513085
 31
0.0
  0
LINE
  5
1DFF2
  8
0
 10
4431.2667488375700486
 20
260.3801179199513172
 30
0.0
 11
4431.278114000368987
 21
260.3852127830513155
 31
0.0
  0
LINE
  5
1DFF3
  8
0
 10
4431.352590025669997
 20
260.4184080216513166
 30
0.0
 11
4431.3412248628701491
 21
260.4133131585513183
 31
0.0
  0
LINE
  5
1DFF4
  8
0
 10
4431.3753203511705578
 20
260.4269518791513178
 30
0.0
 11
4431.3866855139713152
 21
260.4320467422513161
 31
0.0
  0
LINE
  5
1DFF5
  8
0
 10
4431.2802090165723712
 20
260.3809408543513086
 30
0.0
 11
4431.2688438537707043
 21
260.3758459912513104
 31
0.0
  0
LINE
  5
1DFF6
  8
0
 10
4431.3420119364709535
 20
260.4077492243512779
 30
0.0
 11
4431.3391298466704029
 21
260.4064572188513011
 31
0.0
  0
LINE
  5
1DFF7
  8
0
 10
4431.3029393420711131
 20
260.3894847118513098
 30
0.0
 11
4431.314304504870961
 21
260.3945795749513081
 31
0.0
  0
LINE
  5
1DFF8
  8
0
 10
4431.2696309273696897
 20
260.3702820570513268
 30
0.0
 11
4431.2667488375700486
 21
260.3689900514513056
 31
0.0
  0
LINE
  5
1DFF9
  8
0
 10
4431.3163995210707071
 20
260.3903076461513137
 30
0.0
 11
4431.3050343583709036
 21
260.3852127830513155
 31
0.0
  0
LINE
  5
1DFFA
  8
0
 10
4431.3782024409701989
 20
260.417116016151283
 30
0.0
 11
4431.3753203511705578
 21
260.4158240106513063
 31
0.0
  0
LINE
  5
1DFFB
  8
0
 10
4431.3391298466704029
 20
260.3988515036513149
 30
0.0
 11
4431.3504950094702508
 21
260.4039463667513132
 31
0.0
  0
LINE
  5
1DFFC
  8
0
 10
4431.3058214318698447
 20
260.379648848851275
 30
0.0
 11
4431.3029393420711131
 21
260.3783568433512983
 31
0.0
  0
LINE
  5
1DFFD
  8
0
 10
4431.2667488375700486
 20
260.361384336351307
 30
0.0
 11
4431.278114000368987
 21
260.3664791994513052
 31
0.0
  0
LINE
  5
1DFFE
  8
0
 10
4431.352590025669997
 20
260.3996744380513064
 30
0.0
 11
4431.3412248628701491
 21
260.3945795749513081
 31
0.0
  0
LINE
  5
1DFFF
  8
0
 10
4431.3753203511705578
 20
260.40821829545132
 30
0.0
 11
4431.3866855139713152
 21
260.4133131585513183
 31
0.0
  0
LINE
  5
1E000
  8
0
 10
4431.3420119364709535
 20
260.3890156406512801
 30
0.0
 11
4431.3391298466704029
 21
260.3877236351513034
 31
0.0
  0
LINE
  5
1E001
  8
0
 10
4431.3029393420711131
 20
260.3707511281513121
 30
0.0
 11
4431.314304504870961
 21
260.3758459912513104
 31
0.0
  0
LINE
  5
1E002
  8
0
 10
4431.3163995210707071
 20
260.3715740625513035
 30
0.0
 11
4431.3050343583709036
 21
260.3664791994513052
 31
0.0
  0
LINE
  5
1E003
  8
0
 10
4431.3782024409701989
 20
260.3983824324512852
 30
0.0
 11
4431.3753203511705578
 21
260.3970904269513085
 31
0.0
  0
LINE
  5
1E004
  8
0
 10
4431.3391298466704029
 20
260.3801179199513172
 30
0.0
 11
4431.3504950094702508
 21
260.3852127830513155
 31
0.0
  0
LINE
  5
1E005
  8
0
 10
4431.352590025669997
 20
260.3809408543513086
 30
0.0
 11
4431.3412248628701491
 21
260.3758459912513104
 31
0.0
  0
LINE
  5
1E006
  8
0
 10
4431.3753203511705578
 20
260.3894847118513098
 30
0.0
 11
4431.3866855139713152
 21
260.3945795749513081
 31
0.0
  0
LINE
  5
1E007
  8
0
 10
4431.3420119364709535
 20
260.3702820570513268
 30
0.0
 11
4431.3391298466704029
 21
260.3689900514513056
 31
0.0
  0
LINE
  5
1E008
  8
0
 10
4431.3782024409701989
 20
260.379648848851275
 30
0.0
 11
4431.3753203511705578
 21
260.3783568433512983
 31
0.0
  0
LINE
  5
1E009
  8
0
 10
4431.3391298466704029
 20
260.361384336351307
 30
0.0
 11
4431.3504950094702508
 21
260.3664791994513052
 31
0.0
  0
LINE
  5
1E00A
  8
0
 10
4431.3753203511705578
 20
260.3707511281513121
 30
0.0
 11
4431.3866855139713152
 21
260.3758459912513104
 31
0.0
  0
LINE
  5
1E00B
  8
0
 10
4431.1797750015703059
 20
260.3387361813512939
 30
0.0
 11
4431.1817554336703324
 21
260.3396168478512891
 31
0.0
  0
LINE
  5
1E00C
  8
0
 10
4431.2704298546696009
 20
260.51225893435128
 30
0.0
 11
4431.2714352714137931
 21
260.5112772120439786
 31
0.0
  0
LINE
  5
1E00D
  8
0
 10
4431.3326547381593628
 20
260.7344087220099027
 30
0.0
 11
4431.3128603763898354
 21
260.7992350099049759
 31
0.0
  0
LINE
  5
1E00E
  8
0
 10
4431.9160015865709283
 20
263.8669611432512738
 30
0.0
 11
4432.2481657452699437
 21
260.659653740051283
 31
0.0
  0
LINE
  5
1E00F
  8
0
 10
4432.2497819600703224
 20
252.7641503073512865
 30
0.0
 11
4432.2497819600703224
 21
253.8098075314512982
 31
0.0
  0
LINE
  5
1E010
  8
0
 10
4432.2497819600703224
 20
255.8570516259512999
 30
0.0
 11
4432.2497819600703224
 21
256.5680531361513204
 31
0.0
  0
LINE
  5
1E011
  8
0
 10
4431.1817554336703324
 20
260.5016594911513153
 30
0.0
 11
4431.1797750015703059
 21
260.5025401576513104
 31
0.0
  0
LINE
  5
1E012
  8
0
 10
4431.0878913310698408
 20
260.4039463667513132
 30
0.0
 11
4431.0992564937705538
 21
260.3988515036513149
 31
0.0
  0
LINE
  5
1E013
  8
0
 10
4431.1240818355699957
 20
260.3945795749513081
 30
0.0
 11
4431.1354469983707531
 21
260.3894847118513098
 31
0.0
  0
LINE
  5
1E014
  8
0
 10
4431.0992564937705538
 20
260.4064572188513011
 30
0.0
 11
4431.0963744039709127
 21
260.4077492243512779
 31
0.0
  0
LINE
  5
1E015
  8
0
 10
4431.1602723401711046
 20
260.3852127830513155
 30
0.0
 11
4431.1716375028699986
 21
260.3801179199513172
 31
0.0
  0
LINE
  5
1E016
  8
0
 10
4431.1354469983707531
 20
260.3970904269513085
 30
0.0
 11
4431.1325649085702025
 21
260.3983824324512852
 31
0.0
  0
LINE
  5
1E017
  8
0
 10
4431.0878913310698408
 20
260.4226799503513234
 30
0.0
 11
4431.0992564937705538
 21
260.4175850873513127
 31
0.0
  0
LINE
  5
1E018
  8
0
 10
4431.133351982171007
 20
260.4039463667513132
 30
0.0
 11
4431.1219868193711591
 21
260.4090412298513115
 31
0.0
  0
LINE
  5
1E019
  8
0
 10
4431.1964628446712595
 20
260.3758459912513104
 30
0.0
 11
4431.2078280074720169
 21
260.3707511281513121
 31
0.0
  0
LINE
  5
1E01A
  8
0
 10
4431.1716375028699986
 20
260.3877236351513034
 30
0.0
 11
4431.168755413071267
 21
260.3890156406512801
 31
0.0
  0
LINE
  5
1E01B
  8
0
 10
4431.1240818355699957
 20
260.4133131585513183
 30
0.0
 11
4431.1354469983707531
 21
260.40821829545132
 31
0.0
  0
LINE
  5
1E01C
  8
0
 10
4431.0992564937705538
 20
260.4251908024513114
 30
0.0
 11
4431.0963744039709127
 21
260.4264828079512881
 31
0.0
  0
LINE
  5
1E01D
  8
0
 10
4431.1695424866702524
 20
260.3945795749513081
 30
0.0
 11
4431.158177323871314
 21
260.3996744380513064
 31
0.0
  0
LINE
  5
1E01E
  8
0
 10
4431.2326533492705494
 20
260.3664791994513052
 30
0.0
 11
4431.2440185119712623
 21
260.361384336351307
 31
0.0
  0
LINE
  5
1E01F
  8
0
 10
4431.2078280074720169
 20
260.3783568433512983
 30
0.0
 11
4431.2049459176696473
 21
260.379648848851275
 31
0.0
  0
LINE
  5
1E020
  8
0
 10
4431.1602723401711046
 20
260.4039463667513132
 30
0.0
 11
4431.1716375028699986
 21
260.3988515036513149
 31
0.0
  0
LINE
  5
1E021
  8
0
 10
4431.1354469983707531
 20
260.4158240106513063
 30
0.0
 11
4431.1325649085702025
 21
260.417116016151283
 31
0.0
  0
LINE
  5
1E022
  8
0
 10
4431.2057329912713612
 20
260.3852127830513155
 30
0.0
 11
4431.1943678284706039
 21
260.3903076461513137
 31
0.0
  0
LINE
  5
1E023
  8
0
 10
4431.2440185119712623
 20
260.3689900514513056
 30
0.0
 11
4431.2411364221716212
 21
260.3702820570513268
 31
0.0
  0
LINE
  5
1E024
  8
0
 10
4431.0878913310698408
 20
260.4414135340513212
 30
0.0
 11
4431.0992564937705538
 21
260.4363186709513229
 31
0.0
  0
LINE
  5
1E025
  8
0
 10
4431.133351982171007
 20
260.4226799503513234
 30
0.0
 11
4431.1219868193711591
 21
260.4277748134513217
 31
0.0
  0
LINE
  5
1E026
  8
0
 10
4431.1964628446712595
 20
260.3945795749513081
 30
0.0
 11
4431.2078280074720169
 21
260.3894847118513098
 31
0.0
  0
LINE
  5
1E027
  8
0
 10
4431.1716375028699986
 20
260.4064572188513011
 30
0.0
 11
4431.168755413071267
 21
260.4077492243512779
 31
0.0
  0
LINE
  5
1E028
  8
0
 10
4431.2419234957706067
 20
260.3758459912513104
 30
0.0
 11
4431.2305583329707588
 21
260.3809408543513086
 31
0.0
  0
LINE
  5
1E029
  8
0
 10
4431.1240818355699957
 20
260.4320467422513161
 30
0.0
 11
4431.1354469983707531
 21
260.4269518791513178
 31
0.0
  0
LINE
  5
1E02A
  8
0
 10
4431.0992564937705538
 20
260.4439243861513091
 30
0.0
 11
4431.0963744039709127
 21
260.4452163916512859
 31
0.0
  0
LINE
  5
1E02B
  8
0
 10
4431.1695424866702524
 20
260.4133131585513183
 30
0.0
 11
4431.158177323871314
 21
260.4184080216513166
 31
0.0
  0
LINE
  5
1E02C
  8
0
 10
4431.2326533492705494
 20
260.3852127830513155
 30
0.0
 11
4431.2440185119712623
 21
260.3801179199513172
 31
0.0
  0
LINE
  5
1E02D
  8
0
 10
4431.2078280074720169
 20
260.3970904269513085
 30
0.0
 11
4431.2049459176696473
 21
260.3983824324512852
 31
0.0
  0
LINE
  5
1E02E
  8
0
 10
4431.278114000368987
 20
260.3664791994513052
 30
0.0
 11
4431.2667488375700486
 21
260.3715740625513035
 31
0.0
  0
LINE
  5
1E02F
  8
0
 10
4431.1602723401711046
 20
260.4226799503513234
 30
0.0
 11
4431.1716375028699986
 21
260.4175850873513127
 31
0.0
  0
LINE
  5
1E030
  8
0
 10
4431.1354469983707531
 20
260.434557594351304
 30
0.0
 11
4431.1325649085702025
 21
260.4358495998512808
 31
0.0
  0
LINE
  5
1E031
  8
0
 10
4431.2057329912713612
 20
260.4039463667513132
 30
0.0
 11
4431.1943678284706039
 21
260.4090412298513115
 31
0.0
  0
LINE
  5
1E032
  8
0
 10
4431.2688438537707043
 20
260.3758459912513104
 30
0.0
 11
4431.2802090165723712
 21
260.3707511281513121
 31
0.0
  0
LINE
  5
1E033
  8
0
 10
4431.2440185119712623
 20
260.3877236351513034
 30
0.0
 11
4431.2411364221716212
 21
260.3890156406512801
 31
0.0
  0
LINE
  5
1E034
  8
0
 10
4431.0882187899769633
 20
260.4600003219381961
 30
0.0
 11
4431.0992564937705538
 21
260.4550522546513207
 31
0.0
  0
LINE
  5
1E035
  8
0
 10
4431.133351982171007
 20
260.4414135340513212
 30
0.0
 11
4431.1219868193711591
 21
260.4465083971513195
 31
0.0
  0
LINE
  5
1E036
  8
0
 10
4431.1964628446712595
 20
260.4133131585513183
 30
0.0
 11
4431.2078280074720169
 21
260.40821829545132
 31
0.0
  0
LINE
  5
1E037
  8
0
 10
4431.1716375028699986
 20
260.4251908024513114
 30
0.0
 11
4431.168755413071267
 21
260.4264828079512881
 31
0.0
  0
LINE
  5
1E038
  8
0
 10
4431.2419234957706067
 20
260.3945795749513081
 30
0.0
 11
4431.2305583329707588
 21
260.3996744380513064
 31
0.0
  0
LINE
  5
1E039
  8
0
 10
4431.3050343583709036
 20
260.3664791994513052
 30
0.0
 11
4431.3163995210707071
 21
260.361384336351307
 31
0.0
  0
LINE
  5
1E03A
  8
0
 10
4431.2802090165723712
 20
260.3783568433512983
 30
0.0
 11
4431.2773269267700016
 21
260.379648848851275
 31
0.0
  0
LINE
  5
1E03B
  8
0
 10
4431.1240818355699957
 20
260.4507803258513263
 30
0.0
 11
4431.1354469983707531
 21
260.445685462751328
 31
0.0
  0
LINE
  5
1E03C
  8
0
 10
4431.0992564937705538
 20
260.4626579697513193
 30
0.0
 11
4431.0969255489226271
 21
260.4637029037306775
 31
0.0
  0
LINE
  5
1E03D
  8
0
 10
4431.1695424866702524
 20
260.4320467422513161
 30
0.0
 11
4431.158177323871314
 21
260.4371416053513144
 31
0.0
  0
LINE
  5
1E03E
  8
0
 10
4431.2326533492705494
 20
260.4039463667513132
 30
0.0
 11
4431.2440185119712623
 21
260.3988515036513149
 31
0.0
  0
LINE
  5
1E03F
  8
0
 10
4431.2078280074720169
 20
260.4158240106513063
 30
0.0
 11
4431.2049459176696473
 21
260.417116016151283
 31
0.0
  0
LINE
  5
1E040
  8
0
 10
4431.278114000368987
 20
260.3852127830513155
 30
0.0
 11
4431.2667488375700486
 21
260.3903076461513137
 31
0.0
  0
LINE
  5
1E041
  8
0
 10
4431.3163995210707071
 20
260.3689900514513056
 30
0.0
 11
4431.3135174312701565
 21
260.3702820570513268
 31
0.0
  0
LINE
  5
1E042
  8
0
 10
4431.1602723401711046
 20
260.4414135340513212
 30
0.0
 11
4431.1716375028699986
 21
260.4363186709513229
 31
0.0
  0
LINE
  5
1E043
  8
0
 10
4431.1354469983707531
 20
260.4532911779513142
 30
0.0
 11
4431.1325649085702025
 21
260.454583183451291
 31
0.0
  0
LINE
  5
1E044
  8
0
 10
4431.2057329912713612
 20
260.4226799503513234
 30
0.0
 11
4431.1943678284706039
 21
260.4277748134513217
 31
0.0
  0
LINE
  5
1E045
  8
0
 10
4431.2688438537707043
 20
260.3945795749513081
 30
0.0
 11
4431.2802090165723712
 21
260.3894847118513098
 31
0.0
  0
LINE
  5
1E046
  8
0
 10
4431.2440185119712623
 20
260.4064572188513011
 30
0.0
 11
4431.2411364221716212
 21
260.4077492243512779
 31
0.0
  0
LINE
  5
1E047
  8
0
 10
4431.314304504870961
 20
260.3758459912513104
 30
0.0
 11
4431.3029393420711131
 21
260.3809408543513086
 31
0.0
  0
LINE
  5
1E048
  8
0
 10
4431.133351982171007
 20
260.460147117751319
 30
0.0
 11
4431.1219868193711591
 21
260.4652419808513173
 31
0.0
  0
LINE
  5
1E049
  8
0
 10
4431.1964628446712595
 20
260.4320467422513161
 30
0.0
 11
4431.2078280074720169
 21
260.4269518791513178
 31
0.0
  0
LINE
  5
1E04A
  8
0
 10
4431.1716375028699986
 20
260.4439243861513091
 30
0.0
 11
4431.168755413071267
 21
260.4452163916512859
 31
0.0
  0
LINE
  5
1E04B
  8
0
 10
4431.2419234957706067
 20
260.4133131585513183
 30
0.0
 11
4431.2305583329707588
 21
260.4184080216513166
 31
0.0
  0
LINE
  5
1E04C
  8
0
 10
4431.3050343583709036
 20
260.3852127830513155
 30
0.0
 11
4431.3163995210707071
 21
260.3801179199513172
 31
0.0
  0
LINE
  5
1E04D
  8
0
 10
4431.2802090165723712
 20
260.3970904269513085
 30
0.0
 11
4431.2773269267700016
 21
260.3983824324512852
 31
0.0
  0
LINE
  5
1E04E
  8
0
 10
4431.3504950094702508
 20
260.3664791994513052
 30
0.0
 11
4431.3391298466704029
 21
260.3715740625513035
 31
0.0
  0
LINE
  5
1E04F
  8
0
 10
4431.1240818355699957
 20
260.4695139095513241
 30
0.0
 11
4431.1354469983707531
 21
260.4644190464513258
 31
0.0
  0
LINE
  5
1E050
  8
0
 10
4431.1695424866702524
 20
260.4507803258513263
 30
0.0
 11
4431.158177323871314
 21
260.4558751889513246
 31
0.0
  0
LINE
  5
1E051
  8
0
 10
4431.2326533492705494
 20
260.4226799503513234
 30
0.0
 11
4431.2440185119712623
 21
260.4175850873513127
 31
0.0
  0
LINE
  5
1E052
  8
0
 10
4431.2078280074720169
 20
260.434557594351304
 30
0.0
 11
4431.2049459176696473
 21
260.4358495998512808
 31
0.0
  0
LINE
  5
1E053
  8
0
 10
4431.278114000368987
 20
260.4039463667513132
 30
0.0
 11
4431.2667488375700486
 21
260.4090412298513115
 31
0.0
  0
LINE
  5
1E054
  8
0
 10
4431.3412248628701491
 20
260.3758459912513104
 30
0.0
 11
4431.352590025669997
 21
260.3707511281513121
 31
0.0
  0
LINE
  5
1E055
  8
0
 10
4431.3163995210707071
 20
260.3877236351513034
 30
0.0
 11
4431.3135174312701565
 21
260.3890156406512801
 31
0.0
  0
LINE
  5
1E056
  8
0
 10
4431.1602723401711046
 20
260.460147117751319
 30
0.0
 11
4431.1716375028699986
 21
260.4550522546513207
 31
0.0
  0
LINE
  5
1E057
  8
0
 10
4431.1354469983707531
 20
260.472024761651312
 30
0.0
 11
4431.1325649085702025
 21
260.4733167671512888
 31
0.0
  0
LINE
  5
1E058
  8
0
 10
4431.2057329912713612
 20
260.4414135340513212
 30
0.0
 11
4431.1943678284706039
 21
260.4465083971513195
 31
0.0
  0
LINE
  5
1E059
  8
0
 10
4431.2688438537707043
 20
260.4133131585513183
 30
0.0
 11
4431.2802090165723712
 21
260.40821829545132
 31
0.0
  0
LINE
  5
1E05A
  8
0
 10
4431.2440185119712623
 20
260.4251908024513114
 30
0.0
 11
4431.2411364221716212
 21
260.4264828079512881
 31
0.0
  0
LINE
  5
1E05B
  8
0
 10
4431.314304504870961
 20
260.3945795749513081
 30
0.0
 11
4431.3029393420711131
 21
260.3996744380513064
 31
0.0
  0
LINE
  5
1E05C
  8
0
 10
4431.352590025669997
 20
260.3783568433512983
 30
0.0
 11
4431.3497079358712654
 21
260.379648848851275
 31
0.0
  0
LINE
  5
1E05D
  8
0
 10
4431.1964628446712595
 20
260.4507803258513263
 30
0.0
 11
4431.2078280074720169
 21
260.445685462751328
 31
0.0
  0
LINE
  5
1E05E
  8
0
 10
4431.1716375028699986
 20
260.4626579697513193
 30
0.0
 11
4431.168755413071267
 21
260.4639499752512961
 31
0.0
  0
LINE
  5
1E05F
  8
0
 10
4431.2419234957706067
 20
260.4320467422513161
 30
0.0
 11
4431.2305583329707588
 21
260.4371416053513144
 31
0.0
  0
LINE
  5
1E060
  8
0
 10
4431.3050343583709036
 20
260.4039463667513132
 30
0.0
 11
4431.3163995210707071
 21
260.3988515036513149
 31
0.0
  0
LINE
  5
1E061
  8
0
 10
4431.2802090165723712
 20
260.4158240106513063
 30
0.0
 11
4431.2773269267700016
 21
260.417116016151283
 31
0.0
  0
LINE
  5
1E062
  8
0
 10
4431.3504950094702508
 20
260.3852127830513155
 30
0.0
 11
4431.3391298466704029
 21
260.3903076461513137
 31
0.0
  0
LINE
  5
1E063
  8
0
 10
4431.1695424866702524
 20
260.4695139095513241
 30
0.0
 11
4431.158177323871314
 21
260.4746087726513224
 31
0.0
  0
LINE
  5
1E064
  8
0
 10
4431.2326533492705494
 20
260.4414135340513212
 30
0.0
 11
4431.2440185119712623
 21
260.4363186709513229
 31
0.0
  0
LINE
  5
1E065
  8
0
 10
4431.2078280074720169
 20
260.4532911779513142
 30
0.0
 11
4431.2049459176696473
 21
260.454583183451291
 31
0.0
  0
LINE
  5
1E066
  8
0
 10
4431.278114000368987
 20
260.4226799503513234
 30
0.0
 11
4431.2667488375700486
 21
260.4277748134513217
 31
0.0
  0
LINE
  5
1E067
  8
0
 10
4431.3412248628701491
 20
260.3945795749513081
 30
0.0
 11
4431.352590025669997
 21
260.3894847118513098
 31
0.0
  0
LINE
  5
1E068
  8
0
 10
4431.3163995210707071
 20
260.4064572188513011
 30
0.0
 11
4431.3135174312701565
 21
260.4077492243512779
 31
0.0
  0
LINE
  5
1E069
  8
0
 10
4431.3866855139713152
 20
260.3758459912513104
 30
0.0
 11
4431.3753203511705578
 21
260.3809408543513086
 31
0.0
  0
LINE
  5
1E06A
  8
0
 10
4431.1602723401711046
 20
260.4788807013512724
 30
0.0
 11
4431.1716375028699986
 21
260.4737858382512741
 31
0.0
  0
LINE
  5
1E06B
  8
0
 10
4431.2057329912713612
 20
260.460147117751319
 30
0.0
 11
4431.1943678284706039
 21
260.4652419808513173
 31
0.0
  0
LINE
  5
1E06C
  8
0
 10
4431.2688438537707043
 20
260.4320467422513161
 30
0.0
 11
4431.2802090165723712
 21
260.4269518791513178
 31
0.0
  0
LINE
  5
1E06D
  8
0
 10
4431.2440185119712623
 20
260.4439243861513091
 30
0.0
 11
4431.2411364221716212
 21
260.4452163916512859
 31
0.0
  0
LINE
  5
1E06E
  8
0
 10
4431.314304504870961
 20
260.4133131585513183
 30
0.0
 11
4431.3029393420711131
 21
260.4184080216513166
 31
0.0
  0
LINE
  5
1E06F
  8
0
 10
4431.352590025669997
 20
260.3970904269513085
 30
0.0
 11
4431.3497079358712654
 21
260.3983824324512852
 31
0.0
  0
LINE
  5
1E070
  8
0
 10
4431.1964628446712595
 20
260.4695139095513241
 30
0.0
 11
4431.2078280074720169
 21
260.4644190464513258
 31
0.0
  0
LINE
  5
1E071
  8
0
 10
4431.1716375028699986
 20
260.4813915534513171
 30
0.0
 11
4431.168755413071267
 21
260.4826835589512939
 31
0.0
  0
LINE
  5
1E072
  8
0
 10
4431.2419234957706067
 20
260.4507803258513263
 30
0.0
 11
4431.2305583329707588
 21
260.4558751889513246
 31
0.0
  0
LINE
  5
1E073
  8
0
 10
4431.3050343583709036
 20
260.4226799503513234
 30
0.0
 11
4431.3163995210707071
 21
260.4175850873513127
 31
0.0
  0
LINE
  5
1E074
  8
0
 10
4431.2802090165723712
 20
260.434557594351304
 30
0.0
 11
4431.2773269267700016
 21
260.4358495998512808
 31
0.0
  0
LINE
  5
1E075
  8
0
 10
4431.3504950094702508
 20
260.4039463667513132
 30
0.0
 11
4431.3391298466704029
 21
260.4090412298513115
 31
0.0
  0
LINE
  5
1E076
  8
0
 10
4431.2326533492705494
 20
260.460147117751319
 30
0.0
 11
4431.2440185119712623
 21
260.4550522546513207
 31
0.0
  0
LINE
  5
1E077
  8
0
 10
4431.2078280074720169
 20
260.472024761651312
 30
0.0
 11
4431.2049459176696473
 21
260.4733167671512888
 31
0.0
  0
LINE
  5
1E078
  8
0
 10
4431.278114000368987
 20
260.4414135340513212
 30
0.0
 11
4431.2667488375700486
 21
260.4465083971513195
 31
0.0
  0
LINE
  5
1E079
  8
0
 10
4431.3412248628701491
 20
260.4133131585513183
 30
0.0
 11
4431.352590025669997
 21
260.40821829545132
 31
0.0
  0
LINE
  5
1E07A
  8
0
 10
4431.3163995210707071
 20
260.4251908024513114
 30
0.0
 11
4431.3135174312701565
 21
260.4264828079512881
 31
0.0
  0
LINE
  5
1E07B
  8
0
 10
4431.3866855139713152
 20
260.3945795749513081
 30
0.0
 11
4431.3753203511705578
 21
260.3996744380513064
 31
0.0
  0
LINE
  5
1E07C
  8
0
 10
4431.2057329912713612
 20
260.4788807013512724
 30
0.0
 11
4431.1943678284706039
 21
260.4839755644513275
 31
0.0
  0
LINE
  5
1E07D
  8
0
 10
4431.2688438537707043
 20
260.4507803258513263
 30
0.0
 11
4431.2802090165723712
 21
260.445685462751328
 31
0.0
  0
LINE
  5
1E07E
  8
0
 10
4431.2440185119712623
 20
260.4626579697513193
 30
0.0
 11
4431.2411364221716212
 21
260.4639499752512961
 31
0.0
  0
LINE
  5
1E07F
  8
0
 10
4431.314304504870961
 20
260.4320467422513161
 30
0.0
 11
4431.3029393420711131
 21
260.4371416053513144
 31
0.0
  0
LINE
  5
1E080
  8
0
 10
4431.352590025669997
 20
260.4158240106513063
 30
0.0
 11
4431.3497079358712654
 21
260.417116016151283
 31
0.0
  0
LINE
  5
1E081
  8
0
 10
4431.1964628446712595
 20
260.4882474931512775
 30
0.0
 11
4431.2078280074720169
 21
260.4831526301513236
 31
0.0
  0
LINE
  5
1E082
  8
0
 10
4431.2419234957706067
 20
260.4695139095513241
 30
0.0
 11
4431.2305583329707588
 21
260.4746087726513224
 31
0.0
  0
LINE
  5
1E083
  8
0
 10
4431.3050343583709036
 20
260.4414135340513212
 30
0.0
 11
4431.3163995210707071
 21
260.4363186709513229
 31
0.0
  0
LINE
  5
1E084
  8
0
 10
4431.2802090165723712
 20
260.4532911779513142
 30
0.0
 11
4431.2773269267700016
 21
260.454583183451291
 31
0.0
  0
LINE
  5
1E085
  8
0
 10
4431.3504950094702508
 20
260.4226799503513234
 30
0.0
 11
4431.3391298466704029
 21
260.4277748134513217
 31
0.0
  0
LINE
  5
1E086
  8
0
 10
4431.2326533492705494
 20
260.4788807013512724
 30
0.0
 11
4431.2440185119712623
 21
260.4737858382512741
 31
0.0
  0
LINE
  5
1E087
  8
0
 10
4431.2078280074720169
 20
260.4907583452513222
 30
0.0
 11
4431.2066816414762798
 21
260.4912722470667745
 31
0.0
  0
LINE
  5
1E088
  8
0
 10
4431.278114000368987
 20
260.460147117751319
 30
0.0
 11
4431.2667488375700486
 21
260.4652419808513173
 31
0.0
  0
LINE
  5
1E089
  8
0
 10
4431.3412248628701491
 20
260.4320467422513161
 30
0.0
 11
4431.352590025669997
 21
260.4269518791513178
 31
0.0
  0
LINE
  5
1E08A
  8
0
 10
4431.3163995210707071
 20
260.4439243861513091
 30
0.0
 11
4431.3135174312701565
 21
260.4452163916512859
 31
0.0
  0
LINE
  5
1E08B
  8
0
 10
4431.3866855139713152
 20
260.4133131585513183
 30
0.0
 11
4431.3753203511705578
 21
260.4184080216513166
 31
0.0
  0
LINE
  5
1E08C
  8
0
 10
4431.2688438537707043
 20
260.4695139095513241
 30
0.0
 11
4431.2802090165723712
 21
260.4644190464513258
 31
0.0
  0
LINE
  5
1E08D
  8
0
 10
4431.2440185119712623
 20
260.4813915534513171
 30
0.0
 11
4431.2411364221716212
 21
260.4826835589512939
 31
0.0
  0
LINE
  5
1E08E
  8
0
 10
4431.314304504870961
 20
260.4507803258513263
 30
0.0
 11
4431.3029393420711131
 21
260.4558751889513246
 31
0.0
  0
LINE
  5
1E08F
  8
0
 10
4431.352590025669997
 20
260.434557594351304
 30
0.0
 11
4431.3497079358712654
 21
260.4358495998512808
 31
0.0
  0
LINE
  5
1E090
  8
0
 10
4431.2419234957706067
 20
260.4882474931512775
 30
0.0
 11
4431.2305583329707588
 21
260.4933423562512758
 31
0.0
  0
LINE
  5
1E091
  8
0
 10
4431.3050343583709036
 20
260.460147117751319
 30
0.0
 11
4431.3163995210707071
 21
260.4550522546513207
 31
0.0
  0
LINE
  5
1E092
  8
0
 10
4431.2802090165723712
 20
260.472024761651312
 30
0.0
 11
4431.2773269267700016
 21
260.4733167671512888
 31
0.0
  0
LINE
  5
1E093
  8
0
 10
4431.3504950094702508
 20
260.4414135340513212
 30
0.0
 11
4431.3391298466704029
 21
260.4465083971513195
 31
0.0
  0
LINE
  5
1E094
  8
0
 10
4431.2377592879147414
 20
260.4953253553396735
 30
0.0
 11
4431.2440185119712623
 21
260.4925194219512719
 31
0.0
  0
LINE
  5
1E095
  8
0
 10
4431.278114000368987
 20
260.4788807013512724
 30
0.0
 11
4431.2667488375700486
 21
260.4839755644513275
 31
0.0
  0
LINE
  5
1E096
  8
0
 10
4431.3412248628701491
 20
260.4507803258513263
 30
0.0
 11
4431.352590025669997
 21
260.445685462751328
 31
0.0
  0
LINE
  5
1E097
  8
0
 10
4431.3163995210707071
 20
260.4626579697513193
 30
0.0
 11
4431.3135174312701565
 21
260.4639499752512961
 31
0.0
  0
LINE
  5
1E098
  8
0
 10
4431.3866855139713152
 20
260.4320467422513161
 30
0.0
 11
4431.3753203511705578
 21
260.4371416053513144
 31
0.0
  0
LINE
  5
1E099
  8
0
 10
4431.2688438537707043
 20
260.4882474931512775
 30
0.0
 11
4431.2802090165723712
 21
260.4831526301513236
 31
0.0
  0
LINE
  5
1E09A
  8
0
 10
4431.314304504870961
 20
260.4695139095513241
 30
0.0
 11
4431.3029393420711131
 21
260.4746087726513224
 31
0.0
  0
LINE
  5
1E09B
  8
0
 10
4431.352590025669997
 20
260.4532911779513142
 30
0.0
 11
4431.3497079358712654
 21
260.454583183451291
 31
0.0
  0
LINE
  5
1E09C
  8
0
 10
4431.3050343583709036
 20
260.4788807013512724
 30
0.0
 11
4431.3163995210707071
 21
260.4737858382512741
 31
0.0
  0
LINE
  5
1E09D
  8
0
 10
4431.2802090165723712
 20
260.4907583452513222
 30
0.0
 11
4431.2773269267700016
 21
260.492050350751299
 31
0.0
  0
LINE
  5
1E09E
  8
0
 10
4431.3504950094702508
 20
260.460147117751319
 30
0.0
 11
4431.3391298466704029
 21
260.4652419808513173
 31
0.0
  0
LINE
  5
1E09F
  8
0
 10
4431.278114000368987
 20
260.497614285051327
 30
0.0
 11
4431.2753242608541768
 21
260.4988648910020856
 31
0.0
  0
LINE
  5
1E0A0
  8
0
 10
4431.3412248628701491
 20
260.4695139095513241
 30
0.0
 11
4431.352590025669997
 21
260.4644190464513258
 31
0.0
  0
LINE
  5
1E0A1
  8
0
 10
4431.3163995210707071
 20
260.4813915534513171
 30
0.0
 11
4431.3135174312701565
 21
260.4826835589512939
 31
0.0
  0
LINE
  5
1E0A2
  8
0
 10
4431.3866855139713152
 20
260.4507803258513263
 30
0.0
 11
4431.3753203511705578
 21
260.4558751889513246
 31
0.0
  0
LINE
  5
1E0A3
  8
0
 10
4431.314304504870961
 20
260.4882474931512775
 30
0.0
 11
4431.3029393420711131
 21
260.4933423562512758
 31
0.0
  0
LINE
  5
1E0A4
  8
0
 10
4431.352590025669997
 20
260.472024761651312
 30
0.0
 11
4431.3497079358712654
 21
260.4733167671512888
 31
0.0
  0
LINE
  5
1E0A5
  8
0
 10
4431.3050343583709036
 20
260.497614285051327
 30
0.0
 11
4431.3163995210707071
 21
260.4925194219512719
 31
0.0
  0
LINE
  5
1E0A6
  8
0
 10
4431.3504950094702508
 20
260.4788807013512724
 30
0.0
 11
4431.3391298466704029
 21
260.4839755644513275
 31
0.0
  0
LINE
  5
1E0A7
  8
0
 10
4431.3412248628701491
 20
260.4882474931512775
 30
0.0
 11
4431.352590025669997
 21
260.4831526301513236
 31
0.0
  0
LINE
  5
1E0A8
  8
0
 10
4431.3163995210707071
 20
260.5001251371513149
 30
0.0
 11
4431.3141617077617411
 21
260.5011283213893876
 31
0.0
  0
LINE
  5
1E0A9
  8
0
 10
4431.3866855139713152
 20
260.4695139095513241
 30
0.0
 11
4431.3753203511705578
 21
260.4746087726513224
 31
0.0
  0
LINE
  5
1E0AA
  8
0
 10
4431.352590025669997
 20
260.4907583452513222
 30
0.0
 11
4431.3497079358712654
 21
260.492050350751299
 31
0.0
  0
LINE
  5
1E0AB
  8
0
 10
4431.3504950094702508
 20
260.497614285051327
 30
0.0
 11
4431.3408533162000822
 21
260.5019365378732914
 31
0.0
  0
LINE
  5
1E0AC
  8
0
 10
4431.3866855139713152
 20
260.4882474931512775
 30
0.0
 11
4431.3753203511705578
 21
260.4933423562512758
 31
0.0
  0
LINE
  5
1E0AD
  8
0
 10
4430.3600181805713873
 20
252.3531146180513076
 30
0.0
 11
4430.4731472693711112
 21
252.7302115807513019
 31
0.0
  0
LINE
  5
1E0AE
  8
0
 10
4431.0509128402691204
 20
260.3734814029513132
 30
0.0
 11
4431.0475102060690915
 21
260.3729688293512936
 31
0.0
  0
LINE
  5
1E0AF
  8
0
 10
4431.009959736370547
 20
260.3964320318513046
 30
0.0
 11
4431.0137661390708672
 21
260.396692312951302
 31
0.0
  0
LINE
  5
1E0B0
  8
0
 10
4431.2777388906706619
 20
260.3181755412513212
 30
0.0
 11
4431.4501714861698929
 21
260.3181755412513212
 31
0.0
  0
LINE
  5
1E0B1
  8
0
 10
4431.3391298466704029
 20
260.361384336351307
 30
0.0
 11
4431.3163995210707071
 21
260.361384336351307
 31
0.0
  0
LINE
  5
1E0B2
  8
0
 10
4431.2667488375700486
 20
260.361384336351307
 30
0.0
 11
4431.2440185119712623
 21
260.361384336351307
 31
0.0
  0
LINE
  5
1E0B3
  8
0
 10
4431.3391298466704029
 20
260.3689900514513056
 30
0.0
 11
4431.3163995210707071
 21
260.3689900514513056
 31
0.0
  0
LINE
  5
1E0B4
  8
0
 10
4431.2667488375700486
 20
260.3689900514513056
 30
0.0
 11
4431.2440185119712623
 21
260.3689900514513056
 31
0.0
  0
LINE
  5
1E0B5
  8
0
 10
4431.3753203511705578
 20
260.3707511281513121
 30
0.0
 11
4431.352590025669997
 21
260.3707511281513121
 31
0.0
  0
LINE
  5
1E0B6
  8
0
 10
4431.3029393420711131
 20
260.3707511281513121
 30
0.0
 11
4431.2802090165723712
 21
260.3707511281513121
 31
0.0
  0
LINE
  5
1E0B7
  8
0
 10
4431.2305583329707588
 20
260.3707511281513121
 30
0.0
 11
4431.2078280074720169
 21
260.3707511281513121
 31
0.0
  0
LINE
  5
1E0B8
  8
0
 10
4431.2440185119712623
 20
260.3715740625513035
 30
0.0
 11
4431.2667488375700486
 21
260.3715740625513035
 31
0.0
  0
LINE
  5
1E0B9
  8
0
 10
4431.3163995210707071
 20
260.3715740625513035
 30
0.0
 11
4431.3391298466704029
 21
260.3715740625513035
 31
0.0
  0
LINE
  5
1E0BA
  8
0
 10
4431.3753203511705578
 20
260.3783568433512983
 30
0.0
 11
4431.352590025669997
 21
260.3783568433512983
 31
0.0
  0
LINE
  5
1E0BB
  8
0
 10
4431.3029393420711131
 20
260.3783568433512983
 30
0.0
 11
4431.2802090165723712
 21
260.3783568433512983
 31
0.0
  0
LINE
  5
1E0BC
  8
0
 10
4431.2305583329707588
 20
260.3783568433512983
 30
0.0
 11
4431.2078280074720169
 21
260.3783568433512983
 31
0.0
  0
LINE
  5
1E0BD
  8
0
 10
4431.3391298466704029
 20
260.3801179199513172
 30
0.0
 11
4431.3163995210707071
 21
260.3801179199513172
 31
0.0
  0
LINE
  5
1E0BE
  8
0
 10
4431.2667488375700486
 20
260.3801179199513172
 30
0.0
 11
4431.2440185119712623
 21
260.3801179199513172
 31
0.0
  0
LINE
  5
1E0BF
  8
0
 10
4431.1943678284706039
 20
260.3801179199513172
 30
0.0
 11
4431.1716375028699986
 21
260.3801179199513172
 31
0.0
  0
LINE
  5
1E0C0
  8
0
 10
4431.2078280074720169
 20
260.3809408543513086
 30
0.0
 11
4431.2305583329707588
 21
260.3809408543513086
 31
0.0
  0
LINE
  5
1E0C1
  8
0
 10
4431.2802090165723712
 20
260.3809408543513086
 30
0.0
 11
4431.3029393420711131
 21
260.3809408543513086
 31
0.0
  0
LINE
  5
1E0C2
  8
0
 10
4431.352590025669997
 20
260.3809408543513086
 30
0.0
 11
4431.3753203511705578
 21
260.3809408543513086
 31
0.0
  0
LINE
  5
1E0C3
  8
0
 10
4431.3391298466704029
 20
260.3877236351513034
 30
0.0
 11
4431.3163995210707071
 21
260.3877236351513034
 31
0.0
  0
LINE
  5
1E0C4
  8
0
 10
4431.2667488375700486
 20
260.3877236351513034
 30
0.0
 11
4431.2440185119712623
 21
260.3877236351513034
 31
0.0
  0
LINE
  5
1E0C5
  8
0
 10
4431.1943678284706039
 20
260.3877236351513034
 30
0.0
 11
4431.1716375028699986
 21
260.3877236351513034
 31
0.0
  0
LINE
  5
1E0C6
  8
0
 10
4431.3753203511705578
 20
260.3894847118513098
 30
0.0
 11
4431.352590025669997
 21
260.3894847118513098
 31
0.0
  0
LINE
  5
1E0C7
  8
0
 10
4431.3029393420711131
 20
260.3894847118513098
 30
0.0
 11
4431.2802090165723712
 21
260.3894847118513098
 31
0.0
  0
LINE
  5
1E0C8
  8
0
 10
4431.2305583329707588
 20
260.3894847118513098
 30
0.0
 11
4431.2078280074720169
 21
260.3894847118513098
 31
0.0
  0
LINE
  5
1E0C9
  8
0
 10
4431.158177323871314
 20
260.3894847118513098
 30
0.0
 11
4431.1354469983707531
 21
260.3894847118513098
 31
0.0
  0
LINE
  5
1E0CA
  8
0
 10
4431.1716375028699986
 20
260.3903076461513137
 30
0.0
 11
4431.1943678284706039
 21
260.3903076461513137
 31
0.0
  0
LINE
  5
1E0CB
  8
0
 10
4431.2440185119712623
 20
260.3903076461513137
 30
0.0
 11
4431.2667488375700486
 21
260.3903076461513137
 31
0.0
  0
LINE
  5
1E0CC
  8
0
 10
4431.3163995210707071
 20
260.3903076461513137
 30
0.0
 11
4431.3391298466704029
 21
260.3903076461513137
 31
0.0
  0
LINE
  5
1E0CD
  8
0
 10
4431.3753203511705578
 20
260.3970904269513085
 30
0.0
 11
4431.352590025669997
 21
260.3970904269513085
 31
0.0
  0
LINE
  5
1E0CE
  8
0
 10
4431.3029393420711131
 20
260.3970904269513085
 30
0.0
 11
4431.2802090165723712
 21
260.3970904269513085
 31
0.0
  0
LINE
  5
1E0CF
  8
0
 10
4431.2305583329707588
 20
260.3970904269513085
 30
0.0
 11
4431.2078280074720169
 21
260.3970904269513085
 31
0.0
  0
LINE
  5
1E0D0
  8
0
 10
4431.158177323871314
 20
260.3970904269513085
 30
0.0
 11
4431.1354469983707531
 21
260.3970904269513085
 31
0.0
  0
LINE
  5
1E0D1
  8
0
 10
4431.3391298466704029
 20
260.3988515036513149
 30
0.0
 11
4431.3163995210707071
 21
260.3988515036513149
 31
0.0
  0
LINE
  5
1E0D2
  8
0
 10
4431.2667488375700486
 20
260.3988515036513149
 30
0.0
 11
4431.2440185119712623
 21
260.3988515036513149
 31
0.0
  0
LINE
  5
1E0D3
  8
0
 10
4431.1943678284706039
 20
260.3988515036513149
 30
0.0
 11
4431.1716375028699986
 21
260.3988515036513149
 31
0.0
  0
LINE
  5
1E0D4
  8
0
 10
4431.1219868193711591
 20
260.3988515036513149
 30
0.0
 11
4431.0992564937705538
 21
260.3988515036513149
 31
0.0
  0
LINE
  5
1E0D5
  8
0
 10
4431.1354469983707531
 20
260.3996744380513064
 30
0.0
 11
4431.158177323871314
 21
260.3996744380513064
 31
0.0
  0
LINE
  5
1E0D6
  8
0
 10
4431.2078280074720169
 20
260.3996744380513064
 30
0.0
 11
4431.2305583329707588
 21
260.3996744380513064
 31
0.0
  0
LINE
  5
1E0D7
  8
0
 10
4431.2802090165723712
 20
260.3996744380513064
 30
0.0
 11
4431.3029393420711131
 21
260.3996744380513064
 31
0.0
  0
LINE
  5
1E0D8
  8
0
 10
4431.352590025669997
 20
260.3996744380513064
 30
0.0
 11
4431.3753203511705578
 21
260.3996744380513064
 31
0.0
  0
LINE
  5
1E0D9
  8
0
 10
4431.3391298466704029
 20
260.4064572188513011
 30
0.0
 11
4431.3163995210707071
 21
260.4064572188513011
 31
0.0
  0
LINE
  5
1E0DA
  8
0
 10
4431.2667488375700486
 20
260.4064572188513011
 30
0.0
 11
4431.2440185119712623
 21
260.4064572188513011
 31
0.0
  0
LINE
  5
1E0DB
  8
0
 10
4431.1943678284706039
 20
260.4064572188513011
 30
0.0
 11
4431.1716375028699986
 21
260.4064572188513011
 31
0.0
  0
LINE
  5
1E0DC
  8
0
 10
4431.1219868193711591
 20
260.4064572188513011
 30
0.0
 11
4431.0992564937705538
 21
260.4064572188513011
 31
0.0
  0
LINE
  5
1E0DD
  8
0
 10
4431.3753203511705578
 20
260.40821829545132
 30
0.0
 11
4431.352590025669997
 21
260.40821829545132
 31
0.0
  0
LINE
  5
1E0DE
  8
0
 10
4431.3029393420711131
 20
260.40821829545132
 30
0.0
 11
4431.2802090165723712
 21
260.40821829545132
 31
0.0
  0
LINE
  5
1E0DF
  8
0
 10
4431.2305583329707588
 20
260.40821829545132
 30
0.0
 11
4431.2078280074720169
 21
260.40821829545132
 31
0.0
  0
LINE
  5
1E0E0
  8
0
 10
4431.158177323871314
 20
260.40821829545132
 30
0.0
 11
4431.1354469983707531
 21
260.40821829545132
 31
0.0
  0
LINE
  5
1E0E1
  8
0
 10
4431.0992564937705538
 20
260.4090412298513115
 30
0.0
 11
4431.1219868193711591
 21
260.4090412298513115
 31
0.0
  0
LINE
  5
1E0E2
  8
0
 10
4431.1716375028699986
 20
260.4090412298513115
 30
0.0
 11
4431.1943678284706039
 21
260.4090412298513115
 31
0.0
  0
LINE
  5
1E0E3
  8
0
 10
4431.2440185119712623
 20
260.4090412298513115
 30
0.0
 11
4431.2667488375700486
 21
260.4090412298513115
 31
0.0
  0
LINE
  5
1E0E4
  8
0
 10
4431.3163995210707071
 20
260.4090412298513115
 30
0.0
 11
4431.3391298466704029
 21
260.4090412298513115
 31
0.0
  0
LINE
  5
1E0E5
  8
0
 10
4431.3753203511705578
 20
260.4158240106513063
 30
0.0
 11
4431.352590025669997
 21
260.4158240106513063
 31
0.0
  0
LINE
  5
1E0E6
  8
0
 10
4431.3029393420711131
 20
260.4158240106513063
 30
0.0
 11
4431.2802090165723712
 21
260.4158240106513063
 31
0.0
  0
LINE
  5
1E0E7
  8
0
 10
4431.2305583329707588
 20
260.4158240106513063
 30
0.0
 11
4431.2078280074720169
 21
260.4158240106513063
 31
0.0
  0
LINE
  5
1E0E8
  8
0
 10
4431.158177323871314
 20
260.4158240106513063
 30
0.0
 11
4431.1354469983707531
 21
260.4158240106513063
 31
0.0
  0
LINE
  5
1E0E9
  8
0
 10
4431.3391298466704029
 20
260.4175850873513127
 30
0.0
 11
4431.3163995210707071
 21
260.4175850873513127
 31
0.0
  0
LINE
  5
1E0EA
  8
0
 10
4431.2667488375700486
 20
260.4175850873513127
 30
0.0
 11
4431.2440185119712623
 21
260.4175850873513127
 31
0.0
  0
LINE
  5
1E0EB
  8
0
 10
4431.1943678284706039
 20
260.4175850873513127
 30
0.0
 11
4431.1716375028699986
 21
260.4175850873513127
 31
0.0
  0
LINE
  5
1E0EC
  8
0
 10
4431.1219868193711591
 20
260.4175850873513127
 30
0.0
 11
4431.0992564937705538
 21
260.4175850873513127
 31
0.0
  0
LINE
  5
1E0ED
  8
0
 10
4431.1354469983707531
 20
260.4184080216513166
 30
0.0
 11
4431.158177323871314
 21
260.4184080216513166
 31
0.0
  0
LINE
  5
1E0EE
  8
0
 10
4431.2078280074720169
 20
260.4184080216513166
 30
0.0
 11
4431.2305583329707588
 21
260.4184080216513166
 31
0.0
  0
LINE
  5
1E0EF
  8
0
 10
4431.2802090165723712
 20
260.4184080216513166
 30
0.0
 11
4431.3029393420711131
 21
260.4184080216513166
 31
0.0
  0
LINE
  5
1E0F0
  8
0
 10
4431.352590025669997
 20
260.4184080216513166
 30
0.0
 11
4431.3753203511705578
 21
260.4184080216513166
 31
0.0
  0
LINE
  5
1E0F1
  8
0
 10
4431.3391298466704029
 20
260.4251908024513114
 30
0.0
 11
4431.3163995210707071
 21
260.4251908024513114
 31
0.0
  0
LINE
  5
1E0F2
  8
0
 10
4431.2667488375700486
 20
260.4251908024513114
 30
0.0
 11
4431.2440185119712623
 21
260.4251908024513114
 31
0.0
  0
LINE
  5
1E0F3
  8
0
 10
4431.1943678284706039
 20
260.4251908024513114
 30
0.0
 11
4431.1716375028699986
 21
260.4251908024513114
 31
0.0
  0
LINE
  5
1E0F4
  8
0
 10
4431.1219868193711591
 20
260.4251908024513114
 30
0.0
 11
4431.0992564937705538
 21
260.4251908024513114
 31
0.0
  0
LINE
  5
1E0F5
  8
0
 10
4431.3753203511705578
 20
260.4269518791513178
 30
0.0
 11
4431.352590025669997
 21
260.4269518791513178
 31
0.0
  0
LINE
  5
1E0F6
  8
0
 10
4431.3029393420711131
 20
260.4269518791513178
 30
0.0
 11
4431.2802090165723712
 21
260.4269518791513178
 31
0.0
  0
LINE
  5
1E0F7
  8
0
 10
4431.2305583329707588
 20
260.4269518791513178
 30
0.0
 11
4431.2078280074720169
 21
260.4269518791513178
 31
0.0
  0
LINE
  5
1E0F8
  8
0
 10
4431.158177323871314
 20
260.4269518791513178
 30
0.0
 11
4431.1354469983707531
 21
260.4269518791513178
 31
0.0
  0
LINE
  5
1E0F9
  8
0
 10
4431.0992564937705538
 20
260.4277748134513217
 30
0.0
 11
4431.1219868193711591
 21
260.4277748134513217
 31
0.0
  0
LINE
  5
1E0FA
  8
0
 10
4431.1716375028699986
 20
260.4277748134513217
 30
0.0
 11
4431.1943678284706039
 21
260.4277748134513217
 31
0.0
  0
LINE
  5
1E0FB
  8
0
 10
4431.2440185119712623
 20
260.4277748134513217
 30
0.0
 11
4431.2667488375700486
 21
260.4277748134513217
 31
0.0
  0
LINE
  5
1E0FC
  8
0
 10
4431.3163995210707071
 20
260.4277748134513217
 30
0.0
 11
4431.3391298466704029
 21
260.4277748134513217
 31
0.0
  0
LINE
  5
1E0FD
  8
0
 10
4431.3753203511705578
 20
260.434557594351304
 30
0.0
 11
4431.352590025669997
 21
260.434557594351304
 31
0.0
  0
LINE
  5
1E0FE
  8
0
 10
4431.3029393420711131
 20
260.434557594351304
 30
0.0
 11
4431.2802090165723712
 21
260.434557594351304
 31
0.0
  0
LINE
  5
1E0FF
  8
0
 10
4431.2305583329707588
 20
260.434557594351304
 30
0.0
 11
4431.2078280074720169
 21
260.434557594351304
 31
0.0
  0
LINE
  5
1E100
  8
0
 10
4431.158177323871314
 20
260.434557594351304
 30
0.0
 11
4431.1354469983707531
 21
260.434557594351304
 31
0.0
  0
LINE
  5
1E101
  8
0
 10
4431.3391298466704029
 20
260.4363186709513229
 30
0.0
 11
4431.3163995210707071
 21
260.4363186709513229
 31
0.0
  0
LINE
  5
1E102
  8
0
 10
4431.2667488375700486
 20
260.4363186709513229
 30
0.0
 11
4431.2440185119712623
 21
260.4363186709513229
 31
0.0
  0
LINE
  5
1E103
  8
0
 10
4431.1943678284706039
 20
260.4363186709513229
 30
0.0
 11
4431.1716375028699986
 21
260.4363186709513229
 31
0.0
  0
LINE
  5
1E104
  8
0
 10
4431.1219868193711591
 20
260.4363186709513229
 30
0.0
 11
4431.0992564937705538
 21
260.4363186709513229
 31
0.0
  0
LINE
  5
1E105
  8
0
 10
4431.1354469983707531
 20
260.4371416053513144
 30
0.0
 11
4431.158177323871314
 21
260.4371416053513144
 31
0.0
  0
LINE
  5
1E106
  8
0
 10
4431.2078280074720169
 20
260.4371416053513144
 30
0.0
 11
4431.2305583329707588
 21
260.4371416053513144
 31
0.0
  0
LINE
  5
1E107
  8
0
 10
4431.2802090165723712
 20
260.4371416053513144
 30
0.0
 11
4431.3029393420711131
 21
260.4371416053513144
 31
0.0
  0
LINE
  5
1E108
  8
0
 10
4431.352590025669997
 20
260.4371416053513144
 30
0.0
 11
4431.3753203511705578
 21
260.4371416053513144
 31
0.0
  0
LINE
  5
1E109
  8
0
 10
4431.3391298466704029
 20
260.4439243861513091
 30
0.0
 11
4431.3163995210707071
 21
260.4439243861513091
 31
0.0
  0
LINE
  5
1E10A
  8
0
 10
4431.2667488375700486
 20
260.4439243861513091
 30
0.0
 11
4431.2440185119712623
 21
260.4439243861513091
 31
0.0
  0
LINE
  5
1E10B
  8
0
 10
4431.1943678284706039
 20
260.4439243861513091
 30
0.0
 11
4431.1716375028699986
 21
260.4439243861513091
 31
0.0
  0
LINE
  5
1E10C
  8
0
 10
4431.1219868193711591
 20
260.4439243861513091
 30
0.0
 11
4431.0992564937705538
 21
260.4439243861513091
 31
0.0
  0
LINE
  5
1E10D
  8
0
 10
4431.3753203511705578
 20
260.445685462751328
 30
0.0
 11
4431.352590025669997
 21
260.445685462751328
 31
0.0
  0
LINE
  5
1E10E
  8
0
 10
4431.3029393420711131
 20
260.445685462751328
 30
0.0
 11
4431.2802090165723712
 21
260.445685462751328
 31
0.0
  0
LINE
  5
1E10F
  8
0
 10
4431.2305583329707588
 20
260.445685462751328
 30
0.0
 11
4431.2078280074720169
 21
260.445685462751328
 31
0.0
  0
LINE
  5
1E110
  8
0
 10
4431.158177323871314
 20
260.445685462751328
 30
0.0
 11
4431.1354469983707531
 21
260.445685462751328
 31
0.0
  0
LINE
  5
1E111
  8
0
 10
4431.0992564937705538
 20
260.4465083971513195
 30
0.0
 11
4431.1219868193711591
 21
260.4465083971513195
 31
0.0
  0
LINE
  5
1E112
  8
0
 10
4431.1716375028699986
 20
260.4465083971513195
 30
0.0
 11
4431.1943678284706039
 21
260.4465083971513195
 31
0.0
  0
LINE
  5
1E113
  8
0
 10
4431.2440185119712623
 20
260.4465083971513195
 30
0.0
 11
4431.2667488375700486
 21
260.4465083971513195
 31
0.0
  0
LINE
  5
1E114
  8
0
 10
4431.3163995210707071
 20
260.4465083971513195
 30
0.0
 11
4431.3391298466704029
 21
260.4465083971513195
 31
0.0
  0
LINE
  5
1E115
  8
0
 10
4431.3753203511705578
 20
260.4532911779513142
 30
0.0
 11
4431.352590025669997
 21
260.4532911779513142
 31
0.0
  0
LINE
  5
1E116
  8
0
 10
4431.3029393420711131
 20
260.4532911779513142
 30
0.0
 11
4431.2802090165723712
 21
260.4532911779513142
 31
0.0
  0
LINE
  5
1E117
  8
0
 10
4431.2305583329707588
 20
260.4532911779513142
 30
0.0
 11
4431.2078280074720169
 21
260.4532911779513142
 31
0.0
  0
LINE
  5
1E118
  8
0
 10
4431.158177323871314
 20
260.4532911779513142
 30
0.0
 11
4431.1354469983707531
 21
260.4532911779513142
 31
0.0
  0
LINE
  5
1E119
  8
0
 10
4431.3391298466704029
 20
260.4550522546513207
 30
0.0
 11
4431.3163995210707071
 21
260.4550522546513207
 31
0.0
  0
LINE
  5
1E11A
  8
0
 10
4431.2667488375700486
 20
260.4550522546513207
 30
0.0
 11
4431.2440185119712623
 21
260.4550522546513207
 31
0.0
  0
LINE
  5
1E11B
  8
0
 10
4431.1943678284706039
 20
260.4550522546513207
 30
0.0
 11
4431.1716375028699986
 21
260.4550522546513207
 31
0.0
  0
LINE
  5
1E11C
  8
0
 10
4431.1219868193711591
 20
260.4550522546513207
 30
0.0
 11
4431.0992564937705538
 21
260.4550522546513207
 31
0.0
  0
LINE
  5
1E11D
  8
0
 10
4431.1354469983707531
 20
260.4558751889513246
 30
0.0
 11
4431.158177323871314
 21
260.4558751889513246
 31
0.0
  0
LINE
  5
1E11E
  8
0
 10
4431.2078280074720169
 20
260.4558751889513246
 30
0.0
 11
4431.2305583329707588
 21
260.4558751889513246
 31
0.0
  0
LINE
  5
1E11F
  8
0
 10
4431.2802090165723712
 20
260.4558751889513246
 30
0.0
 11
4431.3029393420711131
 21
260.4558751889513246
 31
0.0
  0
LINE
  5
1E120
  8
0
 10
4431.352590025669997
 20
260.4558751889513246
 30
0.0
 11
4431.3753203511705578
 21
260.4558751889513246
 31
0.0
  0
LINE
  5
1E121
  8
0
 10
4431.3391298466704029
 20
260.4626579697513193
 30
0.0
 11
4431.3163995210707071
 21
260.4626579697513193
 31
0.0
  0
LINE
  5
1E122
  8
0
 10
4431.2667488375700486
 20
260.4626579697513193
 30
0.0
 11
4431.2440185119712623
 21
260.4626579697513193
 31
0.0
  0
LINE
  5
1E123
  8
0
 10
4431.1943678284706039
 20
260.4626579697513193
 30
0.0
 11
4431.1716375028699986
 21
260.4626579697513193
 31
0.0
  0
LINE
  5
1E124
  8
0
 10
4431.1219868193711591
 20
260.4626579697513193
 30
0.0
 11
4431.0992564937705538
 21
260.4626579697513193
 31
0.0
  0
LINE
  5
1E125
  8
0
 10
4431.3753203511705578
 20
260.4644190464513258
 30
0.0
 11
4431.352590025669997
 21
260.4644190464513258
 31
0.0
  0
LINE
  5
1E126
  8
0
 10
4431.3029393420711131
 20
260.4644190464513258
 30
0.0
 11
4431.2802090165723712
 21
260.4644190464513258
 31
0.0
  0
LINE
  5
1E127
  8
0
 10
4431.2305583329707588
 20
260.4644190464513258
 30
0.0
 11
4431.2078280074720169
 21
260.4644190464513258
 31
0.0
  0
LINE
  5
1E128
  8
0
 10
4431.158177323871314
 20
260.4644190464513258
 30
0.0
 11
4431.1354469983707531
 21
260.4644190464513258
 31
0.0
  0
LINE
  5
1E129
  8
0
 10
4431.1007526326684456
 20
260.4652419808513173
 30
0.0
 11
4431.1219868193711591
 21
260.4652419808513173
 31
0.0
  0
LINE
  5
1E12A
  8
0
 10
4431.1716375028699986
 20
260.4652419808513173
 30
0.0
 11
4431.1943678284706039
 21
260.4652419808513173
 31
0.0
  0
LINE
  5
1E12B
  8
0
 10
4431.2440185119712623
 20
260.4652419808513173
 30
0.0
 11
4431.2667488375700486
 21
260.4652419808513173
 31
0.0
  0
LINE
  5
1E12C
  8
0
 10
4431.3163995210707071
 20
260.4652419808513173
 30
0.0
 11
4431.3391298466704029
 21
260.4652419808513173
 31
0.0
  0
LINE
  5
1E12D
  8
0
 10
4431.3753203511705578
 20
260.472024761651312
 30
0.0
 11
4431.352590025669997
 21
260.472024761651312
 31
0.0
  0
LINE
  5
1E12E
  8
0
 10
4431.3029393420711131
 20
260.472024761651312
 30
0.0
 11
4431.2802090165723712
 21
260.472024761651312
 31
0.0
  0
LINE
  5
1E12F
  8
0
 10
4431.2305583329707588
 20
260.472024761651312
 30
0.0
 11
4431.2078280074720169
 21
260.472024761651312
 31
0.0
  0
LINE
  5
1E130
  8
0
 10
4431.158177323871314
 20
260.472024761651312
 30
0.0
 11
4431.1354469983707531
 21
260.472024761651312
 31
0.0
  0
LINE
  5
1E131
  8
0
 10
4431.3391298466704029
 20
260.4737858382512741
 30
0.0
 11
4431.3163995210707071
 21
260.4737858382512741
 31
0.0
  0
LINE
  5
1E132
  8
0
 10
4431.2667488375700486
 20
260.4737858382512741
 30
0.0
 11
4431.2440185119712623
 21
260.4737858382512741
 31
0.0
  0
LINE
  5
1E133
  8
0
 10
4431.1943678284706039
 20
260.4737858382512741
 30
0.0
 11
4431.1716375028699986
 21
260.4737858382512741
 31
0.0
  0
LINE
  5
1E134
  8
0
 10
4431.1354469983707531
 20
260.4746087726513224
 30
0.0
 11
4431.158177323871314
 21
260.4746087726513224
 31
0.0
  0
LINE
  5
1E135
  8
0
 10
4431.2078280074720169
 20
260.4746087726513224
 30
0.0
 11
4431.2305583329707588
 21
260.4746087726513224
 31
0.0
  0
LINE
  5
1E136
  8
0
 10
4431.2802090165723712
 20
260.4746087726513224
 30
0.0
 11
4431.3029393420711131
 21
260.4746087726513224
 31
0.0
  0
LINE
  5
1E137
  8
0
 10
4431.352590025669997
 20
260.4746087726513224
 30
0.0
 11
4431.3753203511705578
 21
260.4746087726513224
 31
0.0
  0
LINE
  5
1E138
  8
0
 10
4431.3391298466704029
 20
260.4813915534513171
 30
0.0
 11
4431.3163995210707071
 21
260.4813915534513171
 31
0.0
  0
LINE
  5
1E139
  8
0
 10
4431.2667488375700486
 20
260.4813915534513171
 30
0.0
 11
4431.2440185119712623
 21
260.4813915534513171
 31
0.0
  0
LINE
  5
1E13A
  8
0
 10
4431.1943678284706039
 20
260.4813915534513171
 30
0.0
 11
4431.1716375028699986
 21
260.4813915534513171
 31
0.0
  0
LINE
  5
1E13B
  8
0
 10
4431.3753203511705578
 20
260.4831526301513236
 30
0.0
 11
4431.352590025669997
 21
260.4831526301513236
 31
0.0
  0
LINE
  5
1E13C
  8
0
 10
4431.3029393420711131
 20
260.4831526301513236
 30
0.0
 11
4431.2802090165723712
 21
260.4831526301513236
 31
0.0
  0
LINE
  5
1E13D
  8
0
 10
4431.2305583329707588
 20
260.4831526301513236
 30
0.0
 11
4431.2078280074720169
 21
260.4831526301513236
 31
0.0
  0
LINE
  5
1E13E
  8
0
 10
4431.1716375028699986
 20
260.4839755644513275
 30
0.0
 11
4431.1943678284706039
 21
260.4839755644513275
 31
0.0
  0
LINE
  5
1E13F
  8
0
 10
4431.2440185119712623
 20
260.4839755644513275
 30
0.0
 11
4431.2667488375700486
 21
260.4839755644513275
 31
0.0
  0
LINE
  5
1E140
  8
0
 10
4431.3163995210707071
 20
260.4839755644513275
 30
0.0
 11
4431.3391298466704029
 21
260.4839755644513275
 31
0.0
  0
LINE
  5
1E141
  8
0
 10
4431.3753203511705578
 20
260.4907583452513222
 30
0.0
 11
4431.352590025669997
 21
260.4907583452513222
 31
0.0
  0
LINE
  5
1E142
  8
0
 10
4431.3029393420711131
 20
260.4907583452513222
 30
0.0
 11
4431.2802090165723712
 21
260.4907583452513222
 31
0.0
  0
LINE
  5
1E143
  8
0
 10
4431.2305583329707588
 20
260.4907583452513222
 30
0.0
 11
4431.2078280074720169
 21
260.4907583452513222
 31
0.0
  0
LINE
  5
1E144
  8
0
 10
4431.3391298466704029
 20
260.4925194219512719
 30
0.0
 11
4431.3163995210707071
 21
260.4925194219512719
 31
0.0
  0
LINE
  5
1E145
  8
0
 10
4431.2667488375700486
 20
260.4925194219512719
 30
0.0
 11
4431.2440185119712623
 21
260.4925194219512719
 31
0.0
  0
LINE
  5
1E146
  8
0
 10
4431.2213331286147877
 20
260.4933423562512758
 30
0.0
 11
4431.2305583329707588
 21
260.4933423562512758
 31
0.0
  0
LINE
  5
1E147
  8
0
 10
4431.2802090165723712
 20
260.4933423562512758
 30
0.0
 11
4431.3029393420711131
 21
260.4933423562512758
 31
0.0
  0
LINE
  5
1E148
  8
0
 10
4431.352590025669997
 20
260.4933423562512758
 30
0.0
 11
4431.3753203511705578
 21
260.4933423562512758
 31
0.0
  0
LINE
  5
1E149
  8
0
 10
4431.3391298466704029
 20
260.5001251371513149
 30
0.0
 11
4431.3163995210707071
 21
260.5001251371513149
 31
0.0
  0
LINE
  5
1E14A
  8
0
 10
4431.4501714861698929
 20
260.5423128342512769
 30
0.0
 11
4431.2777388906706619
 21
260.5423128342512769
 31
0.0
  0
LINE
  5
1E14B
  8
0
 10
4431.0137661390708672
 20
260.4445840260513023
 30
0.0
 11
4431.009959736370547
 21
260.4448443070513122
 31
0.0
  0
LINE
  5
1E14C
  8
0
 10
4431.0475102060690915
 20
260.4683075095513232
 30
0.0
 11
4431.0509128402691204
 21
260.4677949360512912
 31
0.0
  0
LINE
  5
1E14D
  8
0
 10
4433.5293095191700559
 20
254.0263429645513042
 30
0.0
 11
4433.5293095191700559
 21
255.6405161928512939
 31
0.0
  0
LINE
  5
1E14E
  8
0
 10
4430.6212394094709452
 20
260.6292575527513122
 30
0.0
 11
4430.5581395000699558
 21
260.6292575527513122
 31
0.0
  0
LINE
  5
1E14F
  8
0
 10
4430.6212394094709452
 20
260.6526939229513005
 30
0.0
 11
4430.5581395000699558
 21
260.6526939229513005
 31
0.0
  0
LINE
  5
1E150
  8
0
 10
4431.5505650756713294
 20
260.6910654115512784
 30
0.0
 11
4431.1773453012710888
 21
260.6910654115512784
 31
0.0
  0
LINE
  5
1E151
  8
0
 10
4433.6336402277702291
 20
255.6602177147512975
 30
0.0
 11
4433.6336402277702291
 21
254.9361008050512964
 31
0.0
  0
LINE
  5
1E152
  8
0
 10
4430.7953220813706139
 20
256.875514239251288
 30
0.0
 11
4430.4909272659706403
 21
256.5971043471512871
 31
0.0
  0
LINE
  5
1E153
  8
0
 10
4434.5839894784712669
 20
254.0381977675513099
 30
0.0
 11
4434.5839894784712669
 21
257.9684318652513184
 31
0.0
  0
LINE
  5
1E154
  8
0
 10
4434.3328146699695935
 20
255.1662454606480139
 30
0.0
 11
4434.3593934285709111
 21
256.1318796522513139
 31
0.0
  0
LINE
  5
1E155
  8
0
 10
4434.4104817813231421
 20
257.9363921895298972
 30
0.0
 11
4434.3593934285709111
 21
256.1318796522513139
 31
0.0
  0
LINE
  5
1E156
  8
0
 10
4434.4104838009689047
 20
257.9702225685513213
 30
0.0
 11
4434.3064037222702609
 21
256.1318787787512861
 31
0.0
  0
LINE
  5
1E157
  8
0
 10
4434.3064037222702609
 20
256.1318787787512861
 30
0.0
 11
4434.2813419919712032
 21
255.689891482151296
 31
0.0
  0
ARC
  5
1E158
  8
0
 10
4430.3600181805713873
 20
252.7641503073512865
 30
0.0
 40
0.1181102362
 50
343.3007557659955182
 51
0.0
  0
ARC
  5
1E159
  8
0
 10
4430.5174984955710897
 20
256.5680531361513204
 30
0.0
 40
0.0393700787
 50
132.447101849690398
 51
180.0
  0
ARC
  5
1E15A
  8
0
 10
4430.8086077115140142
 20
256.8609886090383156
 30
0.0
 40
0.01968506799149
 50
89.9640335770635744
 51
132.4470862614145119
  0
ARC
  5
1E15B
  8
0
 10
4431.3639557292699465
 20
257.6757102963513262
 30
0.0
 40
3.1788472405000001
 50
90.0005586970927283
 51
90.8190972015851941
  0
ARC
  5
1E15C
  8
0
 10
4431.3639637021624367
 20
257.6769643369078153
 30
0.0
 40
3.1775932000313292
 50
89.1807316143103748
 51
90.0007026783267179
  0
ARC
  5
1E15D
  8
0
 10
4431.3622456465700452
 20
257.7568819309512946
 30
0.0
 40
3.0976595027999991
 50
90.8089329727994254
 51
93.1923023334922789
  0
ARC
  5
1E15E
  8
0
 10
4431.362315824469988
 20
257.8139881889513276
 30
0.0
 40
3.0358616167000001
 50
90.8235743360521894
 51
93.250025337601528
  0
ARC
  5
1E15F
  8
0
 10
4431.3633781953703874
 20
257.9978113322512741
 30
0.0
 40
2.8357456982999989
 50
90.9031652772821133
 51
92.2009642676979411
  0
ARC
  5
1E160
  8
0
 10
4431.3538970717709162
 20
258.2074887432513037
 30
0.0
 40
2.6258592382999999
 50
92.1699463754082871
 51
95.3736837726840321
  0
ARC
  5
1E161
  8
0
 10
4431.1932301588713017
 20
259.9222330647513104
 30
0.0
 40
0.8448571863999998
 50
102.6617856724930959
 51
105.4585845657091028
  0
ARC
  5
1E162
  8
0
 10
4431.3098369737854227
 20
258.4492476721375169
 30
0.0
 40
2.4034890892494549
 50
92.8640116422564148
 51
99.5753839314707676
  0
ARC
  5
1E163
  8
0
 10
4431.3081193598663958
 20
258.5176356539690232
 30
0.0
 40
2.3303166637672512
 50
92.9004618987626856
 51
99.814466944000273
  0
ARC
  5
1E164
  8
0
 10
4431.3627145652699255
 20
258.7469497184513898
 30
0.0
 40
2.034120040199999
 50
91.2440000587044864
 51
93.1843920235112648
  0
ARC
  5
1E165
  8
0
 10
4431.3624397326711915
 20
258.9744232967512971
 30
0.0
 40
1.790848295999999
 50
91.250366476865679
 51
93.7706061003892728
  0
ARC
  5
1E166
  8
0
 10
4431.3639551884689354
 20
259.1366560511513057
 30
0.0
 40
1.3777312041999989
 50
86.1494715927175463
 51
93.8505284072824679
  0
ARC
  5
1E167
  8
0
 10
4431.265344906943028
 20
259.0117513317381963
 30
0.0
 40
1.8168837061949781
 50
94.9686751672338545
 51
101.9016745257930978
  0
ARC
  5
1E168
  8
0
 10
4431.3247783433707809
 20
259.2004047381512919
 30
0.0
 40
1.578975521699999
 50
96.0768591844763904
 51
98.2276707027480001
  0
ARC
  5
1E169
  8
0
 10
4431.29644287996598
 20
258.8413852233392731
 30
0.0
 40
1.9870885716723889
 50
94.0220516743195418
 51
101.773585074683794
  0
ARC
  5
1E16A
  8
0
 10
4431.3093463591703767
 20
259.5122781440513222
 30
0.0
 40
1.250201818599999
 50
96.7572299266225144
 51
100.0033557820530064
  0
ARC
  5
1E16B
  8
0
 10
4431.3639565667699571
 20
259.2890433205512863
 30
0.0
 40
1.213112391099999
 50
89.3560565091840147
 51
90.6440041850116245
  0
ARC
  5
1E16C
  8
0
 10
4431.3639892577702994
 20
259.2913729600513193
 30
0.0
 40
1.2107825314
 50
88.8218520832185163
 51
89.3563644197001423
  0
ARC
  5
1E16D
  8
0
 10
4432.4466337370522524
 20
255.8570538195409938
 30
0.0
 40
0.1968517769929219
 50
180.0006384673550031
 51
269.999597388821428
  0
ARC
  5
1E16E
  8
0
 10
4432.446635120353676
 20
253.8098047648682893
 30
0.0
 40
0.1968531603024408
 50
90.0008052374169836
 51
179.9991947625863133
  0
ARC
  5
1E16F
  8
0
 10
4432.367892196270077
 20
252.7641503073512865
 30
0.0
 40
0.1181102362
 50
180.0
 51
196.6992442340045102
  0
ARC
  5
1E170
  8
0
 10
4432.2104118813713285
 20
256.5680531361513204
 30
0.0
 40
0.0393700787
 50
0.0
 51
47.5528981503095665
  0
ARC
  5
1E171
  8
0
 10
4431.9193026806706257
 20
256.8609886337512762
 30
0.0
 40
0.0196850394
 50
47.5528981469186007
 51
90.0
  0
ARC
  5
1E172
  8
0
 10
4431.1585284167704231
 20
261.9197162572513093
 30
0.0
 40
1.4724909443
 50
256.0155552657901126
 51
259.0738928650857247
  0
ARC
  5
1E173
  8
0
 10
4431.1449745262698343
 20
261.6947948619513227
 30
0.0
 40
1.2290067478999991
 50
255.9324575554221894
 51
257.3207756213877815
  0
ARC
  5
1E174
  8
0
 10
4431.1460454805710469
 20
261.6759779766513248
 30
0.0
 40
1.2079180607999991
 50
255.6947530696805018
 51
257.013505334668821
  0
ARC
  5
1E175
  8
0
 10
4431.1197538907708804
 20
261.4793692303513239
 30
0.0
 40
0.9980875904000001
 50
254.5100109370580981
 51
255.6263281391414921
  0
ARC
  5
1E176
  8
0
 10
4431.0829390316966965
 20
259.8380787376304966
 30
0.0
 40
0.9707353592341901
 50
101.4254185271575039
 51
108.4761424322916952
  0
ARC
  5
1E177
  8
0
 10
4431.0049347580707035
 20
261.2099368868513238
 30
0.0
 40
0.7241368604
 50
250.2128186305127997
 51
251.4303910641824018
  0
ARC
  5
1E178
  8
0
 10
4431.0544172858772072
 20
260.4382397691583719
 30
0.0
 40
0.0581266449116447
 50
220.1072915842931081
 51
225.6247394583606081
  0
ARC
  5
1E179
  8
0
 10
4431.3639551884689354
 20
267.1168941456513153
 30
0.0
 40
0.5511811024000001
 50
0.0
 51
180.0
  0
ARC
  5
1E17A
  8
0
 10
4433.4097082208700158
 20
254.727553673751288
 30
0.0
 40
0.8661417323
 50
75.0165704047477391
 51
82.062943603761056
  0
ARC
  5
1E17B
  8
0
 10
4433.4097082208700158
 20
254.9393054836513102
 30
0.0
 40
0.8661417323
 50
277.9370563962389156
 51
305.9624413653708075
  0
ARC
  5
1E17C
  8
0
 10
4434.0273410151721691
 20
254.9361008050512964
 30
0.0
 40
0.3937007874
 50
180.0
 51
204.9999987481972141
  0
ARC
  5
1E17D
  8
0
 10
4434.5525057060449399
 20
257.9684441558924277
 30
0.0
 40
0.031483774824198
 50
359.9776328637238976
 51
90.0235759427152686
  0
ARC
  5
1E17E
  8
0
 10
4433.5096244797714462
 20
255.6405161928512939
 30
0.0
 40
0.0196850394
 50
0.0
 51
90.0
  0
ARC
  5
1E17F
  8
0
 10
4433.5096244797714462
 20
254.0263429645513042
 30
0.0
 40
0.0196850394
 50
270.0
 51
0.0
  0
LINE
  5
1E180
  8
0
 10
4431.051208023171057
 20
260.4224099570512863
 30
0.0
 11
4431.0497968117897472
 21
260.4262611088269068
 31
0.0
  0
LINE
  5
1E181
  8
0
 10
4434.5831530009700145
 20
254.8795177759513138
 30
0.0
 11
4434.5839907501704147
 21
254.8790819837512913
 31
0.0
  0
LINE
  5
1E182
  8
0
 10
4434.4115250505374206
 20
257.9758958727250047
 30
0.0
 11
4434.4104817813231421
 21
257.9363921895298972
 31
0.0
  0
ARC
  5
1E183
  8
0
 10
4431.8763570271730714
 20
263.8925641928677237
 30
0.0
 40
0.0387795353191497
 50
340.6834002534101273
 51
359.7855139162426212
  0
ARC
  5
1E184
  8
0
 10
4431.8744328824450349
 20
263.8920346119891178
 30
0.0
 40
0.0407052235060066
 50
0.5410957986310156
 51
28.5073010518730285
  0
ARC
  5
1E185
  8
0
 10
4431.8362319294847111
 20
263.8688232406602765
 30
0.0
 40
0.0853801121868716
 50
29.9602777985193391
 51
54.5506421011903413
  0
ARC
  5
1E186
  8
0
 10
4431.7426265924086692
 20
263.7395495090879081
 30
0.0
 40
0.2449830209326137
 50
54.2519838123120408
 51
67.1310699297951459
  0
ARC
  5
1E187
  8
0
 10
4431.5853482645688928
 20
263.3514599598389054
 30
0.0
 40
0.6637157498408854
 50
67.6408637101915247
 51
78.6718661874655112
  0
ARC
  5
1E188
  8
0
 10
4431.4033695068619636
 20
262.4760895085731249
 30
0.0
 40
1.557791679699629
 50
78.4332888327269444
 51
87.7500187766228947
  0
ARC
  5
1E189
  8
0
 10
4431.6469260630228746
 20
263.5528113725093249
 30
0.0
 40
0.4494683104310837
 50
61.8228356014340719
 51
74.3941466863853265
  0
ARC
  5
1E18A
  8
0
 10
4431.4857862636663413
 20
262.9795720778906229
 30
0.0
 40
1.044925197454559
 50
74.3399951157557837
 51
82.4829760167005617
  0
ARC
  5
1E18B
  8
0
 10
4431.3831150615269507
 20
262.2835124961571864
 30
0.0
 40
1.748467316210923
 50
82.1313674469603967
 51
87.2571037239542449
  0
ARC
  5
1E18C
  8
0
 10
4431.8665875109209082
 20
263.8618322132521143
 30
0.0
 40
0.0496795410123257
 50
5.9257913323936897
 51
12.2478961621854303
  0
ARC
  5
1E18D
  8
0
 10
4431.8760508447785469
 20
263.8626267074170073
 30
0.0
 40
0.0401930812039473
 50
7.7469557708332353
 51
13.4822627431950597
  0
ARC
  5
1E18E
  8
0
 10
4431.8677311649407784
 20
263.8599690911145785
 30
0.0
 40
0.0489073456892226
 50
14.2375270407561203
 51
36.9636613183740224
  0
ARC
  5
1E18F
  8
0
 10
4431.8105683704779949
 20
263.8124852686166264
 30
0.0
 40
0.1231854939634812
 50
38.62339491043371
 51
61.4672701538681991
  0
ARC
  5
1E190
  8
0
 10
4431.6246969810126757
 20
263.4552293582700031
 30
0.0
 40
0.525885507548476
 50
62.2681781098173985
 51
79.613228675046912
  0
ARC
  5
1E191
  8
0
 10
4431.3951811977440229
 20
262.3788761159601108
 30
0.0
 40
1.62628947207395
 50
78.4964483329771809
 51
87.6441384165629529
  0
ARC
  5
1E192
  8
0
 10
4431.8639620769154135
 20
263.861210620015413
 30
0.0
 40
0.0523771074721889
 50
12.3031175862177804
 51
20.7137822150979289
  0
ARC
  5
1E193
  8
0
 10
4431.8489142484750118
 20
263.8545548123985895
 30
0.0
 40
0.0688123141826053
 50
21.4658051589041108
 51
42.0275568597746627
  0
ARC
  5
1E194
  8
0
 10
4431.8043023851596445
 20
263.8140388696633067
 30
0.0
 40
0.1290761672873731
 50
42.1292372097389674
 51
56.8823644023814907
  0
ARC
  5
1E195
  8
0
 10
4431.7447361892500339
 20
263.7256106004542175
 30
0.0
 40
0.2356891596224773
 50
56.4992249474774368
 51
63.7536249827057233
  0
ARC
  5
1E196
  8
0
 10
4431.6419216383719686
 20
263.5056932540068146
 30
0.0
 40
0.4784276134699022
 50
64.3572227819109628
 51
74.7639375239904496
  0
ARC
  5
1E197
  8
0
 10
4431.4689609123761329
 20
262.870430595501773
 30
0.0
 40
1.13681508019065
 50
74.7671347208407724
 51
82.8626268184902131
  0
ARC
  5
1E198
  8
0
 10
4431.3782612899867672
 20
262.2019525581455923
 30
0.0
 40
1.811395755364968
 50
82.6431326788464276
 51
87.4109565344706283
  0
LINE
  5
1E199
  8
0
 10
4431.848965464982939
 20
263.9370003779831109
 30
0.0
 11
4431.8591647646690035
 21
263.9490139666513073
 31
0.0
  0
ARC
  5
1E19A
  8
0
 10
4431.7903120053406383
 20
263.8455749008394946
 30
0.0
 40
0.114042034755179
 50
42.1778986239372884
 51
56.9525433111146171
  0
ARC
  5
1E19B
  8
0
 10
4431.7472739962140622
 20
263.8383460879525728
 30
0.0
 40
0.1496471523717706
 50
35.983730207342731
 51
39.695201716588322
  0
ARC
  5
1E19C
  8
0
 10
4430.8515533562831479
 20
263.8925641945832012
 30
0.0
 40
0.0387795421279896
 50
180.2145630700534866
 51
199.3165989062086965
  0
ARC
  5
1E19D
  8
0
 10
4430.8534774868649038
 20
263.8920346149574243
 30
0.0
 40
0.0407052154729693
 50
151.492697561485187
 51
179.4589792409028917
  0
ARC
  5
1E19E
  8
0
 10
4430.8916784473558437
 20
263.8688232406602765
 30
0.0
 40
0.0853801121868716
 50
125.4493578988096942
 51
150.0397222014806005
  0
ARC
  5
1E19F
  8
0
 10
4430.9852837844318856
 20
263.7395495090879081
 30
0.0
 40
0.2449830209326137
 50
112.8689300702047973
 51
125.7480161876878952
  0
ARC
  5
1E1A0
  8
0
 10
4431.1425621122725715
 20
263.3514599598389054
 30
0.0
 40
0.6637157498408854
 50
101.328133812534503
 51
112.3591362898084043
  0
ARC
  5
1E1A1
  8
0
 10
4431.3245408699785912
 20
262.4760895085731249
 30
0.0
 40
1.557791679699629
 50
92.2499812233771337
 51
101.5667111672729988
  0
ARC
  5
1E1A2
  8
0
 10
4431.0809843138176802
 20
263.5528113725093249
 30
0.0
 40
0.4494683104310837
 50
105.605853313614702
 51
118.1771643985659068
  0
ARC
  5
1E1A3
  8
0
 10
4431.2421241131751231
 20
262.9795720778906229
 30
0.0
 40
1.044925197454559
 50
97.5170239832994383
 51
105.6600048842442021
  0
ARC
  5
1E1A4
  8
0
 10
4431.3447953153136041
 20
262.2835124961571864
 30
0.0
 40
1.748467316210923
 50
92.7428962760457836
 51
97.8686325530396033
  0
ARC
  5
1E1A5
  8
0
 10
4430.8613228659187371
 20
263.8618322132521143
 30
0.0
 40
0.0496795410123257
 50
167.7521038378145875
 51
174.0742086676063138
  0
ARC
  5
1E1A6
  8
0
 10
4430.8518595320620079
 20
263.8626267074170073
 30
0.0
 40
0.0401930812039473
 50
166.5177372568049066
 51
172.2530442291667043
  0
ARC
  5
1E1A7
  8
0
 10
4430.8601792118997764
 20
263.8599690911145785
 30
0.0
 40
0.0489073456892226
 50
143.0363386816260061
 51
165.7624729592438939
  0
ARC
  5
1E1A8
  8
0
 10
4430.9173420063625599
 20
263.8124852686166264
 30
0.0
 40
0.1231854939634812
 50
118.5327298461318009
 51
141.3766050895663113
  0
ARC
  5
1E1A9
  8
0
 10
4431.1032133958278791
 20
263.4552293582700031
 30
0.0
 40
0.525885507548476
 50
100.3867713249531022
 51
117.7318218901826015
  0
ARC
  5
1E1AA
  8
0
 10
4431.3327291790956224
 20
262.3788761159601108
 30
0.0
 40
1.62628947207395
 50
92.3558615834370471
 51
101.5035516670228048
  0
ARC
  5
1E1AB
  8
0
 10
4430.8639482999260508
 20
263.861210620015413
 30
0.0
 40
0.0523771074721889
 50
159.2862177849021066
 51
167.6968824137821912
  0
ARC
  5
1E1AC
  8
0
 10
4430.8789961283664525
 20
263.8545548123985895
 30
0.0
 40
0.0688123141826053
 50
137.9724431402252947
 51
158.5341948410959105
  0
ARC
  5
1E1AD
  8
0
 10
4430.9236079916800009
 20
263.8140388696633067
 30
0.0
 40
0.1290761672873731
 50
123.1176355976185022
 51
137.8707627902610113
  0
ARC
  5
1E1AE
  8
0
 10
4430.9831741875914304
 20
263.7256106004542175
 30
0.0
 40
0.2356891596224773
 50
116.246375017294298
 51
123.5007750525224992
  0
ARC
  5
1E1AF
  8
0
 10
4431.0859887384685862
 20
263.5056932540068146
 30
0.0
 40
0.4784276134699022
 50
105.2360624760094936
 51
115.6427772180889946
  0
ARC
  5
1E1B0
  8
0
 10
4431.2589494644653314
 20
262.870430595501773
 30
0.0
 40
1.13681508019065
 50
97.1373731815098154
 51
105.2328652791591992
  0
ARC
  5
1E1B1
  8
0
 10
4431.3495704690158163
 20
262.2028560759205789
 30
0.0
 40
1.8104896089486311
 50
92.5878496328649163
 51
97.3580611537928746
  0
LINE
  5
1E1B2
  8
0
 10
4430.8789449118567063
 20
263.9370003779831109
 30
0.0
 11
4430.8687456121715513
 21
263.9490139666513073
 31
0.0
  0
ARC
  5
1E1B3
  8
0
 10
4430.9375983714999165
 20
263.8455749008394946
 30
0.0
 40
0.114042034755179
 50
123.0474566888854042
 51
137.8221013760627045
  0
ARC
  5
1E1B4
  8
0
 10
4430.9806363806274021
 20
263.8383460879525728
 30
0.0
 40
0.1496471523717706
 50
140.3047982834117136
 51
144.0162697926573117
  0
ARC
  5
1E1B5
  8
0
 10
4431.3639551884198227
 20
261.9221652524943238
 30
0.0
 40
2.1129098861569662
 50
87.2717466327327429
 51
92.7282533672672713
  0
ARC
  5
1E1B6
  8
0
 10
4431.3639551884198227
 20
261.9587217275565081
 30
0.0
 40
2.073805979494856
 50
87.1577718075172641
 51
92.8422281924827644
  0
ARC
  5
1E1B7
  8
0
 10
4431.3639551884198227
 20
261.9287487199437123
 30
0.0
 40
2.084967861048673
 50
87.3573602016896871
 51
92.6426397983103129
  0
ARC
  5
1E1B8
  8
0
 10
4431.3639551884198227
 20
261.8878235703284076
 30
0.0
 40
2.118239188276299
 50
87.3462101494069429
 51
92.6537898505930571
  0
ARC
  5
1E1B9
  8
0
 10
4434.249881629916672
 20
255.6917290546413994
 30
0.0
 40
0.031513981868157
 50
270.0127315706848776
 51
356.6572011684776271
  0
ARC
  5
1E1BA
  8
0
 10
4428.6913044798830015
 20
254.876056411158288
 30
0.0
 40
5.6489686589061794
 50
2.9445957608968949
 51
8.2833072711425046
  0
ARC
  5
1E1BB
  8
0
 10
4434.4437227637035903
 20
257.9670542623052825
 30
0.0
 40
0.0333896212635618
 50
112.9912628120021054
 51
174.5550715102145034
  0
ARC
  5
1E1BC
  8
0
 10
4439.4548661943799743
 20
259.5043815514836183
 30
0.0
 40
9.1837574236776263
 50
213.9921667775678884
 51
218.3212506325253059
  0
ARC
  5
1E1BD
  8
0
 10
4442.7158414298928619
 20
247.7109515482516997
 30
0.0
 40
13.2626300136713606
 50
142.1051285705042062
 51
144.4006772089186086
  0
ARC
  5
1E1BE
  8
0
 10
4434.0888472149672452
 20
253.8543147178841082
 30
0.0
 40
2.6719544573908371
 50
143.828706937367798
 51
151.6308623959259023
  0
ARC
  5
1E1BF
  8
0
 10
4433.1834451945524052
 20
255.2798265490135918
 30
0.0
 40
1.622176005485189
 50
203.5663627388898931
 51
214.1188081561460876
  0
ARC
  5
1E1C0
  8
0
 10
4432.17427408351341
 20
254.8393320876006101
 30
0.0
 40
0.5210577282480314
 50
146.8984260813483047
 51
203.5357415190094912
  0
ARC
  5
1E1C1
  8
0
 10
4430.5689013611236078
 20
260.6441688835587911
 30
0.0
 40
0.0905722035711074
 50
132.5470512940102026
 51
170.1559536931293906
  0
ARC
  5
1E1C2
  8
0
 10
4430.703496861129679
 20
260.4987690494140224
 30
0.0
 40
0.2887055894700034
 50
113.8769318927735981
 51
132.7139149285885082
  0
ARC
  5
1E1C3
  8
0
 10
4430.9587623335637545
 20
259.937657087796822
 30
0.0
 40
0.9051424895700604
 50
102.9828278063060054
 51
114.2754645607096933
  0
ARC
  5
1E1C4
  8
0
 10
4431.254111155974897
 20
258.6959474320693744
 30
0.0
 40
2.1814815466532691
 50
94.1662572999948537
 51
103.2149468164440975
  0
ARC
  5
1E1C5
  8
0
 10
4431.1693299036405733
 20
259.2815423009366214
 30
0.0
 40
1.5594176645078299
 50
99.5716611874144064
 51
105.1061061703297952
  0
ARC
  5
1E1C6
  8
0
 10
4431.1551662246720298
 20
259.3891802144897838
 30
0.0
 40
1.445456724579925
 50
99.7291394032653784
 51
105.6841887515186045
  0
ARC
  5
1E1C7
  8
0
 10
4430.9574421281813557
 20
260.0837518420286187
 30
0.0
 40
0.7232994674259177
 50
105.4786069500068066
 51
114.8294157628483987
  0
ARC
  5
1E1C8
  8
0
 10
4430.7599825323077312
 20
260.5009885868942092
 30
0.0
 40
0.2617449832375064
 50
113.9534400129758041
 51
131.9512854517662959
  0
ARC
  5
1E1C9
  8
0
 10
4430.6429597927708528
 20
260.6295258859706792
 30
0.0
 40
0.0879274700614117
 50
131.2316155925477119
 51
164.7227335141203071
  0
ARC
  5
1E1CA
  8
0
 10
4430.9992265701257566
 20
259.92337016670308
 30
0.0
 40
0.8954432205484124
 50
105.3006047490478068
 51
110.5524961085678939
  0
ARC
  5
1E1CB
  8
0
 10
4430.8525956189641875
 20
260.3080915514686922
 30
0.0
 40
0.4837371024017941
 50
110.2876964279302001
 51
119.2666155840312001
  0
ARC
  5
1E1CC
  8
0
 10
4430.7417766968283104
 20
260.508592461705291
 30
0.0
 40
0.2546563194618079
 50
119.569540320530507
 51
127.9165707366802991
  0
ARC
  5
1E1CD
  8
0
 10
4430.6599848958967414
 20
260.6115287147962931
 30
0.0
 40
0.123193644862882
 50
127.3257280397783973
 51
145.4958391249114982
  0
ARC
  5
1E1CE
  8
0
 10
4430.6019254135662777
 20
260.6510747494980933
 30
0.0
 40
0.0529470525297015
 50
145.1718125513966129
 51
178.5827354747555944
  0
ARC
  5
1E1CF
  8
0
 10
4430.6071905924673047
 20
260.6526744602219878
 30
0.0
 40
0.0581967571959559
 50
180.2856588068057988
 51
203.3859125862504129
  0
ARC
  5
1E1D0
  8
0
 10
4430.6325495718429011
 20
260.6638249589478846
 30
0.0
 40
0.0858986003453632
 50
203.4986168826656012
 51
219.5107425539304984
  0
ARC
  5
1E1D1
  8
0
 10
4430.5578078173293761
 20
260.6528497285771095
 30
0.0
 40
0.0784407929432305
 50
175.0238689972759971
 51
217.5340615772259127
  0
ARC
  5
1E1D2
  8
0
 10
4430.6438674047840323
 20
260.717281544130401
 30
0.0
 40
0.1859440856835143
 50
217.1222461924795084
 51
239.7420097148749107
  0
ARC
  5
1E1D3
  8
0
 10
4430.8023452180577806
 20
260.9683059427346166
 30
0.0
 40
0.482738318841581
 50
238.5078053567038978
 51
249.5947998659848963
  0
ARC
  5
1E1D4
  8
0
 10
4431.0147114636338301
 20
261.5254168628966909
 30
0.0
 40
1.0789444011409901
 50
249.3399204173491057
 51
257.8326128517264237
  0
ARC
  5
1E1D5
  8
0
 10
4431.1873519282044072
 20
262.2524585764418248
 30
0.0
 40
1.8261070173090821
 50
257.345500819646702
 51
260.7288828651314248
  0
ARC
  5
1E1D6
  8
0
 10
4431.0571267053755946
 20
261.515364272820193
 30
0.0
 40
1.0556190370497349
 50
251.7169087245356138
 51
256.052530110924522
  0
ARC
  5
1E1D7
  8
0
 10
4430.8917814965261641
 20
261.0306050096929766
 30
0.0
 40
0.5434828250144698
 50
240.0895150625462122
 51
252.2359515642490919
  0
ARC
  5
1E1D8
  8
0
 10
4430.697382178663247
 20
260.6983070737770163
 30
0.0
 40
0.1585334845935848
 50
214.210371511312502
 51
241.1041363667189898
  0
ARC
  5
1E1D9
  8
0
 10
4430.9452716020614389
 20
260.2370948796242942
 30
0.0
 40
0.5486735391242058
 50
108.0459711089596055
 51
116.7539692813945038
  0
ARC
  5
1E1DA
  8
0
 10
4430.7992479778577035
 20
260.5222054749623908
 30
0.0
 40
0.2283597985909246
 50
116.2406192360249975
 51
132.5838410097456119
  0
ARC
  5
1E1DB
  8
0
 10
4430.6983500109872693
 20
260.6307447470654211
 30
0.0
 40
0.0801736315034706
 50
131.9800479083787081
 51
164.1112420881397895
  0
ARC
  5
1E1DC
  8
0
 10
4431.3606283943890958
 20
258.1197230111163208
 30
0.0
 40
2.7115085800309808
 50
90.8880395617766936
 51
94.3054088533481547
  0
ARC
  5
1E1DD
  8
0
 10
4431.1072657120776057
 20
259.7694629675611964
 30
0.0
 40
1.0399438948531361
 50
102.0034539431987071
 51
108.5551471352807056
  0
ARC
  5
1E1DE
  8
0
 10
4430.8995326935009871
 20
260.3645183014049849
 30
0.0
 40
0.4097866750963913
 50
107.4955812338578056
 51
123.6264446681100964
  0
ARC
  5
1E1DF
  8
0
 10
4430.7503402561087569
 20
260.5924254567494813
 30
0.0
 40
0.1374113119462435
 50
124.4529258612466975
 51
142.356431447847001
  0
ARC
  5
1E1E0
  8
0
 10
4430.6897354985649145
 20
260.6388780179102014
 30
0.0
 40
0.0610525792638327
 50
142.1388181647230056
 51
178.0309732714028996
  0
ARC
  5
1E1E1
  8
0
 10
4430.6928925958427499
 20
260.6488160647879795
 30
0.0
 40
0.0742745885910774
 50
195.2675724911646
 51
220.5360059688806871
  0
ARC
  5
1E1E2
  8
0
 10
4430.7660051580660365
 20
260.7153342998220751
 30
0.0
 40
0.1730985082405188
 50
221.5409652945425023
 51
240.3734310528527942
  0
ARC
  5
1E1E3
  8
0
 10
4430.8594211058989458
 20
260.8648891918369941
 30
0.0
 40
0.3493568511249482
 50
239.1807808805345985
 51
244.6458538618782939
  0
ARC
  5
1E1E4
  8
0
 10
4430.6835700841384096
 20
260.6415972583548069
 30
0.0
 40
0.0548546372935801
 50
180.6491933127265952
 51
209.3804338717370115
  0
ARC
  5
1E1E5
  8
0
 10
4430.7287404854441775
 20
260.6686573492639809
 30
0.0
 40
0.1075004963974096
 50
210.1366396195747086
 51
231.4079119183404885
  0
ARC
  5
1E1E6
  8
0
 10
4430.8231598527363531
 20
260.786032135656626
 30
0.0
 40
0.2581381925359076
 50
231.2783471823580044
 51
243.8203031667081007
  0
ARC
  5
1E1E7
  8
0
 10
4431.2715015992498593
 20
260.8886986425874284
 30
0.0
 40
0.3464419605372486
 50
261.3089538469910167
 51
271.0316007404759944
  0
ARC
  5
1E1E8
  8
0
 10
4431.231446869793217
 20
260.6345830651039819
 30
0.0
 40
0.0891997610148732
 50
240.4641954080447022
 51
262.077414320949174
  0
ARC
  5
1E1E9
  8
0
 10
4431.197639681239707
 20
260.5757906262335837
 30
0.0
 40
0.0213860340176105
 50
206.8654779645937936
 51
241.619288646493402
  0
ARC
  5
1E1EA
  8
0
 10
4431.1893077267386616
 20
260.5713831555804063
 30
0.0
 40
0.0119627834534609
 50
180.4432562405391991
 51
206.067595400577602
  0
ARC
  5
1E1EB
  8
0
 10
4431.3353311429136738
 20
258.6336246809058821
 30
0.0
 40
2.187504757089703
 50
91.9646379572600949
 51
99.4392539649944354
  0
ARC
  5
1E1EC
  8
0
 10
4431.1712556346201382
 20
259.6169306438192734
 30
0.0
 40
1.1906041854845391
 50
99.4108636861812585
 51
107.0684358279249011
  0
ARC
  5
1E1ED
  8
0
 10
4430.9728407675102062
 20
260.2597705955028005
 30
0.0
 40
0.51784167565981
 50
106.9585336180666957
 51
117.6137834542766996
  0
ARC
  5
1E1EE
  8
0
 10
4430.8226815924726907
 20
260.5449538436010926
 30
0.0
 40
0.1955448259206653
 50
117.3589273112150977
 51
134.6406531392933914
  0
ARC
  5
1E1EF
  8
0
 10
4430.7292979646408639
 20
260.6372600905385752
 30
0.0
 40
0.0642691716832103
 50
133.2272153838183044
 51
176.6856631544339962
  0
ARC
  5
1E1F0
  8
0
 10
4430.7224866852211562
 20
260.6428490166404117
 30
0.0
 40
0.0573809804477632
 50
181.8708297075629901
 51
215.8314611887525984
  0
ARC
  5
1E1F1
  8
0
 10
4430.7511538289363671
 20
260.6613354562520044
 30
0.0
 40
0.0914622660006161
 50
214.707497455177986
 51
224.2983928013534864
  0
ARC
  5
1E1F2
  8
0
 10
4431.364608634360593
 20
260.7144782833544809
 30
0.0
 40
0.0993055129309874
 50
58.6622519072161026
 51
121.4061711871371045
  0
ARC
  5
1E1F3
  8
0
 10
4431.2028164473049401
 20
260.7092415208447846
 30
0.0
 40
0.0991442614625746
 50
58.5334671991367372
 51
121.3969897430577021
  0
ARC
  5
1E1F4
  8
0
 10
4431.0518592586677187
 20
260.6928169099505226
 30
0.0
 40
0.0996011002982033
 50
58.5839442046975734
 51
121.183720541222101
  0
ARC
  5
1E1F5
  8
0
 10
4430.9218323884160782
 20
260.6675696487334903
 30
0.0
 40
0.0995859515677628
 50
58.4112902001641174
 51
121.1401585137174948
  0
ARC
  5
1E1F6
  8
0
 10
4430.8213956841218533
 20
260.6337327990156041
 30
0.0
 40
0.1003804746549502
 50
58.4396138286706801
 51
120.8134713618781007
  0
ARC
  5
1E1F7
  8
0
 10
4430.7585366168086694
 20
260.5933445807398812
 30
0.0
 40
0.1028643434734473
 50
81.1599762009622481
 51
120.8014724837979941
  0
ARC
  5
1E1F8
  8
0
 10
4430.70987624877489
 20
260.6139694567298761
 30
0.0
 40
0.0387050016161285
 50
90.2928618198736217
 51
135.7756137583753002
  0
ARC
  5
1E1F9
  8
0
 10
4430.7800624643550691
 20
260.5757835654792984
 30
0.0
 40
0.0366303276617596
 50
37.2005279998116976
 51
102.2028668007749985
  0
ARC
  5
1E1FA
  8
0
 10
4430.8198103603626805
 20
260.4831553523408161
 30
0.0
 40
0.0930579156450888
 50
55.2597816782299915
 51
104.5180458811962012
  0
ARC
  5
1E1FB
  8
0
 10
4430.8918823517324199
 20
260.5116905607333138
 30
0.0
 40
0.0279264516035241
 50
88.9469466406523566
 51
144.8610820340526004
  0
ARC
  5
1E1FC
  8
0
 10
4431.3665703609403863
 20
260.6623128864956129
 30
0.0
 40
0.0765276908757264
 50
72.7587071620667842
 51
108.7487966312684051
  0
ARC
  5
1E1FD
  8
0
 10
4431.3646561712748735
 20
260.8078099159047269
 30
0.0
 40
0.0764717812193633
 50
252.7450998224157104
 51
288.7624039709377826
  0
ARC
  5
1E1FE
  8
0
 10
4431.3669171507399369
 20
260.6379870931010032
 30
0.0
 40
0.1023281165533816
 50
71.976430450818583
 51
109.5621348963802006
  0
ARC
  5
1E1FF
  8
0
 10
4431.3641865101926669
 20
260.8413515813521144
 30
0.0
 40
0.1114945192012764
 50
253.5720100978597884
 51
287.9665552493245855
  0
ARC
  5
1E200
  8
0
 10
4431.2005526428420126
 20
260.6349911373750956
 30
0.0
 40
0.1000450506917553
 50
69.9967988278893785
 51
108.4714083462347958
  0
ARC
  5
1E201
  8
0
 10
4431.2032087174293338
 20
260.8336770128414059
 30
0.0
 40
0.1093323160373917
 50
251.6867720358351903
 51
286.7814351382410223
  0
ARC
  5
1E202
  8
0
 10
4431.2008688947689734
 20
260.658602358275175
 30
0.0
 40
0.0749124105188651
 50
70.8613341219739112
 51
107.6023854727947935
  0
ARC
  5
1E203
  8
0
 10
4431.2027741818692448
 20
260.8007097089409854
 30
0.0
 40
0.0748465832488665
 50
250.8445991058322875
 51
287.6191204888627908
  0
ARC
  5
1E204
  8
0
 10
4431.0450086329701662
 20
260.6255249858684806
 30
0.0
 40
0.0941924806699705
 50
67.1065571258976945
 51
108.0697309254884004
  0
ARC
  5
1E205
  8
0
 10
4431.0528574316476806
 20
260.8118700210177963
 30
0.0
 40
0.1036517618967357
 50
249.0477097436613008
 51
286.1285783077917131
  0
ARC
  5
1E206
  8
0
 10
4431.045921655829261
 20
260.6472086467408076
 30
0.0
 40
0.0708702264174009
 50
68.1186849691801228
 51
107.0576241363621932
  0
ARC
  5
1E207
  8
0
 10
4431.0515444449256393
 20
260.7807046699485909
 30
0.0
 40
0.0708502022072967
 50
248.1129602079959113
 51
287.0633488975068985
  0
ARC
  5
1E208
  8
0
 10
4430.9103582063826252
 20
260.6089501543766005
 30
0.0
 40
0.0865092774929813
 50
63.3377204565901835
 51
108.1149423957380975
  0
ARC
  5
1E209
  8
0
 10
4430.9230985933572811
 20
260.7794397775156767
 30
0.0
 40
0.0967598315386821
 50
245.8167867627975056
 51
285.6358760895985824
  0
ARC
  5
1E20A
  8
0
 10
4430.9118102900538361
 20
260.628383162337002
 30
0.0
 40
0.0652634582784427
 50
64.5072195882940917
 51
106.9460948870541017
  0
ARC
  5
1E20B
  8
0
 10
4430.9208792359750078
 20
260.7497514926429858
 30
0.0
 40
0.0652908239865645
 50
244.5165433560974009
 51
286.936771119209709
  0
ARC
  5
1E20C
  8
0
 10
4430.8071284157667833
 20
260.6025830407264152
 30
0.0
 40
0.0594097900152497
 50
60.13318263113905
 51
106.9913120371953994
  0
ARC
  5
1E20D
  8
0
 10
4430.8193499779526974
 20
260.7108964041539139
 30
0.0
 40
0.0593890783421208
 50
240.1245234808264115
 51
286.9999711875358912
  0
ARC
  5
1E20E
  8
0
 10
4430.8055777723284336
 20
260.5824551255178108
 30
0.0
 40
0.0815397827925129
 50
60.1588509928959496
 51
107.9392960387236968
  0
ARC
  5
1E20F
  8
0
 10
4430.8213817220566852
 20
260.7340686983666274
 30
0.0
 40
0.0845930430769557
 50
241.071660976539988
 51
287.0264860551030779
  0
ARC
  5
1E210
  8
0
 10
4430.7362231382267055
 20
260.5571463945299797
 30
0.0
 40
0.0706485357787962
 50
53.2632515294166566
 51
108.8096076429284977
  0
ARC
  5
1E211
  8
0
 10
4430.7573253053142253
 20
260.6909307129621993
 30
0.0
 40
0.0800145094376114
 50
236.7418077752678016
 51
285.3310513970304214
  0
ARC
  5
1E212
  8
0
 10
4430.7384746800307767
 20
260.5714208710307958
 30
0.0
 40
0.0540105345945621
 50
55.1016462236051368
 51
106.9646117585787977
  0
ARC
  5
1E213
  8
0
 10
4430.7536014267707287
 20
260.6672861103998002
 30
0.0
 40
0.053926093509558
 50
235.0580126940874095
 51
287.008245288032299
  0
ARC
  5
1E214
  8
0
 10
4430.762030592541123
 20
260.7207065330713931
 30
0.0
 40
0.0984198617849783
 50
255.5023711243748039
 51
266.5639900641098166
  0
ARC
  5
1E215
  8
0
 10
4430.7072761933413858
 20
260.5225205355905018
 30
0.0
 40
0.0667334903195896
 50
48.7684533486035008
 51
108.0214229784339039
  0
ARC
  5
1E216
  8
0
 10
4430.7317919275255917
 20
260.6418983354234911
 30
0.0
 40
0.0718775524403361
 50
231.0745953569548874
 51
285.7152809700643274
  0
ARC
  5
1E217
  8
0
 10
4430.737041853761184
 20
260.6655575099076145
 30
0.0
 40
0.0842102037085785
 50
248.3080560797210978
 51
267.9201977663461776
  0
ARC
  5
1E218
  8
0
 10
4430.7330169174801995
 20
260.6462437936082779
 30
0.0
 40
0.0624846276824469
 50
252.9163949857862121
 51
263.2814099332741193
  0
ARC
  5
1E219
  8
0
 10
4430.7025406332249986
 20
260.5016371890953906
 30
0.0
 40
0.0857399821003541
 50
68.4846984106616077
 51
87.7435554354158853
  0
ARC
  5
1E21A
  8
0
 10
4430.725096674438646
 20
260.5580238416886232
 30
0.0
 40
0.0250118037525519
 50
52.5087057276996418
 51
69.1823426469351972
  0
ARC
  5
1E21B
  8
0
 10
4430.7377477221152731
 20
260.5740892928554899
 30
0.0
 40
0.0045721826648647
 50
19.9225823139105387
 51
55.7664995000200108
  0
ARC
  5
1E21C
  8
0
 10
4430.7407314031470378
 20
260.5752001034973091
 30
0.0
 40
0.0013888295797827
 50
344.8111079735165845
 51
18.7820915253219383
  0
ARC
  5
1E21D
  8
0
 10
4430.7046644532192659
 20
260.5632070576573938
 30
0.0
 40
0.0241361235155684
 50
87.0267059259704467
 51
106.0649541019258066
  0
ARC
  5
1E21E
  8
0
 10
4430.6986568348693254
 20
260.5834695720217837
 30
0.0
 40
0.0030069950194889
 50
102.9036145696086066
 51
158.6522553761539029
  0
ARC
  5
1E21F
  8
0
 10
4430.6979207214062626
 20
260.584268019895319
 30
0.0
 40
0.0020857029750429
 50
171.8360968267124917
 51
209.4609612346795871
  0
ARC
  5
1E220
  8
0
 10
4430.7055737260716342
 20
260.5903223031774019
 30
0.0
 40
0.011823275970691
 50
216.7859252422013867
 51
244.4605580648843954
  0
ARC
  5
1E221
  8
0
 10
4430.7342058439626271
 20
260.6509941245064965
 30
0.0
 40
0.0789116686514471
 50
244.6951874793304
 51
269.4814333464723859
  0
ARC
  5
1E222
  8
0
 10
4430.7343426610332244
 20
260.588952034525505
 30
0.0
 40
0.016887802479184
 50
267.1115187047539052
 51
291.4849330870914059
  0
ARC
  5
1E223
  8
0
 10
4430.7397896604361449
 20
260.575495412081807
 30
0.0
 40
0.0023753542010848
 50
288.107669473352189
 51
343.8883430330495798
  0
ARC
  5
1E224
  8
0
 10
4430.9059613591780362
 20
260.4974790728629728
 30
0.0
 40
0.0393937626267063
 50
235.5374030839429054
 51
249.949363382052212
  0
ARC
  5
1E225
  8
0
 10
4430.8874820817136424
 20
260.4714023695414085
 30
0.0
 40
0.0074522786933663
 50
195.1606364540494098
 51
239.2312256294088968
  0
ARC
  5
1E226
  8
0
 10
4430.8840006425652973
 20
260.4701429015844951
 30
0.0
 40
0.0037749757272118
 50
143.0535596326189989
 51
190.524127025625603
  0
ARC
  5
1E227
  8
0
 10
4430.8877770959916234
 20
260.4670760383741026
 30
0.0
 40
0.0086384017517243
 50
117.4860936221368064
 51
141.8521331881752019
  0
ARC
  5
1E228
  8
0
 10
4430.8962992791093711
 20
260.4498683732252857
 30
0.0
 40
0.0278396032238456
 50
97.9367556325045143
 51
116.700531332229005
  0
ARC
  5
1E229
  8
0
 10
4430.896156412178243
 20
260.4653029236650923
 30
0.0
 40
0.0083121094288747
 50
116.4413131389778044
 51
129.7574296995821896
  0
ARC
  5
1E22A
  8
0
 10
4430.8931551944551757
 20
260.4688203802966768
 30
0.0
 40
0.0036890891341637
 50
128.8618171227658138
 51
162.2335476545345045
  0
ARC
  5
1E22B
  8
0
 10
4430.8921815085168419
 20
260.4692671741993877
 30
0.0
 40
0.0026286430201975
 50
165.0328613055822871
 51
198.8768265586442112
  0
ARC
  5
1E22C
  8
0
 10
4430.8961016195016782
 20
260.4712468394725988
 30
0.0
 40
0.0070045741582229
 50
203.8309332117370047
 51
238.6289327591989036
  0
ARC
  5
1E22D
  8
0
 10
4431.1422859857029835
 20
260.2489645001957115
 30
0.0
 40
0.4940989458340314
 50
105.1530211793376992
 51
112.0296409880377979
  0
ARC
  5
1E22E
  8
0
 10
4430.9789897815608128
 20
260.5096914814831734
 30
0.0
 40
0.2178330421859464
 50
116.8192976691597949
 51
122.027504133355194
  0
ARC
  5
1E22F
  8
0
 10
4430.8642856222213595
 20
260.6406450489934059
 30
0.0
 40
0.0416703286166497
 50
167.7255933195675937
 51
179.5453053672090107
  0
ARC
  5
1E230
  8
0
 10
4430.8615941115440364
 20
260.6412384241921814
 30
0.0
 40
0.0389783909424662
 50
180.3861353482845971
 51
203.4671119899124108
  0
ARC
  5
1E231
  8
0
 10
4430.8809595549773803
 20
260.6502435983042005
 30
0.0
 40
0.0603306535690002
 50
203.9881110426250928
 51
221.8005169682751045
  0
ARC
  5
1E232
  8
0
 10
4430.9437313579746842
 20
260.7133180242660728
 30
0.0
 40
0.1492566475053283
 50
223.7894709777966114
 51
242.9147866889659042
  0
ARC
  5
1E233
  8
0
 10
4431.0293076473262772
 20
260.8673269413035882
 30
0.0
 40
0.3253962337353977
 50
241.8461700632527993
 51
245.1293111781320988
  0
ARC
  5
1E234
  8
0
 10
4430.9623406169639566
 20
260.6098632931814905
 30
0.0
 40
0.0888448178342074
 50
124.2710496831600011
 51
141.0393373071173073
  0
ARC
  5
1E235
  8
0
 10
4430.9271071063676573
 20
260.6378813457459955
 30
0.0
 40
0.0438321882515107
 50
140.5581061911834126
 51
169.3006089764892863
  0
ARC
  5
1E236
  8
0
 10
4430.9165695479578062
 20
260.6409563641757927
 30
0.0
 40
0.0329241672245795
 50
171.1546232009876007
 51
198.8275218709237038
  0
ARC
  5
1E237
  8
0
 10
4430.9282436414960102
 20
260.6450499704980075
 30
0.0
 40
0.0452948476352527
 50
198.9630076200105009
 51
217.8030912742630107
  0
ARC
  5
1E238
  8
0
 10
4431.0053249188958944
 20
261.1922186980272045
 30
0.0
 40
0.7039026625803972
 50
250.2548371803744089
 51
250.790102214992686
  0
ARC
  5
1E239
  8
0
 10
4430.7336604231022648
 20
260.4896453093651871
 30
0.0
 40
0.0589980160341249
 50
45.4845088185884023
 51
113.2342899817298019
  0
ARC
  5
1E23A
  8
0
 10
4430.7536922607750967
 20
260.5962665767376052
 30
0.0
 40
0.0679854212658816
 50
230.4322154251109964
 51
288.2865833751496893
  0
ARC
  5
1E23B
  8
0
 10
4430.7306222876768516
 20
260.4737698121559788
 30
0.0
 40
0.0725353361416192
 50
65.5773061378965849
 51
92.5999103488811102
  0
ARC
  5
1E23C
  8
0
 10
4430.7530563641648769
 20
260.5922620938674754
 30
0.0
 40
0.0496383385030873
 50
248.1238900501531077
 51
270.4343489034084769
  0
ARC
  5
1E23D
  8
0
 10
4430.7287373834951723
 20
260.525498355587672
 30
0.0
 40
0.0207797083148575
 50
93.8780679590570344
 51
106.5036677428559955
  0
ARC
  5
1E23E
  8
0
 10
4430.7243934026591887
 20
260.539451562215902
 30
0.0
 40
0.0061706104836051
 50
104.6348211481819988
 51
132.4456616667183084
  0
ARC
  5
1E23F
  8
0
 10
4430.7217487715752213
 20
260.5424708657258179
 30
0.0
 40
0.0021594963167576
 50
134.7327886290125889
 51
168.3295208850117035
  0
ARC
  5
1E240
  8
0
 10
4430.7541369566843059
 20
260.5259513431980736
 30
0.0
 40
0.0153014012826208
 50
43.2512367386089096
 51
64.9607039282109895
  0
ARC
  5
1E241
  8
0
 10
4431.2984664722462185
 20
260.7199138746677249
 30
0.0
 40
0.5638706003420939
 50
198.9892236413714102
 51
199.2312802916873977
  0
ARC
  5
1E242
  8
0
 10
4430.2036876515167023
 20
260.3628813301360196
 30
0.0
 40
0.5464522320913949
 50
18.98536581249504
 51
19.2351381206136907
  0
ARC
  5
1E243
  8
0
 10
4430.7556290328593604
 20
260.6055025650518928
 30
0.0
 40
0.0747865181460505
 50
246.4435100421999039
 51
269.5560396430508945
  0
ARC
  5
1E244
  8
0
 10
4430.7325130293338589
 20
260.5523553710613101
 30
0.0
 40
0.0168299620597916
 50
224.0354861287173094
 51
246.2706629069400037
  0
ARC
  5
1E245
  8
0
 10
4430.7562555717649957
 20
260.5523753072735076
 30
0.0
 40
0.0216905693536656
 50
266.8126422238786972
 51
291.2198257701908801
  0
ARC
  5
1E246
  8
0
 10
4430.7631858454042231
 20
260.5349989412848117
 30
0.0
 40
0.0029888516525297
 50
287.938741181505975
 51
344.1962990120327959
  0
ARC
  5
1E247
  8
0
 10
4430.7569244525184331
 20
260.6131378527696256
 30
0.0
 40
0.0730743264051532
 50
246.2755941942853042
 51
272.3495726647283846
  0
ARC
  5
1E248
  8
0
 10
4430.8009287626609876
 20
260.4375884837771196
 30
0.0
 40
0.0702459902979878
 50
69.5588548108324147
 51
92.8134868800595285
  0
ARC
  5
1E249
  8
0
 10
4430.8161082028291275
 20
260.4792950441927246
 30
0.0
 40
0.025866551746171
 50
56.4113960031164581
 51
68.8008487987363679
  0
ARC
  5
1E24A
  8
0
 10
4430.8252473075281159
 20
260.4928601958487207
 30
0.0
 40
0.009510986426101
 50
40.2375199114800708
 51
57.0654381243026805
  0
ARC
  5
1E24B
  8
0
 10
4430.8296770384476986
 20
260.4965203821894875
 30
0.0
 40
0.0037657249701214
 50
12.9835948444776399
 51
41.2620168468228101
  0
ARC
  5
1E24C
  8
0
 10
4430.8310899240332219
 20
260.4969207018942825
 30
0.0
 40
0.0023001675323227
 50
324.5597390265651256
 51
11.1736415265414699
  0
ARC
  5
1E24D
  8
0
 10
4430.8290731989827691
 20
260.4984782879910767
 30
0.0
 40
0.0048474302628922
 50
295.2314773980237987
 51
323.3824998352149009
  0
ARC
  5
1E24E
  8
0
 10
4430.8239660033768814
 20
260.5088166052292991
 30
0.0
 40
0.0163778607618717
 50
276.9989526810904863
 51
295.9764880877310134
  0
ARC
  5
1E24F
  8
0
 10
4430.8183802915609704
 20
260.5477263371868162
 30
0.0
 40
0.0556840664662562
 50
261.1803194407381739
 51
277.8251117720801062
  0
ARC
  5
1E250
  8
0
 10
4430.8163525893496626
 20
260.5505760695547792
 30
0.0
 40
0.0582403674909909
 50
244.8125178095168906
 51
263.5821004042729214
  0
ARC
  5
1E251
  8
0
 10
4430.7957266407502175
 20
260.5075412314793084
 30
0.0
 40
0.0105250763703089
 50
212.4700786429210098
 51
246.7181747870415052
  0
ARC
  5
1E252
  8
0
 10
4430.7986365131546336
 20
260.480626719464226
 30
0.0
 40
0.027147694399052
 50
92.4400066235314455
 51
108.1735076958159993
  0
ARC
  5
1E253
  8
0
 10
4430.7921817525921142
 20
260.4998278102070799
 30
0.0
 40
0.006892717292284
 50
106.9761100260091951
 51
136.5024909292787072
  0
ARC
  5
1E254
  8
0
 10
4430.7889751106777112
 20
260.5029866600244191
 30
0.0
 40
0.0023937789950802
 50
138.5191610266060138
 51
207.2462994301351955
  0
ARC
  5
1E255
  8
0
 10
4430.8168990696503897
 20
260.547681190138178
 30
0.0
 40
0.0436538045106003
 50
245.9684996712057057
 51
277.5237279830172952
  0
ARC
  5
1E256
  8
0
 10
4430.8196398360578314
 20
260.566725606883324
 30
0.0
 40
0.065299380834218
 50
245.8135174212202116
 51
277.7592880141737055
  0
ARC
  5
1E257
  8
0
 10
4430.8036524667104459
 20
260.455976314812915
 30
0.0
 40
0.0545278893763218
 50
44.747421646804753
 51
118.8640582149693046
  0
ARC
  5
1E258
  8
0
 10
4430.8176049178036919
 20
260.5528683754508279
 30
0.0
 40
0.0635345431869468
 50
230.661177785970807
 51
292.9503020757891818
  0
ARC
  5
1E259
  8
0
 10
4431.3461190223588346
 20
259.3785803630900091
 30
0.0
 40
1.1362024260854531
 50
93.8196395687599534
 51
98.418561672684973
  0
ARC
  5
1E25A
  8
0
 10
4431.2522527716482728
 20
259.9595779349772897
 30
0.0
 40
0.5466464013858003
 50
97.4096909992130833
 51
111.6119463696677059
  0
ARC
  5
1E25B
  8
0
 10
4431.0979077179572414
 20
260.3458719611141987
 30
0.0
 40
0.1324023138976409
 50
112.3732822829416023
 51
131.6246652722520025
  0
ARC
  5
1E25C
  8
0
 10
4431.0370750707443221
 20
260.4179003785358191
 30
0.0
 40
0.0354305424134278
 50
131.1381453122723997
 51
175.5682193999624872
  0
ARC
  5
1E25D
  8
0
 10
4431.0339935473493824
 20
260.4223559014367879
 30
0.0
 40
0.0322888064589819
 50
183.049517346104011
 51
221.8976630054592079
  0
ARC
  5
1E25E
  8
0
 10
4430.9532941515171842
 20
260.4592570932014155
 30
0.0
 40
0.0608389731888017
 50
180.03308468190761
 51
200.9309616970938066
  0
ARC
  5
1E25F
  8
0
 10
4430.9887880932783446
 20
260.4787277247451129
 30
0.0
 40
0.1010965064404068
 50
204.0529052674042987
 51
240.7446330714955138
  0
ARC
  5
1E260
  8
0
 10
4431.1135179616439927
 20
260.6865552560540209
 30
0.0
 40
0.3434481703459562
 50
239.5342816279278111
 51
254.7904224207981088
  0
ARC
  5
1E261
  8
0
 10
4431.3043936308176853
 20
261.3950377034731218
 30
0.0
 40
1.077191993842042
 50
254.8798301994357871
 51
268.5820911993578761
  0
ARC
  5
1E262
  8
0
 10
4431.3447581306936627
 20
261.4500018439429141
 30
0.0
 40
1.123445951414876
 50
261.5553141999515105
 51
266.2064845585874764
  0
ARC
  5
1E263
  8
0
 10
4431.2518373760030954
 20
260.8800934376401983
 30
0.0
 40
0.5450013052744943
 50
248.3665077928233984
 51
262.6118547947056072
  0
ARC
  5
1E264
  8
0
 10
4431.2555878488792587
 20
261.0015812873907066
 30
0.0
 40
0.6660258402855295
 50
251.5454833516328108
 51
263.4317548633749766
  0
ARC
  5
1E265
  8
0
 10
4431.0984865159898618
 20
260.4963306851835227
 30
0.0
 40
0.1334793304124853
 50
228.4537323687127923
 51
247.5483200760631917
  0
ARC
  5
1E266
  8
0
 10
4431.122713659809051
 20
260.6001270485041914
 30
0.0
 40
0.2431569549773167
 50
239.4742704492454948
 51
251.3004541994561123
  0
ARC
  5
1E267
  8
0
 10
4431.0406674809737524
 20
260.4627558278821766
 30
0.0
 40
0.0831567761273121
 50
217.5315497231979975
 51
240.0946409972322897
  0
ARC
  5
1E268
  8
0
 10
4431.000365743079783
 20
260.4311039118705935
 30
0.0
 40
0.031919200277044
 50
181.5434130398143964
 51
216.5464029536148871
  0
ARC
  5
1E269
  8
0
 10
4430.9997670586753884
 20
260.4295467584913126
 30
0.0
 40
0.0313167026171529
 50
144.4686255220111093
 51
178.7239056141154094
  0
ARC
  5
1E26A
  8
0
 10
4431.0414923103344336
 20
260.3973196427659786
 30
0.0
 40
0.0840246293102208
 50
118.2278141914683971
 51
143.1198748426998009
  0
ARC
  5
1E26B
  8
0
 10
4431.1355066626310872
 20
260.231867676622187
 30
0.0
 40
0.2743050282406739
 50
107.9624276318430987
 51
119.1841704308693011
  0
ARC
  5
1E26C
  8
0
 10
4431.2714216951226263
 20
259.7891907613403077
 30
0.0
 40
0.7373561167227193
 50
97.1398109960330203
 51
107.4007571051180037
  0
ARC
  5
1E26D
  8
0
 10
4431.352289510979972
 20
259.2306415630256993
 30
0.0
 40
1.301670314950153
 50
92.2655045146140651
 51
97.6159998733361647
  0
ARC
  5
1E26E
  8
0
 10
4431.3634800501267819
 20
259.3135278269762125
 30
0.0
 40
1.188624092480135
 50
90.634301476945339
 51
93.3383191813104816
  0
ARC
  5
1E26F
  8
0
 10
4431.3550842676850152
 20
259.4512669560375002
 30
0.0
 40
1.050629854911721
 50
93.3186456899155274
 51
96.4609696198775737
  0
ARC
  5
1E270
  8
0
 10
4431.3217058273839939
 20
259.7300565205392786
 30
0.0
 40
0.7698570943083535
 50
96.3273584113726997
 51
102.3409670549298056
  0
ARC
  5
1E271
  8
0
 10
4431.2273460924971005
 20
260.1449257146664991
 30
0.0
 40
0.3444247587703652
 50
101.7570916348555983
 51
114.0304268994575949
  0
ARC
  5
1E272
  8
0
 10
4431.118925062614835
 20
260.3810623589300803
 30
0.0
 40
0.0846513038390122
 50
112.0914821639223931
 51
138.4735635191836138
  0
ARC
  5
1E273
  8
0
 10
4431.0771855050552404
 20
260.4188088271762922
 30
0.0
 40
0.0283844503306533
 50
139.6585464931374077
 51
170.5835821631447971
  0
ARC
  5
1E274
  8
0
 10
4431.0709186773356123
 20
260.4206308829690215
 30
0.0
 40
0.0219175692054749
 50
172.6026374940466894
 51
203.2851822088605047
  0
ARC
  5
1E275
  8
0
 10
4431.0897090097732871
 20
260.4303497554433875
 30
0.0
 40
0.0430454696070239
 50
205.2812184808265101
 51
231.8911013514259878
  0
ARC
  5
1E276
  8
0
 10
4431.142089476646106
 20
260.4975565208159196
 30
0.0
 40
0.1282536825245988
 50
232.00823393980221
 51
247.7305732033229049
  0
ARC
  5
1E277
  8
0
 10
4431.2777287871140288
 20
260.8597764453515992
 30
0.0
 40
0.5149925287449082
 50
249.0374365624556958
 51
264.0890666937459059
  0
ARC
  5
1E278
  8
0
 10
4431.3573267411520646
 20
261.4101167999995141
 30
0.0
 40
1.0708404023675631
 50
262.8851376669881006
 51
267.6537982112097893
  0
ARC
  5
1E279
  8
0
 10
4431.0887993950436794
 20
260.441227241892193
 30
0.0
 40
0.0420380952003657
 50
206.5913815088999002
 51
231.2669740311264093
  0
ARC
  5
1E27A
  8
0
 10
4431.1473720261274138
 20
260.5168208049632881
 30
0.0
 40
0.1376641936575803
 50
231.9360603264730969
 51
250.0088421656525099
  0
ARC
  5
1E27B
  8
0
 10
4431.2636375433921785
 20
260.8297935754147261
 30
0.0
 40
0.4715326276722556
 50
249.7339400100840976
 51
261.3922652468918955
  0
ARC
  5
1E27C
  8
0
 10
4431.3511441661703429
 20
261.3435471533775853
 30
0.0
 40
0.9926430880702897
 50
260.8365201374521121
 51
267.1786424741388259
  0
ARC
  5
1E27D
  8
0
 10
4431.2525171206088999
 20
259.7225670800107764
 30
0.0
 40
0.852046026438419
 50
95.0615048052817286
 51
109.1062559496829039
  0
ARC
  5
1E27E
  8
0
 10
4431.039703827636913
 20
260.3320192175833085
 30
0.0
 40
0.2065146202854033
 50
108.6613576805541044
 51
125.8174208078590937
  0
ARC
  5
1E27F
  8
0
 10
4430.961736386724624
 20
260.4372555372979718
 30
0.0
 40
0.0755708449207964
 50
124.5754674214873035
 51
147.7829672778275096
  0
ARC
  5
1E280
  8
0
 10
4430.9328288031729244
 20
260.4566984017624804
 30
0.0
 40
0.0407617099875345
 50
149.2420281512636109
 51
172.0872799910972049
  0
ARC
  5
1E281
  8
0
 10
4434.0696775562119001
 20
256.4698727294050968
 30
0.0
 40
0.8216125955459584
 50
260.2129032802594111
 51
269.2341220414184022
  0
ARC
  5
1E282
  8
0
 10
4434.0694316796816565
 20
256.3981210969304811
 30
0.0
 40
0.7498644258703147
 50
269.1796256108092962
 51
280.1808336320236208
  0
LINE
  5
1E283
  8
0
 10
4434.2498886325702188
 20
255.6602150735513135
 30
0.0
 11
4434.2037101527712366
 21
255.6602177147512975
 31
0.0
  0
LINE
  5
1E284
  8
0
 10
4434.2019743419714359
 20
255.6600634434512926
 30
0.0
 11
4434.2037101527712366
 21
255.6602177147512975
 31
0.0
  0
ARC
  5
1E285
  8
0
 10
4434.5524973955380119
 20
254.038166505948908
 30
0.0
 40
0.031492098449126
 50
269.9927589668967016
 51
0.0568764311959473
  0
LINE
  5
1E286
  8
0
 10
4432.0175241941697095
 20
260.5438585515512955
 30
0.0
 11
4432.02075610592874
 21
260.5743752399571918
 31
0.0
  0
LINE
  5
1E287
  8
0
 10
4432.0412796951868586
 20
260.585980141462187
 30
0.0
 11
4432.0457706669403706
 21
260.6409650408388075
 31
0.0
  0
LINE
  5
1E288
  8
0
 10
4432.169770876770599
 20
260.6292575527513122
 30
0.0
 11
4432.169770876770599
 21
260.6808435948053102
 31
0.0
  0
LINE
  5
1E289
  8
0
 10
4432.1066709673696096
 20
260.6292575527513122
 30
0.0
 11
4432.1066709673696096
 21
260.6526939229513005
 31
0.0
  0
LINE
  5
1E28A
  8
0
 10
4432.0991914088699559
 20
260.6409757378513063
 30
0.0
 11
4432.0991914088699559
 21
260.6704855200417228
 31
0.0
  0
LINE
  5
1E28B
  8
0
 10
4431.8354551883712702
 20
260.6647235757748717
 30
0.0
 11
4431.8354551883712702
 21
260.4592219625512826
 31
0.0
  0
LINE
  5
1E28C
  8
0
 10
4431.6462591240706388
 20
260.712297918451327
 30
0.0
 11
4431.6241341642707994
 21
260.777816963351313
 31
0.0
  0
LINE
  5
1E28D
  8
0
 10
4431.7787327971700506
 20
260.6862606410513195
 30
0.0
 11
4431.7539130682707764
 21
260.752399966751284
 31
0.0
  0
LINE
  5
1E28E
  8
0
 10
4431.8817586491777547
 20
260.6531834107104828
 30
0.0
 11
4431.8539758630813594
 21
260.719265898294509
 31
0.0
  0
LINE
  5
1E28F
  8
0
 10
4431.8855312730638616
 20
260.4943630091383966
 30
0.0
 11
4431.8550703601704299
 21
260.5596251582513219
 31
0.0
  0
LINE
  5
1E290
  8
0
 10
4431.9494295751146637
 20
260.6137635781694826
 30
0.0
 11
4431.9307630748717202
 21
260.653021330611125
 31
0.0
  0
LINE
  5
1E291
  8
0
 10
4431.9528864055710073
 20
260.5317145710512818
 30
0.0
 11
4431.9186709646855888
 21
260.5979304980371012
 31
0.0
  0
LINE
  5
1E292
  8
0
 10
4431.9766498974822753
 20
260.5727075988008892
 30
0.0
 11
4431.9551382396603003
 21
260.6124213688952977
 31
0.0
  0
LINE
  5
1E293
  8
0
 10
4431.9474476071236495
 20
260.6600307197576853
 30
0.0
 11
4431.9579340697891894
 21
260.719943513857686
 31
0.0
  0
LINE
  5
1E294
  8
0
 10
4431.9505803275969811
 20
260.5037300692067106
 30
0.0
 11
4431.9547401856962097
 21
260.5311311199326951
 31
0.0
  0
LINE
  5
1E295
  8
0
 10
4432.0144660524629217
 20
260.6240219599279726
 30
0.0
 11
4432.0220469838714052
 21
260.6816995729512882
 31
0.0
  0
LINE
  5
1E296
  8
0
 10
4431.7261599127696172
 20
260.4713515547113047
 30
0.0
 11
4431.7261599127696172
 21
260.4206381694513084
 31
0.0
  0
LINE
  5
1E297
  8
0
 10
4431.7179506404700078
 20
260.4007933655852867
 30
0.0
 11
4431.7179506404700078
 21
260.3964320318513046
 31
0.0
  0
LINE
  5
1E298
  8
0
 10
4431.7179506404700078
 20
260.4448443070513122
 30
0.0
 11
4431.7179506404700078
 21
260.475755392231008
 31
0.0
  0
LINE
  5
1E299
  8
0
 10
4431.6804001707723728
 20
260.4916750517119794
 30
0.0
 11
4431.6804001707723728
 21
260.4683075095513232
 31
0.0
  0
LINE
  5
1E29A
  8
0
 10
4431.6769975365714345
 20
260.4677949360512912
 30
0.0
 11
4431.6769975365714345
 21
260.4928027906577199
 31
0.0
  0
LINE
  5
1E29B
  8
0
 10
4431.628653883070001
 20
260.4626579697513193
 30
0.0
 11
4431.628653883070001
 21
260.4550522546513207
 31
0.0
  0
LINE
  5
1E29C
  8
0
 10
4431.628653883070001
 20
260.4439243861513091
 30
0.0
 11
4431.628653883070001
 21
260.4363186709513229
 31
0.0
  0
LINE
  5
1E29D
  8
0
 10
4431.628653883070001
 20
260.4251908024513114
 30
0.0
 11
4431.628653883070001
 21
260.4175850873513127
 31
0.0
  0
LINE
  5
1E29E
  8
0
 10
4431.628653883070001
 20
260.4064572188513011
 30
0.0
 11
4431.628653883070001
 21
260.3988515036513149
 31
0.0
  0
LINE
  5
1E29F
  8
0
 10
4431.6059235574703052
 20
260.4626579697513193
 30
0.0
 11
4431.6059235574703052
 21
260.4550522546513207
 31
0.0
  0
LINE
  5
1E2A0
  8
0
 10
4431.6059235574703052
 20
260.4439243861513091
 30
0.0
 11
4431.6059235574703052
 21
260.4363186709513229
 31
0.0
  0
LINE
  5
1E2A1
  8
0
 10
4431.6059235574703052
 20
260.4251908024513114
 30
0.0
 11
4431.6059235574703052
 21
260.4175850873513127
 31
0.0
  0
LINE
  5
1E2A2
  8
0
 10
4431.6059235574703052
 20
260.4064572188513011
 30
0.0
 11
4431.6059235574703052
 21
260.3988515036513149
 31
0.0
  0
LINE
  5
1E2A3
  8
0
 10
4431.5924633784698017
 20
260.472024761651312
 30
0.0
 11
4431.5924633784698017
 21
260.4644190464513258
 31
0.0
  0
LINE
  5
1E2A4
  8
0
 10
4431.5924633784698017
 20
260.4532911779513142
 30
0.0
 11
4431.5924633784698017
 21
260.445685462751328
 31
0.0
  0
LINE
  5
1E2A5
  8
0
 10
4431.5924633784698017
 20
260.434557594351304
 30
0.0
 11
4431.5924633784698017
 21
260.4269518791513178
 31
0.0
  0
LINE
  5
1E2A6
  8
0
 10
4431.5924633784698017
 20
260.3970904269513085
 30
0.0
 11
4431.5924633784698017
 21
260.3894847118513098
 31
0.0
  0
LINE
  5
1E2A7
  8
0
 10
4431.5924633784698017
 20
260.4158240106513063
 30
0.0
 11
4431.5924633784698017
 21
260.40821829545132
 31
0.0
  0
LINE
  5
1E2A8
  8
0
 10
4431.5697330529701503
 20
260.472024761651312
 30
0.0
 11
4431.5697330529701503
 21
260.4644190464513258
 31
0.0
  0
LINE
  5
1E2A9
  8
0
 10
4431.5697330529701503
 20
260.4532911779513142
 30
0.0
 11
4431.5697330529701503
 21
260.445685462751328
 31
0.0
  0
LINE
  5
1E2AA
  8
0
 10
4431.5697330529701503
 20
260.434557594351304
 30
0.0
 11
4431.5697330529701503
 21
260.4269518791513178
 31
0.0
  0
LINE
  5
1E2AB
  8
0
 10
4431.5697330529701503
 20
260.3970904269513085
 30
0.0
 11
4431.5697330529701503
 21
260.3894847118513098
 31
0.0
  0
LINE
  5
1E2AC
  8
0
 10
4431.5697330529701503
 20
260.4158240106513063
 30
0.0
 11
4431.5697330529701503
 21
260.40821829545132
 31
0.0
  0
LINE
  5
1E2AD
  8
0
 10
4431.5562728739705562
 20
260.4813915534513171
 30
0.0
 11
4431.5562728739705562
 21
260.4737858382512741
 31
0.0
  0
LINE
  5
1E2AE
  8
0
 10
4431.5562728739705562
 20
260.4626579697513193
 30
0.0
 11
4431.5562728739705562
 21
260.4550522546513207
 31
0.0
  0
LINE
  5
1E2AF
  8
0
 10
4431.5562728739705562
 20
260.4439243861513091
 30
0.0
 11
4431.5562728739705562
 21
260.4363186709513229
 31
0.0
  0
LINE
  5
1E2B0
  8
0
 10
4431.5562728739705562
 20
260.4251908024513114
 30
0.0
 11
4431.5562728739705562
 21
260.4175850873513127
 31
0.0
  0
LINE
  5
1E2B1
  8
0
 10
4431.5562728739705562
 20
260.4064572188513011
 30
0.0
 11
4431.5562728739705562
 21
260.3988515036513149
 31
0.0
  0
LINE
  5
1E2B2
  8
0
 10
4431.5562728739705562
 20
260.3877236351513034
 30
0.0
 11
4431.5562728739705562
 21
260.3801179199513172
 31
0.0
  0
LINE
  5
1E2B3
  8
0
 10
4431.5505650755703755
 20
260.6910654115512784
 30
0.0
 11
4431.5505650755703755
 21
260.5712906090512888
 31
0.0
  0
LINE
  5
1E2B4
  8
0
 10
4431.5481353752711584
 20
260.3398773355642106
 30
0.0
 11
4431.5481353752711584
 21
260.3387361813512939
 31
0.0
  0
LINE
  5
1E2B5
  8
0
 10
4431.5481353752711584
 20
260.5025401576513104
 30
0.0
 11
4431.5481353752711584
 21
260.5208292830361074
 31
0.0
  0
LINE
  5
1E2B6
  8
0
 10
4431.533542548369951
 20
260.4813915534513171
 30
0.0
 11
4431.533542548369951
 21
260.4737858382512741
 31
0.0
  0
LINE
  5
1E2B7
  8
0
 10
4431.533542548369951
 20
260.4626579697513193
 30
0.0
 11
4431.533542548369951
 21
260.4550522546513207
 31
0.0
  0
LINE
  5
1E2B8
  8
0
 10
4431.533542548369951
 20
260.4439243861513091
 30
0.0
 11
4431.533542548369951
 21
260.4363186709513229
 31
0.0
  0
LINE
  5
1E2B9
  8
0
 10
4431.533542548369951
 20
260.4251908024513114
 30
0.0
 11
4431.533542548369951
 21
260.4175850873513127
 31
0.0
  0
LINE
  5
1E2BA
  8
0
 10
4431.533542548369951
 20
260.4064572188513011
 30
0.0
 11
4431.533542548369951
 21
260.3988515036513149
 31
0.0
  0
LINE
  5
1E2BB
  8
0
 10
4431.533542548369951
 20
260.3877236351513034
 30
0.0
 11
4431.533542548369951
 21
260.3801179199513172
 31
0.0
  0
LINE
  5
1E2BC
  8
0
 10
4431.5200823693703569
 20
260.4907583452513222
 30
0.0
 11
4431.5200823693703569
 21
260.4831526301513236
 31
0.0
  0
LINE
  5
1E2BD
  8
0
 10
4431.5200823693703569
 20
260.472024761651312
 30
0.0
 11
4431.5200823693703569
 21
260.4644190464513258
 31
0.0
  0
LINE
  5
1E2BE
  8
0
 10
4431.5200823693703569
 20
260.4532911779513142
 30
0.0
 11
4431.5200823693703569
 21
260.445685462751328
 31
0.0
  0
LINE
  5
1E2BF
  8
0
 10
4431.5200823693703569
 20
260.434557594351304
 30
0.0
 11
4431.5200823693703569
 21
260.4269518791513178
 31
0.0
  0
LINE
  5
1E2C0
  8
0
 10
4431.5200823693703569
 20
260.3970904269513085
 30
0.0
 11
4431.5200823693703569
 21
260.3894847118513098
 31
0.0
  0
LINE
  5
1E2C1
  8
0
 10
4431.5200823693703569
 20
260.4158240106513063
 30
0.0
 11
4431.5200823693703569
 21
260.40821829545132
 31
0.0
  0
LINE
  5
1E2C2
  8
0
 10
4431.5200823693703569
 20
260.3783568433512983
 30
0.0
 11
4431.5200823693703569
 21
260.3707511281513121
 31
0.0
  0
LINE
  5
1E2C3
  8
0
 10
4431.497352043869796
 20
260.4907583452513222
 30
0.0
 11
4431.497352043869796
 21
260.4831526301513236
 31
0.0
  0
LINE
  5
1E2C4
  8
0
 10
4431.497352043869796
 20
260.472024761651312
 30
0.0
 11
4431.497352043869796
 21
260.4644190464513258
 31
0.0
  0
LINE
  5
1E2C5
  8
0
 10
4431.497352043869796
 20
260.4532911779513142
 30
0.0
 11
4431.497352043869796
 21
260.445685462751328
 31
0.0
  0
LINE
  5
1E2C6
  8
0
 10
4431.497352043869796
 20
260.434557594351304
 30
0.0
 11
4431.497352043869796
 21
260.4269518791513178
 31
0.0
  0
LINE
  5
1E2C7
  8
0
 10
4431.497352043869796
 20
260.3970904269513085
 30
0.0
 11
4431.497352043869796
 21
260.3894847118513098
 31
0.0
  0
LINE
  5
1E2C8
  8
0
 10
4431.497352043869796
 20
260.4158240106513063
 30
0.0
 11
4431.497352043869796
 21
260.40821829545132
 31
0.0
  0
LINE
  5
1E2C9
  8
0
 10
4431.497352043869796
 20
260.3783568433512983
 30
0.0
 11
4431.497352043869796
 21
260.3707511281513121
 31
0.0
  0
LINE
  5
1E2CA
  8
0
 10
4431.483891864870202
 20
260.4960097425354206
 30
0.0
 11
4431.483891864870202
 21
260.4925194219512719
 31
0.0
  0
LINE
  5
1E2CB
  8
0
 10
4431.483891864870202
 20
260.4626579697513193
 30
0.0
 11
4431.483891864870202
 21
260.4550522546513207
 31
0.0
  0
LINE
  5
1E2CC
  8
0
 10
4431.483891864870202
 20
260.4813915534513171
 30
0.0
 11
4431.483891864870202
 21
260.4737858382512741
 31
0.0
  0
LINE
  5
1E2CD
  8
0
 10
4431.483891864870202
 20
260.4439243861513091
 30
0.0
 11
4431.483891864870202
 21
260.4363186709513229
 31
0.0
  0
LINE
  5
1E2CE
  8
0
 10
4431.483891864870202
 20
260.4251908024513114
 30
0.0
 11
4431.483891864870202
 21
260.4175850873513127
 31
0.0
  0
LINE
  5
1E2CF
  8
0
 10
4431.483891864870202
 20
260.4064572188513011
 30
0.0
 11
4431.483891864870202
 21
260.3988515036513149
 31
0.0
  0
LINE
  5
1E2D0
  8
0
 10
4431.483891864870202
 20
260.3877236351513034
 30
0.0
 11
4431.483891864870202
 21
260.3801179199513172
 31
0.0
  0
LINE
  5
1E2D1
  8
0
 10
4431.483891864870202
 20
260.3689900514513056
 30
0.0
 11
4431.483891864870202
 21
260.361384336351307
 31
0.0
  0
LINE
  5
1E2D2
  8
0
 10
4431.4611615392714157
 20
260.4981766674350183
 30
0.0
 11
4431.4611615392714157
 21
260.4925194219512719
 31
0.0
  0
LINE
  5
1E2D3
  8
0
 10
4431.4611615392714157
 20
260.4626579697513193
 30
0.0
 11
4431.4611615392714157
 21
260.4550522546513207
 31
0.0
  0
LINE
  5
1E2D4
  8
0
 10
4431.4611615392714157
 20
260.4813915534513171
 30
0.0
 11
4431.4611615392714157
 21
260.4737858382512741
 31
0.0
  0
LINE
  5
1E2D5
  8
0
 10
4431.4611615392714157
 20
260.4439243861513091
 30
0.0
 11
4431.4611615392714157
 21
260.4363186709513229
 31
0.0
  0
LINE
  5
1E2D6
  8
0
 10
4431.4611615392714157
 20
260.4251908024513114
 30
0.0
 11
4431.4611615392714157
 21
260.4175850873513127
 31
0.0
  0
LINE
  5
1E2D7
  8
0
 10
4431.4611615392714157
 20
260.4064572188513011
 30
0.0
 11
4431.4611615392714157
 21
260.3988515036513149
 31
0.0
  0
LINE
  5
1E2D8
  8
0
 10
4431.4611615392714157
 20
260.3877236351513034
 30
0.0
 11
4431.4611615392714157
 21
260.3801179199513172
 31
0.0
  0
LINE
  5
1E2D9
  8
0
 10
4431.4611615392714157
 20
260.3689900514513056
 30
0.0
 11
4431.4611615392714157
 21
260.361384336351307
 31
0.0
  0
LINE
  5
1E2DA
  8
0
 10
4431.4574805221709539
 20
260.5297353261896092
 30
0.0
 11
4431.4574805221709539
 21
260.51225893435128
 31
0.0
  0
LINE
  5
1E2DB
  8
0
 10
4431.4564751054267617
 20
260.5112772120439786
 30
0.0
 11
4431.4564748730772408
 21
260.5297983042773922
 31
0.0
  0
LINE
  5
1E2DC
  8
0
 10
4431.4477013602690931
 20
260.4907583452513222
 30
0.0
 11
4431.4477013602690931
 21
260.4831526301513236
 31
0.0
  0
LINE
  5
1E2DD
  8
0
 10
4431.4477013602690931
 20
260.472024761651312
 30
0.0
 11
4431.4477013602690931
 21
260.4644190464513258
 31
0.0
  0
LINE
  5
1E2DE
  8
0
 10
4431.4477013602690931
 20
260.4532911779513142
 30
0.0
 11
4431.4477013602690931
 21
260.445685462751328
 31
0.0
  0
LINE
  5
1E2DF
  8
0
 10
4431.4477013602690931
 20
260.434557594351304
 30
0.0
 11
4431.4477013602690931
 21
260.4269518791513178
 31
0.0
  0
LINE
  5
1E2E0
  8
0
 10
4431.4477013602690931
 20
260.4158240106513063
 30
0.0
 11
4431.4477013602690931
 21
260.40821829545132
 31
0.0
  0
LINE
  5
1E2E1
  8
0
 10
4431.4477013602690931
 20
260.3970904269513085
 30
0.0
 11
4431.4477013602690931
 21
260.3894847118513098
 31
0.0
  0
LINE
  5
1E2E2
  8
0
 10
4431.4477013602690931
 20
260.3783568433512983
 30
0.0
 11
4431.4477013602690931
 21
260.3707511281513121
 31
0.0
  0
LINE
  5
1E2E3
  8
0
 10
4431.4249710347703513
 20
260.4907583452513222
 30
0.0
 11
4431.4249710347703513
 21
260.4831526301513236
 31
0.0
  0
LINE
  5
1E2E4
  8
0
 10
4431.4249710347703513
 20
260.472024761651312
 30
0.0
 11
4431.4249710347703513
 21
260.4644190464513258
 31
0.0
  0
LINE
  5
1E2E5
  8
0
 10
4431.4249710347703513
 20
260.4532911779513142
 30
0.0
 11
4431.4249710347703513
 21
260.445685462751328
 31
0.0
  0
LINE
  5
1E2E6
  8
0
 10
4431.4249710347703513
 20
260.434557594351304
 30
0.0
 11
4431.4249710347703513
 21
260.4269518791513178
 31
0.0
  0
LINE
  5
1E2E7
  8
0
 10
4431.4249710347703513
 20
260.4158240106513063
 30
0.0
 11
4431.4249710347703513
 21
260.40821829545132
 31
0.0
  0
LINE
  5
1E2E8
  8
0
 10
4431.4249710347703513
 20
260.3970904269513085
 30
0.0
 11
4431.4249710347703513
 21
260.3894847118513098
 31
0.0
  0
LINE
  5
1E2E9
  8
0
 10
4431.4249710347703513
 20
260.3783568433512983
 30
0.0
 11
4431.4249710347703513
 21
260.3707511281513121
 31
0.0
  0
LINE
  5
1E2EA
  8
0
 10
4431.4115108557698477
 20
260.5001251371513149
 30
0.0
 11
4431.4115108557698477
 21
260.4925194219512719
 31
0.0
  0
LINE
  5
1E2EB
  8
0
 10
4431.4115108557698477
 20
260.4626579697513193
 30
0.0
 11
4431.4115108557698477
 21
260.4550522546513207
 31
0.0
  0
LINE
  5
1E2EC
  8
0
 10
4431.4115108557698477
 20
260.4813915534513171
 30
0.0
 11
4431.4115108557698477
 21
260.4737858382512741
 31
0.0
  0
LINE
  5
1E2ED
  8
0
 10
4431.4115108557698477
 20
260.4439243861513091
 30
0.0
 11
4431.4115108557698477
 21
260.4363186709513229
 31
0.0
  0
LINE
  5
1E2EE
  8
0
 10
4431.4115108557698477
 20
260.4251908024513114
 30
0.0
 11
4431.4115108557698477
 21
260.4175850873513127
 31
0.0
  0
LINE
  5
1E2EF
  8
0
 10
4431.4115108557698477
 20
260.4064572188513011
 30
0.0
 11
4431.4115108557698477
 21
260.3988515036513149
 31
0.0
  0
LINE
  5
1E2F0
  8
0
 10
4431.4115108557698477
 20
260.3877236351513034
 30
0.0
 11
4431.4115108557698477
 21
260.3801179199513172
 31
0.0
  0
LINE
  5
1E2F1
  8
0
 10
4431.4115108557698477
 20
260.3689900514513056
 30
0.0
 11
4431.4115108557698477
 21
260.361384336351307
 31
0.0
  0
LINE
  5
1E2F2
  8
0
 10
4431.4092307789696861
 20
260.833204726551287
 30
0.0
 11
4431.4092307789696861
 21
260.8542350878796015
 31
0.0
  0
LINE
  5
1E2F3
  8
0
 10
4431.3887805301710614
 20
260.5001251371513149
 30
0.0
 11
4431.3887805301710614
 21
260.4925194219512719
 31
0.0
  0
LINE
  5
1E2F4
  8
0
 10
4431.3887805301710614
 20
260.4626579697513193
 30
0.0
 11
4431.3887805301710614
 21
260.4550522546513207
 31
0.0
  0
LINE
  5
1E2F5
  8
0
 10
4431.3887805301710614
 20
260.4813915534513171
 30
0.0
 11
4431.3887805301710614
 21
260.4737858382512741
 31
0.0
  0
LINE
  5
1E2F6
  8
0
 10
4431.3887805301710614
 20
260.4439243861513091
 30
0.0
 11
4431.3887805301710614
 21
260.4363186709513229
 31
0.0
  0
LINE
  5
1E2F7
  8
0
 10
4431.3887805301710614
 20
260.4251908024513114
 30
0.0
 11
4431.3887805301710614
 21
260.4175850873513127
 31
0.0
  0
LINE
  5
1E2F8
  8
0
 10
4431.3887805301710614
 20
260.4064572188513011
 30
0.0
 11
4431.3887805301710614
 21
260.3988515036513149
 31
0.0
  0
LINE
  5
1E2F9
  8
0
 10
4431.3887805301710614
 20
260.3877236351513034
 30
0.0
 11
4431.3887805301710614
 21
260.3801179199513172
 31
0.0
  0
LINE
  5
1E2FA
  8
0
 10
4431.3887805301710614
 20
260.3689900514513056
 30
0.0
 11
4431.3887805301710614
 21
260.361384336351307
 31
0.0
  0
LINE
  5
1E2FB
  8
0
 10
4431.4931350589531576
 20
260.7290008213482224
 30
0.0
 11
4431.4733405816714367
 21
260.7938061444511959
 31
0.0
  0
LINE
  5
1E2FC
  8
0
 10
4431.4564781783819853
 20
260.3299993365404816
 30
0.0
 11
4431.4574805221709539
 21
260.3290174046513243
 31
0.0
  0
LINE
  5
1E2FD
  8
0
 10
4431.5590551460591087
 20
260.7298820549415836
 30
0.0
 11
4431.5767445985420636
 21
260.7938688980473216
 31
0.0
  0
LINE
  5
1E2FE
  8
0
 10
4431.7121178243696704
 20
260.7150718677513055
 30
0.0
 11
4431.7276229696772134
 21
260.7780267879757048
 31
0.0
  0
LINE
  5
1E2FF
  8
0
 10
4431.8444500076866461
 20
260.691171571566997
 30
0.0
 11
4431.8575772059757583
 21
260.7528057463757136
 31
0.0
  0
LINE
  5
1E300
  8
0
 10
4431.8476212076711818
 20
260.4694534039513201
 30
0.0
 11
4431.8588651310819841
 21
260.5277639328106147
 31
0.0
  0
LINE
  5
1E301
  8
0
 10
4431.5924633784698017
 20
260.4746087726513224
 30
0.0
 11
4431.6038285412705591
 21
260.4695139095513241
 31
0.0
  0
LINE
  5
1E302
  8
0
 10
4431.6030414676706641
 20
260.4639499752512961
 30
0.0
 11
4431.6059235574703052
 21
260.4626579697513193
 31
0.0
  0
LINE
  5
1E303
  8
0
 10
4431.5562728739705562
 20
260.4839755644513275
 30
0.0
 11
4431.5676380366703597
 21
260.4788807013512724
 31
0.0
  0
LINE
  5
1E304
  8
0
 10
4431.628653883070001
 20
260.4465083971513195
 30
0.0
 11
4431.6400190457698045
 21
260.4414135340513212
 31
0.0
  0
LINE
  5
1E305
  8
0
 10
4431.5668509631714187
 20
260.4733167671512888
 30
0.0
 11
4431.5697330529701503
 21
260.472024761651312
 31
0.0
  0
LINE
  5
1E306
  8
0
 10
4431.6059235574703052
 20
260.4550522546513207
 30
0.0
 11
4431.5945583946695479
 21
260.460147117751319
 31
0.0
  0
LINE
  5
1E307
  8
0
 10
4431.5265288587143004
 20
260.4904524741443765
 30
0.0
 11
4431.5314475321702048
 21
260.4882474931512775
 31
0.0
  0
LINE
  5
1E308
  8
0
 10
4431.5924633784698017
 20
260.4558751889513246
 30
0.0
 11
4431.6038285412705591
 21
260.4507803258513263
 31
0.0
  0
LINE
  5
1E309
  8
0
 10
4431.5306604585712194
 20
260.4826835589512939
 30
0.0
 11
4431.533542548369951
 21
260.4813915534513171
 31
0.0
  0
LINE
  5
1E30A
  8
0
 10
4431.5697330529701503
 20
260.4644190464513258
 30
0.0
 11
4431.5583678901712119
 21
260.4695139095513241
 31
0.0
  0
LINE
  5
1E30B
  8
0
 10
4431.6030414676706641
 20
260.4452163916512859
 30
0.0
 11
4431.6059235574703052
 21
260.4439243861513091
 31
0.0
  0
LINE
  5
1E30C
  8
0
 10
4431.5562728739705562
 20
260.4652419808513173
 30
0.0
 11
4431.5676380366703597
 21
260.460147117751319
 31
0.0
  0
LINE
  5
1E30D
  8
0
 10
4431.4944699540701549
 20
260.492050350751299
 30
0.0
 11
4431.497352043869796
 21
260.4907583452513222
 31
0.0
  0
LINE
  5
1E30E
  8
0
 10
4431.533542548369951
 20
260.4737858382512741
 30
0.0
 11
4431.5221773855701031
 21
260.4788807013512724
 31
0.0
  0
LINE
  5
1E30F
  8
0
 10
4431.628653883070001
 20
260.4277748134513217
 30
0.0
 11
4431.6400190457698045
 21
260.4226799503513234
 31
0.0
  0
LINE
  5
1E310
  8
0
 10
4431.5668509631714187
 20
260.454583183451291
 30
0.0
 11
4431.5697330529701503
 21
260.4532911779513142
 31
0.0
  0
LINE
  5
1E311
  8
0
 10
4431.6059235574703052
 20
260.4363186709513229
 30
0.0
 11
4431.5945583946695479
 21
260.4414135340513212
 31
0.0
  0
LINE
  5
1E312
  8
0
 10
4431.5200823693703569
 20
260.4746087726513224
 30
0.0
 11
4431.5314475321702048
 21
260.4695139095513241
 31
0.0
  0
LINE
  5
1E313
  8
0
 10
4431.497352043869796
 20
260.4831526301513236
 30
0.0
 11
4431.4859868810699481
 21
260.4882474931512775
 31
0.0
  0
LINE
  5
1E314
  8
0
 10
4431.5924633784698017
 20
260.4371416053513144
 30
0.0
 11
4431.6038285412705591
 21
260.4320467422513161
 31
0.0
  0
LINE
  5
1E315
  8
0
 10
4431.5306604585712194
 20
260.4639499752512961
 30
0.0
 11
4431.533542548369951
 21
260.4626579697513193
 31
0.0
  0
LINE
  5
1E316
  8
0
 10
4431.5697330529701503
 20
260.445685462751328
 30
0.0
 11
4431.5583678901712119
 21
260.4507803258513263
 31
0.0
  0
LINE
  5
1E317
  8
0
 10
4431.483891864870202
 20
260.4839755644513275
 30
0.0
 11
4431.4952570275700054
 21
260.4788807013512724
 31
0.0
  0
LINE
  5
1E318
  8
0
 10
4431.4611615392714157
 20
260.4925194219512719
 30
0.0
 11
4431.4497963764715678
 21
260.497614285051327
 31
0.0
  0
LINE
  5
1E319
  8
0
 10
4431.6030414676706641
 20
260.4264828079512881
 30
0.0
 11
4431.6059235574703052
 21
260.4251908024513114
 31
0.0
  0
LINE
  5
1E31A
  8
0
 10
4431.5562728739705562
 20
260.4465083971513195
 30
0.0
 11
4431.5676380366703597
 21
260.4414135340513212
 31
0.0
  0
LINE
  5
1E31B
  8
0
 10
4431.4944699540701549
 20
260.4733167671512888
 30
0.0
 11
4431.497352043869796
 21
260.472024761651312
 31
0.0
  0
LINE
  5
1E31C
  8
0
 10
4431.533542548369951
 20
260.4550522546513207
 30
0.0
 11
4431.5221773855701031
 21
260.460147117751319
 31
0.0
  0
LINE
  5
1E31D
  8
0
 10
4431.4477013602690931
 20
260.4933423562512758
 30
0.0
 11
4431.459066523068941
 21
260.4882474931512775
 31
0.0
  0
LINE
  5
1E31E
  8
0
 10
4431.628653883070001
 20
260.4090412298513115
 30
0.0
 11
4431.6400190457698045
 21
260.4039463667513132
 31
0.0
  0
LINE
  5
1E31F
  8
0
 10
4431.5668509631714187
 20
260.4358495998512808
 30
0.0
 11
4431.5697330529701503
 21
260.434557594351304
 31
0.0
  0
LINE
  5
1E320
  8
0
 10
4431.6059235574703052
 20
260.4175850873513127
 30
0.0
 11
4431.5945583946695479
 21
260.4226799503513234
 31
0.0
  0
LINE
  5
1E321
  8
0
 10
4431.5200823693703569
 20
260.4558751889513246
 30
0.0
 11
4431.5314475321702048
 21
260.4507803258513263
 31
0.0
  0
LINE
  5
1E322
  8
0
 10
4431.4582794494708651
 20
260.4826835589512939
 30
0.0
 11
4431.4611615392714157
 21
260.4813915534513171
 31
0.0
  0
LINE
  5
1E323
  8
0
 10
4431.497352043869796
 20
260.4644190464513258
 30
0.0
 11
4431.4859868810699481
 21
260.4695139095513241
 31
0.0
  0
LINE
  5
1E324
  8
0
 10
4431.415170872728595
 20
260.5010684074258052
 30
0.0
 11
4431.4228760184696512
 21
260.497614285051327
 31
0.0
  0
LINE
  5
1E325
  8
0
 10
4431.5924633784698017
 20
260.4184080216513166
 30
0.0
 11
4431.6038285412705591
 21
260.4133131585513183
 31
0.0
  0
LINE
  5
1E326
  8
0
 10
4431.5306604585712194
 20
260.4452163916512859
 30
0.0
 11
4431.533542548369951
 21
260.4439243861513091
 31
0.0
  0
LINE
  5
1E327
  8
0
 10
4431.5697330529701503
 20
260.4269518791513178
 30
0.0
 11
4431.5583678901712119
 21
260.4320467422513161
 31
0.0
  0
LINE
  5
1E328
  8
0
 10
4431.483891864870202
 20
260.4652419808513173
 30
0.0
 11
4431.4952570275700054
 21
260.460147117751319
 31
0.0
  0
LINE
  5
1E329
  8
0
 10
4431.4220889449707101
 20
260.492050350751299
 30
0.0
 11
4431.4249710347703513
 21
260.4907583452513222
 31
0.0
  0
LINE
  5
1E32A
  8
0
 10
4431.4611615392714157
 20
260.4737858382512741
 30
0.0
 11
4431.4497963764715678
 21
260.4788807013512724
 31
0.0
  0
LINE
  5
1E32B
  8
0
 10
4431.6030414676706641
 20
260.4077492243512779
 30
0.0
 11
4431.6059235574703052
 21
260.4064572188513011
 31
0.0
  0
LINE
  5
1E32C
  8
0
 10
4431.5562728739705562
 20
260.4277748134513217
 30
0.0
 11
4431.5676380366703597
 21
260.4226799503513234
 31
0.0
  0
LINE
  5
1E32D
  8
0
 10
4431.4944699540701549
 20
260.454583183451291
 30
0.0
 11
4431.497352043869796
 21
260.4532911779513142
 31
0.0
  0
LINE
  5
1E32E
  8
0
 10
4431.533542548369951
 20
260.4363186709513229
 30
0.0
 11
4431.5221773855701031
 21
260.4414135340513212
 31
0.0
  0
LINE
  5
1E32F
  8
0
 10
4431.4477013602690931
 20
260.4746087726513224
 30
0.0
 11
4431.459066523068941
 21
260.4695139095513241
 31
0.0
  0
LINE
  5
1E330
  8
0
 10
4431.3858984403696013
 20
260.5014171426512917
 30
0.0
 11
4431.3887805301710614
 21
260.5001251371513149
 31
0.0
  0
LINE
  5
1E331
  8
0
 10
4431.4249710347703513
 20
260.4831526301513236
 30
0.0
 11
4431.4136058719695939
 21
260.4882474931512775
 31
0.0
  0
LINE
  5
1E332
  8
0
 10
4431.5668509631714187
 20
260.417116016151283
 30
0.0
 11
4431.5697330529701503
 21
260.4158240106513063
 31
0.0
  0
LINE
  5
1E333
  8
0
 10
4431.6059235574703052
 20
260.3988515036513149
 30
0.0
 11
4431.5945583946695479
 21
260.4039463667513132
 31
0.0
  0
LINE
  5
1E334
  8
0
 10
4431.5200823693703569
 20
260.4371416053513144
 30
0.0
 11
4431.5314475321702048
 21
260.4320467422513161
 31
0.0
  0
LINE
  5
1E335
  8
0
 10
4431.4582794494708651
 20
260.4639499752512961
 30
0.0
 11
4431.4611615392714157
 21
260.4626579697513193
 31
0.0
  0
LINE
  5
1E336
  8
0
 10
4431.497352043869796
 20
260.445685462751328
 30
0.0
 11
4431.4859868810699481
 21
260.4507803258513263
 31
0.0
  0
LINE
  5
1E337
  8
0
 10
4431.4115108557698477
 20
260.4839755644513275
 30
0.0
 11
4431.4228760184696512
 21
260.4788807013512724
 31
0.0
  0
LINE
  5
1E338
  8
0
 10
4431.3887805301710614
 20
260.4925194219512719
 30
0.0
 11
4431.3774153673712135
 21
260.497614285051327
 31
0.0
  0
LINE
  5
1E339
  8
0
 10
4431.5924633784698017
 20
260.3996744380513064
 30
0.0
 11
4431.6038285412705591
 21
260.3945795749513081
 31
0.0
  0
LINE
  5
1E33A
  8
0
 10
4431.5306604585712194
 20
260.4264828079512881
 30
0.0
 11
4431.533542548369951
 21
260.4251908024513114
 31
0.0
  0
LINE
  5
1E33B
  8
0
 10
4431.5697330529701503
 20
260.40821829545132
 30
0.0
 11
4431.5583678901712119
 21
260.4133131585513183
 31
0.0
  0
LINE
  5
1E33C
  8
0
 10
4431.483891864870202
 20
260.4465083971513195
 30
0.0
 11
4431.4952570275700054
 21
260.4414135340513212
 31
0.0
  0
LINE
  5
1E33D
  8
0
 10
4431.4220889449707101
 20
260.4733167671512888
 30
0.0
 11
4431.4249710347703513
 21
260.472024761651312
 31
0.0
  0
LINE
  5
1E33E
  8
0
 10
4431.4611615392714157
 20
260.4550522546513207
 30
0.0
 11
4431.4497963764715678
 21
260.460147117751319
 31
0.0
  0
LINE
  5
1E33F
  8
0
 10
4431.5562728739705562
 20
260.4090412298513115
 30
0.0
 11
4431.5676380366703597
 21
260.4039463667513132
 31
0.0
  0
LINE
  5
1E340
  8
0
 10
4431.4944699540701549
 20
260.4358495998512808
 30
0.0
 11
4431.497352043869796
 21
260.434557594351304
 31
0.0
  0
LINE
  5
1E341
  8
0
 10
4431.533542548369951
 20
260.4175850873513127
 30
0.0
 11
4431.5221773855701031
 21
260.4226799503513234
 31
0.0
  0
LINE
  5
1E342
  8
0
 10
4431.4477013602690931
 20
260.4558751889513246
 30
0.0
 11
4431.459066523068941
 21
260.4507803258513263
 31
0.0
  0
LINE
  5
1E343
  8
0
 10
4431.3858984403696013
 20
260.4826835589512939
 30
0.0
 11
4431.3887805301710614
 21
260.4813915534513171
 31
0.0
  0
LINE
  5
1E344
  8
0
 10
4431.4249710347703513
 20
260.4644190464513258
 30
0.0
 11
4431.4136058719695939
 21
260.4695139095513241
 31
0.0
  0
LINE
  5
1E345
  8
0
 10
4431.5668509631714187
 20
260.3983824324512852
 30
0.0
 11
4431.5697330529701503
 21
260.3970904269513085
 31
0.0
  0
LINE
  5
1E346
  8
0
 10
4431.5200823693703569
 20
260.4184080216513166
 30
0.0
 11
4431.5314475321702048
 21
260.4133131585513183
 31
0.0
  0
LINE
  5
1E347
  8
0
 10
4431.4582794494708651
 20
260.4452163916512859
 30
0.0
 11
4431.4611615392714157
 21
260.4439243861513091
 31
0.0
  0
LINE
  5
1E348
  8
0
 10
4431.497352043869796
 20
260.4269518791513178
 30
0.0
 11
4431.4859868810699481
 21
260.4320467422513161
 31
0.0
  0
LINE
  5
1E349
  8
0
 10
4431.4115108557698477
 20
260.4652419808513173
 30
0.0
 11
4431.4228760184696512
 21
260.460147117751319
 31
0.0
  0
LINE
  5
1E34A
  8
0
 10
4431.3887805301710614
 20
260.4737858382512741
 30
0.0
 11
4431.3774153673712135
 21
260.4788807013512724
 31
0.0
  0
LINE
  5
1E34B
  8
0
 10
4431.5306604585712194
 20
260.4077492243512779
 30
0.0
 11
4431.533542548369951
 21
260.4064572188513011
 31
0.0
  0
LINE
  5
1E34C
  8
0
 10
4431.5697330529701503
 20
260.3894847118513098
 30
0.0
 11
4431.5583678901712119
 21
260.3945795749513081
 31
0.0
  0
LINE
  5
1E34D
  8
0
 10
4431.483891864870202
 20
260.4277748134513217
 30
0.0
 11
4431.4952570275700054
 21
260.4226799503513234
 31
0.0
  0
LINE
  5
1E34E
  8
0
 10
4431.4220889449707101
 20
260.454583183451291
 30
0.0
 11
4431.4249710347703513
 21
260.4532911779513142
 31
0.0
  0
LINE
  5
1E34F
  8
0
 10
4431.4611615392714157
 20
260.4363186709513229
 30
0.0
 11
4431.4497963764715678
 21
260.4414135340513212
 31
0.0
  0
LINE
  5
1E350
  8
0
 10
4431.5562728739705562
 20
260.3903076461513137
 30
0.0
 11
4431.5676380366703597
 21
260.3852127830513155
 31
0.0
  0
LINE
  5
1E351
  8
0
 10
4431.4944699540701549
 20
260.417116016151283
 30
0.0
 11
4431.497352043869796
 21
260.4158240106513063
 31
0.0
  0
LINE
  5
1E352
  8
0
 10
4431.533542548369951
 20
260.3988515036513149
 30
0.0
 11
4431.5221773855701031
 21
260.4039463667513132
 31
0.0
  0
LINE
  5
1E353
  8
0
 10
4431.4477013602690931
 20
260.4371416053513144
 30
0.0
 11
4431.459066523068941
 21
260.4320467422513161
 31
0.0
  0
LINE
  5
1E354
  8
0
 10
4431.3858984403696013
 20
260.4639499752512961
 30
0.0
 11
4431.3887805301710614
 21
260.4626579697513193
 31
0.0
  0
LINE
  5
1E355
  8
0
 10
4431.4249710347703513
 20
260.445685462751328
 30
0.0
 11
4431.4136058719695939
 21
260.4507803258513263
 31
0.0
  0
LINE
  5
1E356
  8
0
 10
4431.5200823693703569
 20
260.3996744380513064
 30
0.0
 11
4431.5314475321702048
 21
260.3945795749513081
 31
0.0
  0
LINE
  5
1E357
  8
0
 10
4431.4582794494708651
 20
260.4264828079512881
 30
0.0
 11
4431.4611615392714157
 21
260.4251908024513114
 31
0.0
  0
LINE
  5
1E358
  8
0
 10
4431.497352043869796
 20
260.40821829545132
 30
0.0
 11
4431.4859868810699481
 21
260.4133131585513183
 31
0.0
  0
LINE
  5
1E359
  8
0
 10
4431.4115108557698477
 20
260.4465083971513195
 30
0.0
 11
4431.4228760184696512
 21
260.4414135340513212
 31
0.0
  0
LINE
  5
1E35A
  8
0
 10
4431.3887805301710614
 20
260.4550522546513207
 30
0.0
 11
4431.3774153673712135
 21
260.460147117751319
 31
0.0
  0
LINE
  5
1E35B
  8
0
 10
4431.5306604585712194
 20
260.3890156406512801
 30
0.0
 11
4431.533542548369951
 21
260.3877236351513034
 31
0.0
  0
LINE
  5
1E35C
  8
0
 10
4431.483891864870202
 20
260.4090412298513115
 30
0.0
 11
4431.4952570275700054
 21
260.4039463667513132
 31
0.0
  0
LINE
  5
1E35D
  8
0
 10
4431.4220889449707101
 20
260.4358495998512808
 30
0.0
 11
4431.4249710347703513
 21
260.434557594351304
 31
0.0
  0
LINE
  5
1E35E
  8
0
 10
4431.4611615392714157
 20
260.4175850873513127
 30
0.0
 11
4431.4497963764715678
 21
260.4226799503513234
 31
0.0
  0
LINE
  5
1E35F
  8
0
 10
4431.4944699540701549
 20
260.3983824324512852
 30
0.0
 11
4431.497352043869796
 21
260.3970904269513085
 31
0.0
  0
LINE
  5
1E360
  8
0
 10
4431.533542548369951
 20
260.3801179199513172
 30
0.0
 11
4431.5221773855701031
 21
260.3852127830513155
 31
0.0
  0
LINE
  5
1E361
  8
0
 10
4431.4477013602690931
 20
260.4184080216513166
 30
0.0
 11
4431.459066523068941
 21
260.4133131585513183
 31
0.0
  0
LINE
  5
1E362
  8
0
 10
4431.3858984403696013
 20
260.4452163916512859
 30
0.0
 11
4431.3887805301710614
 21
260.4439243861513091
 31
0.0
  0
LINE
  5
1E363
  8
0
 10
4431.4249710347703513
 20
260.4269518791513178
 30
0.0
 11
4431.4136058719695939
 21
260.4320467422513161
 31
0.0
  0
LINE
  5
1E364
  8
0
 10
4431.5200823693703569
 20
260.3809408543513086
 30
0.0
 11
4431.5314475321702048
 21
260.3758459912513104
 31
0.0
  0
LINE
  5
1E365
  8
0
 10
4431.4582794494708651
 20
260.4077492243512779
 30
0.0
 11
4431.4611615392714157
 21
260.4064572188513011
 31
0.0
  0
LINE
  5
1E366
  8
0
 10
4431.497352043869796
 20
260.3894847118513098
 30
0.0
 11
4431.4859868810699481
 21
260.3945795749513081
 31
0.0
  0
LINE
  5
1E367
  8
0
 10
4431.4115108557698477
 20
260.4277748134513217
 30
0.0
 11
4431.4228760184696512
 21
260.4226799503513234
 31
0.0
  0
LINE
  5
1E368
  8
0
 10
4431.3887805301710614
 20
260.4363186709513229
 30
0.0
 11
4431.3774153673712135
 21
260.4414135340513212
 31
0.0
  0
LINE
  5
1E369
  8
0
 10
4431.483891864870202
 20
260.3903076461513137
 30
0.0
 11
4431.4952570275700054
 21
260.3852127830513155
 31
0.0
  0
LINE
  5
1E36A
  8
0
 10
4431.4220889449707101
 20
260.417116016151283
 30
0.0
 11
4431.4249710347703513
 21
260.4158240106513063
 31
0.0
  0
LINE
  5
1E36B
  8
0
 10
4431.4611615392714157
 20
260.3988515036513149
 30
0.0
 11
4431.4497963764715678
 21
260.4039463667513132
 31
0.0
  0
LINE
  5
1E36C
  8
0
 10
4431.4944699540701549
 20
260.379648848851275
 30
0.0
 11
4431.497352043869796
 21
260.3783568433512983
 31
0.0
  0
LINE
  5
1E36D
  8
0
 10
4431.4477013602690931
 20
260.3996744380513064
 30
0.0
 11
4431.459066523068941
 21
260.3945795749513081
 31
0.0
  0
LINE
  5
1E36E
  8
0
 10
4431.3858984403696013
 20
260.4264828079512881
 30
0.0
 11
4431.3887805301710614
 21
260.4251908024513114
 31
0.0
  0
LINE
  5
1E36F
  8
0
 10
4431.4249710347703513
 20
260.40821829545132
 30
0.0
 11
4431.4136058719695939
 21
260.4133131585513183
 31
0.0
  0
LINE
  5
1E370
  8
0
 10
4431.4582794494708651
 20
260.3890156406512801
 30
0.0
 11
4431.4611615392714157
 21
260.3877236351513034
 31
0.0
  0
LINE
  5
1E371
  8
0
 10
4431.497352043869796
 20
260.3707511281513121
 30
0.0
 11
4431.4859868810699481
 21
260.3758459912513104
 31
0.0
  0
LINE
  5
1E372
  8
0
 10
4431.4115108557698477
 20
260.4090412298513115
 30
0.0
 11
4431.4228760184696512
 21
260.4039463667513132
 31
0.0
  0
LINE
  5
1E373
  8
0
 10
4431.3887805301710614
 20
260.4175850873513127
 30
0.0
 11
4431.3774153673712135
 21
260.4226799503513234
 31
0.0
  0
LINE
  5
1E374
  8
0
 10
4431.483891864870202
 20
260.3715740625513035
 30
0.0
 11
4431.4952570275700054
 21
260.3664791994513052
 31
0.0
  0
LINE
  5
1E375
  8
0
 10
4431.4220889449707101
 20
260.3983824324512852
 30
0.0
 11
4431.4249710347703513
 21
260.3970904269513085
 31
0.0
  0
LINE
  5
1E376
  8
0
 10
4431.4611615392714157
 20
260.3801179199513172
 30
0.0
 11
4431.4497963764715678
 21
260.3852127830513155
 31
0.0
  0
LINE
  5
1E377
  8
0
 10
4431.4477013602690931
 20
260.3809408543513086
 30
0.0
 11
4431.459066523068941
 21
260.3758459912513104
 31
0.0
  0
LINE
  5
1E378
  8
0
 10
4431.3858984403696013
 20
260.4077492243512779
 30
0.0
 11
4431.3887805301710614
 21
260.4064572188513011
 31
0.0
  0
LINE
  5
1E379
  8
0
 10
4431.4249710347703513
 20
260.3894847118513098
 30
0.0
 11
4431.4136058719695939
 21
260.3945795749513081
 31
0.0
  0
LINE
  5
1E37A
  8
0
 10
4431.4582794494708651
 20
260.3702820570513268
 30
0.0
 11
4431.4611615392714157
 21
260.3689900514513056
 31
0.0
  0
LINE
  5
1E37B
  8
0
 10
4431.4115108557698477
 20
260.3903076461513137
 30
0.0
 11
4431.4228760184696512
 21
260.3852127830513155
 31
0.0
  0
LINE
  5
1E37C
  8
0
 10
4431.3887805301710614
 20
260.3988515036513149
 30
0.0
 11
4431.3774153673712135
 21
260.4039463667513132
 31
0.0
  0
LINE
  5
1E37D
  8
0
 10
4431.4220889449707101
 20
260.379648848851275
 30
0.0
 11
4431.4249710347703513
 21
260.3783568433512983
 31
0.0
  0
LINE
  5
1E37E
  8
0
 10
4431.4611615392714157
 20
260.361384336351307
 30
0.0
 11
4431.4497963764715678
 21
260.3664791994513052
 31
0.0
  0
LINE
  5
1E37F
  8
0
 10
4431.3858984403696013
 20
260.3890156406512801
 30
0.0
 11
4431.3887805301710614
 21
260.3877236351513034
 31
0.0
  0
LINE
  5
1E380
  8
0
 10
4431.4249710347703513
 20
260.3707511281513121
 30
0.0
 11
4431.4136058719695939
 21
260.3758459912513104
 31
0.0
  0
LINE
  5
1E381
  8
0
 10
4431.4115108557698477
 20
260.3715740625513035
 30
0.0
 11
4431.4228760184696512
 21
260.3664791994513052
 31
0.0
  0
LINE
  5
1E382
  8
0
 10
4431.3887805301710614
 20
260.3801179199513172
 30
0.0
 11
4431.3774153673712135
 21
260.3852127830513155
 31
0.0
  0
LINE
  5
1E383
  8
0
 10
4431.3858984403696013
 20
260.3702820570513268
 30
0.0
 11
4431.3887805301710614
 21
260.3689900514513056
 31
0.0
  0
LINE
  5
1E384
  8
0
 10
4431.3887805301710614
 20
260.361384336351307
 30
0.0
 11
4431.3774153673712135
 21
260.3664791994513052
 31
0.0
  0
LINE
  5
1E385
  8
0
 10
4431.5481353752711584
 20
260.3387361813512939
 30
0.0
 11
4431.5461549431711319
 21
260.3396168478512891
 31
0.0
  0
LINE
  5
1E386
  8
0
 10
4431.4574805221709539
 20
260.51225893435128
 30
0.0
 11
4431.4564751054267617
 21
260.5112772120439786
 31
0.0
  0
LINE
  5
1E387
  8
0
 10
4431.5461549431711319
 20
260.5016594911513153
 30
0.0
 11
4431.5481353752711584
 21
260.5025401576513104
 31
0.0
  0
LINE
  5
1E388
  8
0
 10
4431.6400190457698045
 20
260.4039463667513132
 30
0.0
 11
4431.628653883070001
 21
260.3988515036513149
 31
0.0
  0
LINE
  5
1E389
  8
0
 10
4431.6038285412705591
 20
260.3945795749513081
 30
0.0
 11
4431.5924633784698017
 21
260.3894847118513098
 31
0.0
  0
LINE
  5
1E38A
  8
0
 10
4431.628653883070001
 20
260.4064572188513011
 30
0.0
 11
4431.6315359728696421
 21
260.4077492243512779
 31
0.0
  0
LINE
  5
1E38B
  8
0
 10
4431.5676380366703597
 20
260.3852127830513155
 30
0.0
 11
4431.5562728739705562
 21
260.3801179199513172
 31
0.0
  0
LINE
  5
1E38C
  8
0
 10
4431.5924633784698017
 20
260.3970904269513085
 30
0.0
 11
4431.5953454682712618
 21
260.3983824324512852
 31
0.0
  0
LINE
  5
1E38D
  8
0
 10
4431.6400190457698045
 20
260.4226799503513234
 30
0.0
 11
4431.628653883070001
 21
260.4175850873513127
 31
0.0
  0
LINE
  5
1E38E
  8
0
 10
4431.5945583946695479
 20
260.4039463667513132
 30
0.0
 11
4431.6059235574703052
 21
260.4090412298513115
 31
0.0
  0
LINE
  5
1E38F
  8
0
 10
4431.5314475321702048
 20
260.3758459912513104
 30
0.0
 11
4431.5200823693703569
 21
260.3707511281513121
 31
0.0
  0
LINE
  5
1E390
  8
0
 10
4431.5562728739705562
 20
260.3877236351513034
 30
0.0
 11
4431.5591549637701974
 21
260.3890156406512801
 31
0.0
  0
LINE
  5
1E391
  8
0
 10
4431.6038285412705591
 20
260.4133131585513183
 30
0.0
 11
4431.5924633784698017
 21
260.40821829545132
 31
0.0
  0
LINE
  5
1E392
  8
0
 10
4431.628653883070001
 20
260.4251908024513114
 30
0.0
 11
4431.6315359728696421
 21
260.4264828079512881
 31
0.0
  0
LINE
  5
1E393
  8
0
 10
4431.5583678901712119
 20
260.3945795749513081
 30
0.0
 11
4431.5697330529701503
 21
260.3996744380513064
 31
0.0
  0
LINE
  5
1E394
  8
0
 10
4431.4952570275700054
 20
260.3664791994513052
 30
0.0
 11
4431.483891864870202
 21
260.361384336351307
 31
0.0
  0
LINE
  5
1E395
  8
0
 10
4431.5200823693703569
 20
260.3783568433512983
 30
0.0
 11
4431.5229644591709075
 21
260.379648848851275
 31
0.0
  0
LINE
  5
1E396
  8
0
 10
4431.5676380366703597
 20
260.4039463667513132
 30
0.0
 11
4431.5562728739705562
 21
260.3988515036513149
 31
0.0
  0
LINE
  5
1E397
  8
0
 10
4431.5924633784698017
 20
260.4158240106513063
 30
0.0
 11
4431.5953454682712618
 21
260.417116016151283
 31
0.0
  0
LINE
  5
1E398
  8
0
 10
4431.5221773855701031
 20
260.3852127830513155
 30
0.0
 11
4431.533542548369951
 21
260.3903076461513137
 31
0.0
  0
LINE
  5
1E399
  8
0
 10
4431.483891864870202
 20
260.3689900514513056
 30
0.0
 11
4431.4867739546689336
 21
260.3702820570513268
 31
0.0
  0
LINE
  5
1E39A
  8
0
 10
4431.6400190457698045
 20
260.4414135340513212
 30
0.0
 11
4431.628653883070001
 21
260.4363186709513229
 31
0.0
  0
LINE
  5
1E39B
  8
0
 10
4431.5945583946695479
 20
260.4226799503513234
 30
0.0
 11
4431.6059235574703052
 21
260.4277748134513217
 31
0.0
  0
LINE
  5
1E39C
  8
0
 10
4431.5314475321702048
 20
260.3945795749513081
 30
0.0
 11
4431.5200823693703569
 21
260.3894847118513098
 31
0.0
  0
LINE
  5
1E39D
  8
0
 10
4431.5562728739705562
 20
260.4064572188513011
 30
0.0
 11
4431.5591549637701974
 21
260.4077492243512779
 31
0.0
  0
LINE
  5
1E39E
  8
0
 10
4431.4859868810699481
 20
260.3758459912513104
 30
0.0
 11
4431.497352043869796
 21
260.3809408543513086
 31
0.0
  0
LINE
  5
1E39F
  8
0
 10
4431.6038285412705591
 20
260.4320467422513161
 30
0.0
 11
4431.5924633784698017
 21
260.4269518791513178
 31
0.0
  0
LINE
  5
1E3A0
  8
0
 10
4431.628653883070001
 20
260.4439243861513091
 30
0.0
 11
4431.6315359728696421
 21
260.4452163916512859
 31
0.0
  0
LINE
  5
1E3A1
  8
0
 10
4431.5583678901712119
 20
260.4133131585513183
 30
0.0
 11
4431.5697330529701503
 21
260.4184080216513166
 31
0.0
  0
LINE
  5
1E3A2
  8
0
 10
4431.4952570275700054
 20
260.3852127830513155
 30
0.0
 11
4431.483891864870202
 21
260.3801179199513172
 31
0.0
  0
LINE
  5
1E3A3
  8
0
 10
4431.5200823693703569
 20
260.3970904269513085
 30
0.0
 11
4431.5229644591709075
 21
260.3983824324512852
 31
0.0
  0
LINE
  5
1E3A4
  8
0
 10
4431.4497963764715678
 20
260.3664791994513052
 30
0.0
 11
4431.4611615392714157
 21
260.3715740625513035
 31
0.0
  0
LINE
  5
1E3A5
  8
0
 10
4431.5676380366703597
 20
260.4226799503513234
 30
0.0
 11
4431.5562728739705562
 21
260.4175850873513127
 31
0.0
  0
LINE
  5
1E3A6
  8
0
 10
4431.5924633784698017
 20
260.434557594351304
 30
0.0
 11
4431.5953454682712618
 21
260.4358495998512808
 31
0.0
  0
LINE
  5
1E3A7
  8
0
 10
4431.5221773855701031
 20
260.4039463667513132
 30
0.0
 11
4431.533542548369951
 21
260.4090412298513115
 31
0.0
  0
LINE
  5
1E3A8
  8
0
 10
4431.459066523068941
 20
260.3758459912513104
 30
0.0
 11
4431.4477013602690931
 21
260.3707511281513121
 31
0.0
  0
LINE
  5
1E3A9
  8
0
 10
4431.483891864870202
 20
260.3877236351513034
 30
0.0
 11
4431.4867739546689336
 21
260.3890156406512801
 31
0.0
  0
LINE
  5
1E3AA
  8
0
 10
4431.6396915868635915
 20
260.4600003219381961
 30
0.0
 11
4431.628653883070001
 21
260.4550522546513207
 31
0.0
  0
LINE
  5
1E3AB
  8
0
 10
4431.5945583946695479
 20
260.4414135340513212
 30
0.0
 11
4431.6059235574703052
 21
260.4465083971513195
 31
0.0
  0
LINE
  5
1E3AC
  8
0
 10
4431.5314475321702048
 20
260.4133131585513183
 30
0.0
 11
4431.5200823693703569
 21
260.40821829545132
 31
0.0
  0
LINE
  5
1E3AD
  8
0
 10
4431.5562728739705562
 20
260.4251908024513114
 30
0.0
 11
4431.5591549637701974
 21
260.4264828079512881
 31
0.0
  0
LINE
  5
1E3AE
  8
0
 10
4431.4859868810699481
 20
260.3945795749513081
 30
0.0
 11
4431.497352043869796
 21
260.3996744380513064
 31
0.0
  0
LINE
  5
1E3AF
  8
0
 10
4431.4228760184696512
 20
260.3664791994513052
 30
0.0
 11
4431.4115108557698477
 21
260.361384336351307
 31
0.0
  0
LINE
  5
1E3B0
  8
0
 10
4431.4477013602690931
 20
260.3783568433512983
 30
0.0
 11
4431.4505834500705532
 21
260.379648848851275
 31
0.0
  0
LINE
  5
1E3B1
  8
0
 10
4431.6038285412705591
 20
260.4507803258513263
 30
0.0
 11
4431.5924633784698017
 21
260.445685462751328
 31
0.0
  0
LINE
  5
1E3B2
  8
0
 10
4431.628653883070001
 20
260.4626579697513193
 30
0.0
 11
4431.6309848279179278
 21
260.4637029037306775
 31
0.0
  0
LINE
  5
1E3B3
  8
0
 10
4431.5583678901712119
 20
260.4320467422513161
 30
0.0
 11
4431.5697330529701503
 21
260.4371416053513144
 31
0.0
  0
LINE
  5
1E3B4
  8
0
 10
4431.4952570275700054
 20
260.4039463667513132
 30
0.0
 11
4431.483891864870202
 21
260.3988515036513149
 31
0.0
  0
LINE
  5
1E3B5
  8
0
 10
4431.5200823693703569
 20
260.4158240106513063
 30
0.0
 11
4431.5229644591709075
 21
260.417116016151283
 31
0.0
  0
LINE
  5
1E3B6
  8
0
 10
4431.4497963764715678
 20
260.3852127830513155
 30
0.0
 11
4431.4611615392714157
 21
260.3903076461513137
 31
0.0
  0
LINE
  5
1E3B7
  8
0
 10
4431.4115108557698477
 20
260.3689900514513056
 30
0.0
 11
4431.4143929455722173
 21
260.3702820570513268
 31
0.0
  0
LINE
  5
1E3B8
  8
0
 10
4431.5676380366703597
 20
260.4414135340513212
 30
0.0
 11
4431.5562728739705562
 21
260.4363186709513229
 31
0.0
  0
LINE
  5
1E3B9
  8
0
 10
4431.5924633784698017
 20
260.4532911779513142
 30
0.0
 11
4431.5953454682712618
 21
260.454583183451291
 31
0.0
  0
LINE
  5
1E3BA
  8
0
 10
4431.5221773855701031
 20
260.4226799503513234
 30
0.0
 11
4431.533542548369951
 21
260.4277748134513217
 31
0.0
  0
LINE
  5
1E3BB
  8
0
 10
4431.459066523068941
 20
260.3945795749513081
 30
0.0
 11
4431.4477013602690931
 21
260.3894847118513098
 31
0.0
  0
LINE
  5
1E3BC
  8
0
 10
4431.483891864870202
 20
260.4064572188513011
 30
0.0
 11
4431.4867739546689336
 21
260.4077492243512779
 31
0.0
  0
LINE
  5
1E3BD
  8
0
 10
4431.4136058719695939
 20
260.3758459912513104
 30
0.0
 11
4431.4249710347703513
 21
260.3809408543513086
 31
0.0
  0
LINE
  5
1E3BE
  8
0
 10
4431.5945583946695479
 20
260.460147117751319
 30
0.0
 11
4431.6059235574703052
 21
260.4652419808513173
 31
0.0
  0
LINE
  5
1E3BF
  8
0
 10
4431.5314475321702048
 20
260.4320467422513161
 30
0.0
 11
4431.5200823693703569
 21
260.4269518791513178
 31
0.0
  0
LINE
  5
1E3C0
  8
0
 10
4431.5562728739705562
 20
260.4439243861513091
 30
0.0
 11
4431.5591549637701974
 21
260.4452163916512859
 31
0.0
  0
LINE
  5
1E3C1
  8
0
 10
4431.4859868810699481
 20
260.4133131585513183
 30
0.0
 11
4431.497352043869796
 21
260.4184080216513166
 31
0.0
  0
LINE
  5
1E3C2
  8
0
 10
4431.4228760184696512
 20
260.3852127830513155
 30
0.0
 11
4431.4115108557698477
 21
260.3801179199513172
 31
0.0
  0
LINE
  5
1E3C3
  8
0
 10
4431.4477013602690931
 20
260.3970904269513085
 30
0.0
 11
4431.4505834500705532
 21
260.3983824324512852
 31
0.0
  0
LINE
  5
1E3C4
  8
0
 10
4431.3774153673712135
 20
260.3664791994513052
 30
0.0
 11
4431.3887805301710614
 21
260.3715740625513035
 31
0.0
  0
LINE
  5
1E3C5
  8
0
 10
4431.6038285412705591
 20
260.4695139095513241
 30
0.0
 11
4431.5924633784698017
 21
260.4644190464513258
 31
0.0
  0
LINE
  5
1E3C6
  8
0
 10
4431.5583678901712119
 20
260.4507803258513263
 30
0.0
 11
4431.5697330529701503
 21
260.4558751889513246
 31
0.0
  0
LINE
  5
1E3C7
  8
0
 10
4431.4952570275700054
 20
260.4226799503513234
 30
0.0
 11
4431.483891864870202
 21
260.4175850873513127
 31
0.0
  0
LINE
  5
1E3C8
  8
0
 10
4431.5200823693703569
 20
260.434557594351304
 30
0.0
 11
4431.5229644591709075
 21
260.4358495998512808
 31
0.0
  0
LINE
  5
1E3C9
  8
0
 10
4431.4497963764715678
 20
260.4039463667513132
 30
0.0
 11
4431.4611615392714157
 21
260.4090412298513115
 31
0.0
  0
LINE
  5
1E3CA
  8
0
 10
4431.4115108557698477
 20
260.3877236351513034
 30
0.0
 11
4431.4143929455722173
 21
260.3890156406512801
 31
0.0
  0
LINE
  5
1E3CB
  8
0
 10
4431.5676380366703597
 20
260.460147117751319
 30
0.0
 11
4431.5562728739705562
 21
260.4550522546513207
 31
0.0
  0
LINE
  5
1E3CC
  8
0
 10
4431.5924633784698017
 20
260.472024761651312
 30
0.0
 11
4431.5953454682712618
 21
260.4733167671512888
 31
0.0
  0
LINE
  5
1E3CD
  8
0
 10
4431.5221773855701031
 20
260.4414135340513212
 30
0.0
 11
4431.533542548369951
 21
260.4465083971513195
 31
0.0
  0
LINE
  5
1E3CE
  8
0
 10
4431.459066523068941
 20
260.4133131585513183
 30
0.0
 11
4431.4477013602690931
 21
260.40821829545132
 31
0.0
  0
LINE
  5
1E3CF
  8
0
 10
4431.483891864870202
 20
260.4251908024513114
 30
0.0
 11
4431.4867739546689336
 21
260.4264828079512881
 31
0.0
  0
LINE
  5
1E3D0
  8
0
 10
4431.4136058719695939
 20
260.3945795749513081
 30
0.0
 11
4431.4249710347703513
 21
260.3996744380513064
 31
0.0
  0
LINE
  5
1E3D1
  8
0
 10
4431.5314475321702048
 20
260.4507803258513263
 30
0.0
 11
4431.5200823693703569
 21
260.445685462751328
 31
0.0
  0
LINE
  5
1E3D2
  8
0
 10
4431.5562728739705562
 20
260.4626579697513193
 30
0.0
 11
4431.5591549637701974
 21
260.4639499752512961
 31
0.0
  0
LINE
  5
1E3D3
  8
0
 10
4431.4859868810699481
 20
260.4320467422513161
 30
0.0
 11
4431.497352043869796
 21
260.4371416053513144
 31
0.0
  0
LINE
  5
1E3D4
  8
0
 10
4431.4228760184696512
 20
260.4039463667513132
 30
0.0
 11
4431.4115108557698477
 21
260.3988515036513149
 31
0.0
  0
LINE
  5
1E3D5
  8
0
 10
4431.4477013602690931
 20
260.4158240106513063
 30
0.0
 11
4431.4505834500705532
 21
260.417116016151283
 31
0.0
  0
LINE
  5
1E3D6
  8
0
 10
4431.3774153673712135
 20
260.3852127830513155
 30
0.0
 11
4431.3887805301710614
 21
260.3903076461513137
 31
0.0
  0
LINE
  5
1E3D7
  8
0
 10
4431.5583678901712119
 20
260.4695139095513241
 30
0.0
 11
4431.5697330529701503
 21
260.4746087726513224
 31
0.0
  0
LINE
  5
1E3D8
  8
0
 10
4431.4952570275700054
 20
260.4414135340513212
 30
0.0
 11
4431.483891864870202
 21
260.4363186709513229
 31
0.0
  0
LINE
  5
1E3D9
  8
0
 10
4431.5200823693703569
 20
260.4532911779513142
 30
0.0
 11
4431.5229644591709075
 21
260.454583183451291
 31
0.0
  0
LINE
  5
1E3DA
  8
0
 10
4431.4497963764715678
 20
260.4226799503513234
 30
0.0
 11
4431.4611615392714157
 21
260.4277748134513217
 31
0.0
  0
LINE
  5
1E3DB
  8
0
 10
4431.4115108557698477
 20
260.4064572188513011
 30
0.0
 11
4431.4143929455722173
 21
260.4077492243512779
 31
0.0
  0
LINE
  5
1E3DC
  8
0
 10
4431.5676380366703597
 20
260.4788807013512724
 30
0.0
 11
4431.5562728739705562
 21
260.4737858382512741
 31
0.0
  0
LINE
  5
1E3DD
  8
0
 10
4431.5221773855701031
 20
260.460147117751319
 30
0.0
 11
4431.533542548369951
 21
260.4652419808513173
 31
0.0
  0
LINE
  5
1E3DE
  8
0
 10
4431.459066523068941
 20
260.4320467422513161
 30
0.0
 11
4431.4477013602690931
 21
260.4269518791513178
 31
0.0
  0
LINE
  5
1E3DF
  8
0
 10
4431.483891864870202
 20
260.4439243861513091
 30
0.0
 11
4431.4867739546689336
 21
260.4452163916512859
 31
0.0
  0
LINE
  5
1E3E0
  8
0
 10
4431.4136058719695939
 20
260.4133131585513183
 30
0.0
 11
4431.4249710347703513
 21
260.4184080216513166
 31
0.0
  0
LINE
  5
1E3E1
  8
0
 10
4431.5314475321702048
 20
260.4695139095513241
 30
0.0
 11
4431.5200823693703569
 21
260.4644190464513258
 31
0.0
  0
LINE
  5
1E3E2
  8
0
 10
4431.5562728739705562
 20
260.4813915534513171
 30
0.0
 11
4431.5591549637701974
 21
260.4826835589512939
 31
0.0
  0
LINE
  5
1E3E3
  8
0
 10
4431.4859868810699481
 20
260.4507803258513263
 30
0.0
 11
4431.497352043869796
 21
260.4558751889513246
 31
0.0
  0
LINE
  5
1E3E4
  8
0
 10
4431.4228760184696512
 20
260.4226799503513234
 30
0.0
 11
4431.4115108557698477
 21
260.4175850873513127
 31
0.0
  0
LINE
  5
1E3E5
  8
0
 10
4431.4477013602690931
 20
260.434557594351304
 30
0.0
 11
4431.4505834500705532
 21
260.4358495998512808
 31
0.0
  0
LINE
  5
1E3E6
  8
0
 10
4431.3774153673712135
 20
260.4039463667513132
 30
0.0
 11
4431.3887805301710614
 21
260.4090412298513115
 31
0.0
  0
LINE
  5
1E3E7
  8
0
 10
4431.4952570275700054
 20
260.460147117751319
 30
0.0
 11
4431.483891864870202
 21
260.4550522546513207
 31
0.0
  0
LINE
  5
1E3E8
  8
0
 10
4431.5200823693703569
 20
260.472024761651312
 30
0.0
 11
4431.5229644591709075
 21
260.4733167671512888
 31
0.0
  0
LINE
  5
1E3E9
  8
0
 10
4431.4497963764715678
 20
260.4414135340513212
 30
0.0
 11
4431.4611615392714157
 21
260.4465083971513195
 31
0.0
  0
LINE
  5
1E3EA
  8
0
 10
4431.4115108557698477
 20
260.4251908024513114
 30
0.0
 11
4431.4143929455722173
 21
260.4264828079512881
 31
0.0
  0
LINE
  5
1E3EB
  8
0
 10
4431.5221773855701031
 20
260.4788807013512724
 30
0.0
 11
4431.533542548369951
 21
260.4839755644513275
 31
0.0
  0
LINE
  5
1E3EC
  8
0
 10
4431.459066523068941
 20
260.4507803258513263
 30
0.0
 11
4431.4477013602690931
 21
260.445685462751328
 31
0.0
  0
LINE
  5
1E3ED
  8
0
 10
4431.483891864870202
 20
260.4626579697513193
 30
0.0
 11
4431.4867739546689336
 21
260.4639499752512961
 31
0.0
  0
LINE
  5
1E3EE
  8
0
 10
4431.4136058719695939
 20
260.4320467422513161
 30
0.0
 11
4431.4249710347703513
 21
260.4371416053513144
 31
0.0
  0
LINE
  5
1E3EF
  8
0
 10
4431.5314475321702048
 20
260.4882474931512775
 30
0.0
 11
4431.5200823693703569
 21
260.4831526301513236
 31
0.0
  0
LINE
  5
1E3F0
  8
0
 10
4431.4859868810699481
 20
260.4695139095513241
 30
0.0
 11
4431.497352043869796
 21
260.4746087726513224
 31
0.0
  0
LINE
  5
1E3F1
  8
0
 10
4431.4228760184696512
 20
260.4414135340513212
 30
0.0
 11
4431.4115108557698477
 21
260.4363186709513229
 31
0.0
  0
LINE
  5
1E3F2
  8
0
 10
4431.4477013602690931
 20
260.4532911779513142
 30
0.0
 11
4431.4505834500705532
 21
260.454583183451291
 31
0.0
  0
LINE
  5
1E3F3
  8
0
 10
4431.3774153673712135
 20
260.4226799503513234
 30
0.0
 11
4431.3887805301710614
 21
260.4277748134513217
 31
0.0
  0
LINE
  5
1E3F4
  8
0
 10
4431.4952570275700054
 20
260.4788807013512724
 30
0.0
 11
4431.483891864870202
 21
260.4737858382512741
 31
0.0
  0
LINE
  5
1E3F5
  8
0
 10
4431.5200823693703569
 20
260.4907583452513222
 30
0.0
 11
4431.5212287353651845
 21
260.4912722470667745
 31
0.0
  0
LINE
  5
1E3F6
  8
0
 10
4431.4497963764715678
 20
260.460147117751319
 30
0.0
 11
4431.4611615392714157
 21
260.4652419808513173
 31
0.0
  0
LINE
  5
1E3F7
  8
0
 10
4431.4115108557698477
 20
260.4439243861513091
 30
0.0
 11
4431.4143929455722173
 21
260.4452163916512859
 31
0.0
  0
LINE
  5
1E3F8
  8
0
 10
4431.459066523068941
 20
260.4695139095513241
 30
0.0
 11
4431.4477013602690931
 21
260.4644190464513258
 31
0.0
  0
LINE
  5
1E3F9
  8
0
 10
4431.483891864870202
 20
260.4813915534513171
 30
0.0
 11
4431.4867739546689336
 21
260.4826835589512939
 31
0.0
  0
LINE
  5
1E3FA
  8
0
 10
4431.4136058719695939
 20
260.4507803258513263
 30
0.0
 11
4431.4249710347703513
 21
260.4558751889513246
 31
0.0
  0
LINE
  5
1E3FB
  8
0
 10
4431.4859868810699481
 20
260.4882474931512775
 30
0.0
 11
4431.497352043869796
 21
260.4933423562512758
 31
0.0
  0
LINE
  5
1E3FC
  8
0
 10
4431.4228760184696512
 20
260.460147117751319
 30
0.0
 11
4431.4115108557698477
 21
260.4550522546513207
 31
0.0
  0
LINE
  5
1E3FD
  8
0
 10
4431.4477013602690931
 20
260.472024761651312
 30
0.0
 11
4431.4505834500705532
 21
260.4733167671512888
 31
0.0
  0
LINE
  5
1E3FE
  8
0
 10
4431.3774153673712135
 20
260.4414135340513212
 30
0.0
 11
4431.3887805301710614
 21
260.4465083971513195
 31
0.0
  0
LINE
  5
1E3FF
  8
0
 10
4431.4901510889267229
 20
260.4953253553396735
 30
0.0
 11
4431.483891864870202
 21
260.4925194219512719
 31
0.0
  0
LINE
  5
1E400
  8
0
 10
4431.4497963764715678
 20
260.4788807013512724
 30
0.0
 11
4431.4611615392714157
 21
260.4839755644513275
 31
0.0
  0
LINE
  5
1E401
  8
0
 10
4431.4115108557698477
 20
260.4626579697513193
 30
0.0
 11
4431.4143929455722173
 21
260.4639499752512961
 31
0.0
  0
LINE
  5
1E402
  8
0
 10
4431.459066523068941
 20
260.4882474931512775
 30
0.0
 11
4431.4477013602690931
 21
260.4831526301513236
 31
0.0
  0
LINE
  5
1E403
  8
0
 10
4431.4136058719695939
 20
260.4695139095513241
 30
0.0
 11
4431.4249710347703513
 21
260.4746087726513224
 31
0.0
  0
LINE
  5
1E404
  8
0
 10
4431.4228760184696512
 20
260.4788807013512724
 30
0.0
 11
4431.4115108557698477
 21
260.4737858382512741
 31
0.0
  0
LINE
  5
1E405
  8
0
 10
4431.4477013602690931
 20
260.4907583452513222
 30
0.0
 11
4431.4505834500705532
 21
260.492050350751299
 31
0.0
  0
LINE
  5
1E406
  8
0
 10
4431.3774153673712135
 20
260.460147117751319
 30
0.0
 11
4431.3887805301710614
 21
260.4652419808513173
 31
0.0
  0
LINE
  5
1E407
  8
0
 10
4431.4497963764715678
 20
260.497614285051327
 30
0.0
 11
4431.4525861159872875
 21
260.4988648910020856
 31
0.0
  0
LINE
  5
1E408
  8
0
 10
4431.4115108557698477
 20
260.4813915534513171
 30
0.0
 11
4431.4143929455722173
 21
260.4826835589512939
 31
0.0
  0
LINE
  5
1E409
  8
0
 10
4431.4136058719695939
 20
260.4882474931512775
 30
0.0
 11
4431.4249710347703513
 21
260.4933423562512758
 31
0.0
  0
LINE
  5
1E40A
  8
0
 10
4431.4228760184696512
 20
260.497614285051327
 30
0.0
 11
4431.4115108557698477
 21
260.4925194219512719
 31
0.0
  0
LINE
  5
1E40B
  8
0
 10
4431.3774153673712135
 20
260.4788807013512724
 30
0.0
 11
4431.3887805301710614
 21
260.4839755644513275
 31
0.0
  0
LINE
  5
1E40C
  8
0
 10
4431.4115108557698477
 20
260.5001251371513149
 30
0.0
 11
4431.4137486690788137
 21
260.5011283213893876
 31
0.0
  0
LINE
  5
1E40D
  8
0
 10
4431.3774153673712135
 20
260.497614285051327
 30
0.0
 11
4431.3870570606386536
 21
260.5019365378732914
 31
0.0
  0
LINE
  5
1E40E
  8
0
 10
4431.6769975365714345
 20
260.3734814029513132
 30
0.0
 11
4431.6804001707723728
 21
260.3729688293512936
 31
0.0
  0
LINE
  5
1E40F
  8
0
 10
4431.7179506404700078
 20
260.3964320318513046
 30
0.0
 11
4431.7141442377696876
 21
260.396692312951302
 31
0.0
  0
LINE
  5
1E410
  8
0
 10
4431.3887805301710614
 20
260.361384336351307
 30
0.0
 11
4431.4115108557698477
 21
260.361384336351307
 31
0.0
  0
LINE
  5
1E411
  8
0
 10
4431.4611615392714157
 20
260.361384336351307
 30
0.0
 11
4431.483891864870202
 21
260.361384336351307
 31
0.0
  0
LINE
  5
1E412
  8
0
 10
4431.3887805301710614
 20
260.3689900514513056
 30
0.0
 11
4431.4115108557698477
 21
260.3689900514513056
 31
0.0
  0
LINE
  5
1E413
  8
0
 10
4431.4611615392714157
 20
260.3689900514513056
 30
0.0
 11
4431.483891864870202
 21
260.3689900514513056
 31
0.0
  0
LINE
  5
1E414
  8
0
 10
4431.4249710347703513
 20
260.3707511281513121
 30
0.0
 11
4431.4477013602690931
 21
260.3707511281513121
 31
0.0
  0
LINE
  5
1E415
  8
0
 10
4431.497352043869796
 20
260.3707511281513121
 30
0.0
 11
4431.5200823693703569
 21
260.3707511281513121
 31
0.0
  0
LINE
  5
1E416
  8
0
 10
4431.483891864870202
 20
260.3715740625513035
 30
0.0
 11
4431.4611615392714157
 21
260.3715740625513035
 31
0.0
  0
LINE
  5
1E417
  8
0
 10
4431.4115108557698477
 20
260.3715740625513035
 30
0.0
 11
4431.3887805301710614
 21
260.3715740625513035
 31
0.0
  0
LINE
  5
1E418
  8
0
 10
4431.4249710347703513
 20
260.3783568433512983
 30
0.0
 11
4431.4477013602690931
 21
260.3783568433512983
 31
0.0
  0
LINE
  5
1E419
  8
0
 10
4431.497352043869796
 20
260.3783568433512983
 30
0.0
 11
4431.5200823693703569
 21
260.3783568433512983
 31
0.0
  0
LINE
  5
1E41A
  8
0
 10
4431.3887805301710614
 20
260.3801179199513172
 30
0.0
 11
4431.4115108557698477
 21
260.3801179199513172
 31
0.0
  0
LINE
  5
1E41B
  8
0
 10
4431.4611615392714157
 20
260.3801179199513172
 30
0.0
 11
4431.483891864870202
 21
260.3801179199513172
 31
0.0
  0
LINE
  5
1E41C
  8
0
 10
4431.533542548369951
 20
260.3801179199513172
 30
0.0
 11
4431.5562728739705562
 21
260.3801179199513172
 31
0.0
  0
LINE
  5
1E41D
  8
0
 10
4431.5200823693703569
 20
260.3809408543513086
 30
0.0
 11
4431.497352043869796
 21
260.3809408543513086
 31
0.0
  0
LINE
  5
1E41E
  8
0
 10
4431.4477013602690931
 20
260.3809408543513086
 30
0.0
 11
4431.4249710347703513
 21
260.3809408543513086
 31
0.0
  0
LINE
  5
1E41F
  8
0
 10
4431.3887805301710614
 20
260.3877236351513034
 30
0.0
 11
4431.4115108557698477
 21
260.3877236351513034
 31
0.0
  0
LINE
  5
1E420
  8
0
 10
4431.4611615392714157
 20
260.3877236351513034
 30
0.0
 11
4431.483891864870202
 21
260.3877236351513034
 31
0.0
  0
LINE
  5
1E421
  8
0
 10
4431.533542548369951
 20
260.3877236351513034
 30
0.0
 11
4431.5562728739705562
 21
260.3877236351513034
 31
0.0
  0
LINE
  5
1E422
  8
0
 10
4431.4249710347703513
 20
260.3894847118513098
 30
0.0
 11
4431.4477013602690931
 21
260.3894847118513098
 31
0.0
  0
LINE
  5
1E423
  8
0
 10
4431.497352043869796
 20
260.3894847118513098
 30
0.0
 11
4431.5200823693703569
 21
260.3894847118513098
 31
0.0
  0
LINE
  5
1E424
  8
0
 10
4431.5697330529701503
 20
260.3894847118513098
 30
0.0
 11
4431.5924633784698017
 21
260.3894847118513098
 31
0.0
  0
LINE
  5
1E425
  8
0
 10
4431.5562728739705562
 20
260.3903076461513137
 30
0.0
 11
4431.533542548369951
 21
260.3903076461513137
 31
0.0
  0
LINE
  5
1E426
  8
0
 10
4431.483891864870202
 20
260.3903076461513137
 30
0.0
 11
4431.4611615392714157
 21
260.3903076461513137
 31
0.0
  0
LINE
  5
1E427
  8
0
 10
4431.4115108557698477
 20
260.3903076461513137
 30
0.0
 11
4431.3887805301710614
 21
260.3903076461513137
 31
0.0
  0
LINE
  5
1E428
  8
0
 10
4431.4249710347703513
 20
260.3970904269513085
 30
0.0
 11
4431.4477013602690931
 21
260.3970904269513085
 31
0.0
  0
LINE
  5
1E429
  8
0
 10
4431.497352043869796
 20
260.3970904269513085
 30
0.0
 11
4431.5200823693703569
 21
260.3970904269513085
 31
0.0
  0
LINE
  5
1E42A
  8
0
 10
4431.5697330529701503
 20
260.3970904269513085
 30
0.0
 11
4431.5924633784698017
 21
260.3970904269513085
 31
0.0
  0
LINE
  5
1E42B
  8
0
 10
4431.3887805301710614
 20
260.3988515036513149
 30
0.0
 11
4431.4115108557698477
 21
260.3988515036513149
 31
0.0
  0
LINE
  5
1E42C
  8
0
 10
4431.4611615392714157
 20
260.3988515036513149
 30
0.0
 11
4431.483891864870202
 21
260.3988515036513149
 31
0.0
  0
LINE
  5
1E42D
  8
0
 10
4431.533542548369951
 20
260.3988515036513149
 30
0.0
 11
4431.5562728739705562
 21
260.3988515036513149
 31
0.0
  0
LINE
  5
1E42E
  8
0
 10
4431.6059235574703052
 20
260.3988515036513149
 30
0.0
 11
4431.628653883070001
 21
260.3988515036513149
 31
0.0
  0
LINE
  5
1E42F
  8
0
 10
4431.5924633784698017
 20
260.3996744380513064
 30
0.0
 11
4431.5697330529701503
 21
260.3996744380513064
 31
0.0
  0
LINE
  5
1E430
  8
0
 10
4431.5200823693703569
 20
260.3996744380513064
 30
0.0
 11
4431.497352043869796
 21
260.3996744380513064
 31
0.0
  0
LINE
  5
1E431
  8
0
 10
4431.4477013602690931
 20
260.3996744380513064
 30
0.0
 11
4431.4249710347703513
 21
260.3996744380513064
 31
0.0
  0
LINE
  5
1E432
  8
0
 10
4431.3887805301710614
 20
260.4064572188513011
 30
0.0
 11
4431.4115108557698477
 21
260.4064572188513011
 31
0.0
  0
LINE
  5
1E433
  8
0
 10
4431.4611615392714157
 20
260.4064572188513011
 30
0.0
 11
4431.483891864870202
 21
260.4064572188513011
 31
0.0
  0
LINE
  5
1E434
  8
0
 10
4431.533542548369951
 20
260.4064572188513011
 30
0.0
 11
4431.5562728739705562
 21
260.4064572188513011
 31
0.0
  0
LINE
  5
1E435
  8
0
 10
4431.6059235574703052
 20
260.4064572188513011
 30
0.0
 11
4431.628653883070001
 21
260.4064572188513011
 31
0.0
  0
LINE
  5
1E436
  8
0
 10
4431.4249710347703513
 20
260.40821829545132
 30
0.0
 11
4431.4477013602690931
 21
260.40821829545132
 31
0.0
  0
LINE
  5
1E437
  8
0
 10
4431.497352043869796
 20
260.40821829545132
 30
0.0
 11
4431.5200823693703569
 21
260.40821829545132
 31
0.0
  0
LINE
  5
1E438
  8
0
 10
4431.5697330529701503
 20
260.40821829545132
 30
0.0
 11
4431.5924633784698017
 21
260.40821829545132
 31
0.0
  0
LINE
  5
1E439
  8
0
 10
4431.628653883070001
 20
260.4090412298513115
 30
0.0
 11
4431.6059235574703052
 21
260.4090412298513115
 31
0.0
  0
LINE
  5
1E43A
  8
0
 10
4431.5562728739705562
 20
260.4090412298513115
 30
0.0
 11
4431.533542548369951
 21
260.4090412298513115
 31
0.0
  0
LINE
  5
1E43B
  8
0
 10
4431.483891864870202
 20
260.4090412298513115
 30
0.0
 11
4431.4611615392714157
 21
260.4090412298513115
 31
0.0
  0
LINE
  5
1E43C
  8
0
 10
4431.4115108557698477
 20
260.4090412298513115
 30
0.0
 11
4431.3887805301710614
 21
260.4090412298513115
 31
0.0
  0
LINE
  5
1E43D
  8
0
 10
4431.4249710347703513
 20
260.4158240106513063
 30
0.0
 11
4431.4477013602690931
 21
260.4158240106513063
 31
0.0
  0
LINE
  5
1E43E
  8
0
 10
4431.497352043869796
 20
260.4158240106513063
 30
0.0
 11
4431.5200823693703569
 21
260.4158240106513063
 31
0.0
  0
LINE
  5
1E43F
  8
0
 10
4431.5697330529701503
 20
260.4158240106513063
 30
0.0
 11
4431.5924633784698017
 21
260.4158240106513063
 31
0.0
  0
LINE
  5
1E440
  8
0
 10
4431.3887805301710614
 20
260.4175850873513127
 30
0.0
 11
4431.4115108557698477
 21
260.4175850873513127
 31
0.0
  0
LINE
  5
1E441
  8
0
 10
4431.4611615392714157
 20
260.4175850873513127
 30
0.0
 11
4431.483891864870202
 21
260.4175850873513127
 31
0.0
  0
LINE
  5
1E442
  8
0
 10
4431.533542548369951
 20
260.4175850873513127
 30
0.0
 11
4431.5562728739705562
 21
260.4175850873513127
 31
0.0
  0
LINE
  5
1E443
  8
0
 10
4431.6059235574703052
 20
260.4175850873513127
 30
0.0
 11
4431.628653883070001
 21
260.4175850873513127
 31
0.0
  0
LINE
  5
1E444
  8
0
 10
4431.5924633784698017
 20
260.4184080216513166
 30
0.0
 11
4431.5697330529701503
 21
260.4184080216513166
 31
0.0
  0
LINE
  5
1E445
  8
0
 10
4431.5200823693703569
 20
260.4184080216513166
 30
0.0
 11
4431.497352043869796
 21
260.4184080216513166
 31
0.0
  0
LINE
  5
1E446
  8
0
 10
4431.4477013602690931
 20
260.4184080216513166
 30
0.0
 11
4431.4249710347703513
 21
260.4184080216513166
 31
0.0
  0
LINE
  5
1E447
  8
0
 10
4431.3887805301710614
 20
260.4251908024513114
 30
0.0
 11
4431.4115108557698477
 21
260.4251908024513114
 31
0.0
  0
LINE
  5
1E448
  8
0
 10
4431.4611615392714157
 20
260.4251908024513114
 30
0.0
 11
4431.483891864870202
 21
260.4251908024513114
 31
0.0
  0
LINE
  5
1E449
  8
0
 10
4431.533542548369951
 20
260.4251908024513114
 30
0.0
 11
4431.5562728739705562
 21
260.4251908024513114
 31
0.0
  0
LINE
  5
1E44A
  8
0
 10
4431.6059235574703052
 20
260.4251908024513114
 30
0.0
 11
4431.628653883070001
 21
260.4251908024513114
 31
0.0
  0
LINE
  5
1E44B
  8
0
 10
4431.4249710347703513
 20
260.4269518791513178
 30
0.0
 11
4431.4477013602690931
 21
260.4269518791513178
 31
0.0
  0
LINE
  5
1E44C
  8
0
 10
4431.497352043869796
 20
260.4269518791513178
 30
0.0
 11
4431.5200823693703569
 21
260.4269518791513178
 31
0.0
  0
LINE
  5
1E44D
  8
0
 10
4431.5697330529701503
 20
260.4269518791513178
 30
0.0
 11
4431.5924633784698017
 21
260.4269518791513178
 31
0.0
  0
LINE
  5
1E44E
  8
0
 10
4431.628653883070001
 20
260.4277748134513217
 30
0.0
 11
4431.6059235574703052
 21
260.4277748134513217
 31
0.0
  0
LINE
  5
1E44F
  8
0
 10
4431.5562728739705562
 20
260.4277748134513217
 30
0.0
 11
4431.533542548369951
 21
260.4277748134513217
 31
0.0
  0
LINE
  5
1E450
  8
0
 10
4431.483891864870202
 20
260.4277748134513217
 30
0.0
 11
4431.4611615392714157
 21
260.4277748134513217
 31
0.0
  0
LINE
  5
1E451
  8
0
 10
4431.4115108557698477
 20
260.4277748134513217
 30
0.0
 11
4431.3887805301710614
 21
260.4277748134513217
 31
0.0
  0
LINE
  5
1E452
  8
0
 10
4431.4249710347703513
 20
260.434557594351304
 30
0.0
 11
4431.4477013602690931
 21
260.434557594351304
 31
0.0
  0
LINE
  5
1E453
  8
0
 10
4431.497352043869796
 20
260.434557594351304
 30
0.0
 11
4431.5200823693703569
 21
260.434557594351304
 31
0.0
  0
LINE
  5
1E454
  8
0
 10
4431.5697330529701503
 20
260.434557594351304
 30
0.0
 11
4431.5924633784698017
 21
260.434557594351304
 31
0.0
  0
LINE
  5
1E455
  8
0
 10
4431.3887805301710614
 20
260.4363186709513229
 30
0.0
 11
4431.4115108557698477
 21
260.4363186709513229
 31
0.0
  0
LINE
  5
1E456
  8
0
 10
4431.4611615392714157
 20
260.4363186709513229
 30
0.0
 11
4431.483891864870202
 21
260.4363186709513229
 31
0.0
  0
LINE
  5
1E457
  8
0
 10
4431.533542548369951
 20
260.4363186709513229
 30
0.0
 11
4431.5562728739705562
 21
260.4363186709513229
 31
0.0
  0
LINE
  5
1E458
  8
0
 10
4431.6059235574703052
 20
260.4363186709513229
 30
0.0
 11
4431.628653883070001
 21
260.4363186709513229
 31
0.0
  0
LINE
  5
1E459
  8
0
 10
4431.5924633784698017
 20
260.4371416053513144
 30
0.0
 11
4431.5697330529701503
 21
260.4371416053513144
 31
0.0
  0
LINE
  5
1E45A
  8
0
 10
4431.5200823693703569
 20
260.4371416053513144
 30
0.0
 11
4431.497352043869796
 21
260.4371416053513144
 31
0.0
  0
LINE
  5
1E45B
  8
0
 10
4431.4477013602690931
 20
260.4371416053513144
 30
0.0
 11
4431.4249710347703513
 21
260.4371416053513144
 31
0.0
  0
LINE
  5
1E45C
  8
0
 10
4431.3887805301710614
 20
260.4439243861513091
 30
0.0
 11
4431.4115108557698477
 21
260.4439243861513091
 31
0.0
  0
LINE
  5
1E45D
  8
0
 10
4431.4611615392714157
 20
260.4439243861513091
 30
0.0
 11
4431.483891864870202
 21
260.4439243861513091
 31
0.0
  0
LINE
  5
1E45E
  8
0
 10
4431.533542548369951
 20
260.4439243861513091
 30
0.0
 11
4431.5562728739705562
 21
260.4439243861513091
 31
0.0
  0
LINE
  5
1E45F
  8
0
 10
4431.6059235574703052
 20
260.4439243861513091
 30
0.0
 11
4431.628653883070001
 21
260.4439243861513091
 31
0.0
  0
LINE
  5
1E460
  8
0
 10
4431.4249710347703513
 20
260.445685462751328
 30
0.0
 11
4431.4477013602690931
 21
260.445685462751328
 31
0.0
  0
LINE
  5
1E461
  8
0
 10
4431.497352043869796
 20
260.445685462751328
 30
0.0
 11
4431.5200823693703569
 21
260.445685462751328
 31
0.0
  0
LINE
  5
1E462
  8
0
 10
4431.5697330529701503
 20
260.445685462751328
 30
0.0
 11
4431.5924633784698017
 21
260.445685462751328
 31
0.0
  0
LINE
  5
1E463
  8
0
 10
4431.628653883070001
 20
260.4465083971513195
 30
0.0
 11
4431.6059235574703052
 21
260.4465083971513195
 31
0.0
  0
LINE
  5
1E464
  8
0
 10
4431.5562728739705562
 20
260.4465083971513195
 30
0.0
 11
4431.533542548369951
 21
260.4465083971513195
 31
0.0
  0
LINE
  5
1E465
  8
0
 10
4431.483891864870202
 20
260.4465083971513195
 30
0.0
 11
4431.4611615392714157
 21
260.4465083971513195
 31
0.0
  0
LINE
  5
1E466
  8
0
 10
4431.4115108557698477
 20
260.4465083971513195
 30
0.0
 11
4431.3887805301710614
 21
260.4465083971513195
 31
0.0
  0
LINE
  5
1E467
  8
0
 10
4431.4249710347703513
 20
260.4532911779513142
 30
0.0
 11
4431.4477013602690931
 21
260.4532911779513142
 31
0.0
  0
LINE
  5
1E468
  8
0
 10
4431.497352043869796
 20
260.4532911779513142
 30
0.0
 11
4431.5200823693703569
 21
260.4532911779513142
 31
0.0
  0
LINE
  5
1E469
  8
0
 10
4431.5697330529701503
 20
260.4532911779513142
 30
0.0
 11
4431.5924633784698017
 21
260.4532911779513142
 31
0.0
  0
LINE
  5
1E46A
  8
0
 10
4431.3887805301710614
 20
260.4550522546513207
 30
0.0
 11
4431.4115108557698477
 21
260.4550522546513207
 31
0.0
  0
LINE
  5
1E46B
  8
0
 10
4431.4611615392714157
 20
260.4550522546513207
 30
0.0
 11
4431.483891864870202
 21
260.4550522546513207
 31
0.0
  0
LINE
  5
1E46C
  8
0
 10
4431.533542548369951
 20
260.4550522546513207
 30
0.0
 11
4431.5562728739705562
 21
260.4550522546513207
 31
0.0
  0
LINE
  5
1E46D
  8
0
 10
4431.6059235574703052
 20
260.4550522546513207
 30
0.0
 11
4431.628653883070001
 21
260.4550522546513207
 31
0.0
  0
LINE
  5
1E46E
  8
0
 10
4431.5924633784698017
 20
260.4558751889513246
 30
0.0
 11
4431.5697330529701503
 21
260.4558751889513246
 31
0.0
  0
LINE
  5
1E46F
  8
0
 10
4431.5200823693703569
 20
260.4558751889513246
 30
0.0
 11
4431.497352043869796
 21
260.4558751889513246
 31
0.0
  0
LINE
  5
1E470
  8
0
 10
4431.4477013602690931
 20
260.4558751889513246
 30
0.0
 11
4431.4249710347703513
 21
260.4558751889513246
 31
0.0
  0
LINE
  5
1E471
  8
0
 10
4431.3887805301710614
 20
260.4626579697513193
 30
0.0
 11
4431.4115108557698477
 21
260.4626579697513193
 31
0.0
  0
LINE
  5
1E472
  8
0
 10
4431.4611615392714157
 20
260.4626579697513193
 30
0.0
 11
4431.483891864870202
 21
260.4626579697513193
 31
0.0
  0
LINE
  5
1E473
  8
0
 10
4431.533542548369951
 20
260.4626579697513193
 30
0.0
 11
4431.5562728739705562
 21
260.4626579697513193
 31
0.0
  0
LINE
  5
1E474
  8
0
 10
4431.6059235574703052
 20
260.4626579697513193
 30
0.0
 11
4431.628653883070001
 21
260.4626579697513193
 31
0.0
  0
LINE
  5
1E475
  8
0
 10
4431.4249710347703513
 20
260.4644190464513258
 30
0.0
 11
4431.4477013602690931
 21
260.4644190464513258
 31
0.0
  0
LINE
  5
1E476
  8
0
 10
4431.497352043869796
 20
260.4644190464513258
 30
0.0
 11
4431.5200823693703569
 21
260.4644190464513258
 31
0.0
  0
LINE
  5
1E477
  8
0
 10
4431.5697330529701503
 20
260.4644190464513258
 30
0.0
 11
4431.5924633784698017
 21
260.4644190464513258
 31
0.0
  0
LINE
  5
1E478
  8
0
 10
4431.6271577441730187
 20
260.4652419808513173
 30
0.0
 11
4431.6059235574703052
 21
260.4652419808513173
 31
0.0
  0
LINE
  5
1E479
  8
0
 10
4431.5562728739705562
 20
260.4652419808513173
 30
0.0
 11
4431.533542548369951
 21
260.4652419808513173
 31
0.0
  0
LINE
  5
1E47A
  8
0
 10
4431.483891864870202
 20
260.4652419808513173
 30
0.0
 11
4431.4611615392714157
 21
260.4652419808513173
 31
0.0
  0
LINE
  5
1E47B
  8
0
 10
4431.4115108557698477
 20
260.4652419808513173
 30
0.0
 11
4431.3887805301710614
 21
260.4652419808513173
 31
0.0
  0
LINE
  5
1E47C
  8
0
 10
4431.4249710347703513
 20
260.472024761651312
 30
0.0
 11
4431.4477013602690931
 21
260.472024761651312
 31
0.0
  0
LINE
  5
1E47D
  8
0
 10
4431.497352043869796
 20
260.472024761651312
 30
0.0
 11
4431.5200823693703569
 21
260.472024761651312
 31
0.0
  0
LINE
  5
1E47E
  8
0
 10
4431.5697330529701503
 20
260.472024761651312
 30
0.0
 11
4431.5924633784698017
 21
260.472024761651312
 31
0.0
  0
LINE
  5
1E47F
  8
0
 10
4431.3887805301710614
 20
260.4737858382512741
 30
0.0
 11
4431.4115108557698477
 21
260.4737858382512741
 31
0.0
  0
LINE
  5
1E480
  8
0
 10
4431.4611615392714157
 20
260.4737858382512741
 30
0.0
 11
4431.483891864870202
 21
260.4737858382512741
 31
0.0
  0
LINE
  5
1E481
  8
0
 10
4431.533542548369951
 20
260.4737858382512741
 30
0.0
 11
4431.5562728739705562
 21
260.4737858382512741
 31
0.0
  0
LINE
  5
1E482
  8
0
 10
4431.5924633784698017
 20
260.4746087726513224
 30
0.0
 11
4431.5697330529701503
 21
260.4746087726513224
 31
0.0
  0
LINE
  5
1E483
  8
0
 10
4431.5200823693703569
 20
260.4746087726513224
 30
0.0
 11
4431.497352043869796
 21
260.4746087726513224
 31
0.0
  0
LINE
  5
1E484
  8
0
 10
4431.4477013602690931
 20
260.4746087726513224
 30
0.0
 11
4431.4249710347703513
 21
260.4746087726513224
 31
0.0
  0
LINE
  5
1E485
  8
0
 10
4431.3887805301710614
 20
260.4813915534513171
 30
0.0
 11
4431.4115108557698477
 21
260.4813915534513171
 31
0.0
  0
LINE
  5
1E486
  8
0
 10
4431.4611615392714157
 20
260.4813915534513171
 30
0.0
 11
4431.483891864870202
 21
260.4813915534513171
 31
0.0
  0
LINE
  5
1E487
  8
0
 10
4431.533542548369951
 20
260.4813915534513171
 30
0.0
 11
4431.5562728739705562
 21
260.4813915534513171
 31
0.0
  0
LINE
  5
1E488
  8
0
 10
4431.4249710347703513
 20
260.4831526301513236
 30
0.0
 11
4431.4477013602690931
 21
260.4831526301513236
 31
0.0
  0
LINE
  5
1E489
  8
0
 10
4431.497352043869796
 20
260.4831526301513236
 30
0.0
 11
4431.5200823693703569
 21
260.4831526301513236
 31
0.0
  0
LINE
  5
1E48A
  8
0
 10
4431.5562728739705562
 20
260.4839755644513275
 30
0.0
 11
4431.533542548369951
 21
260.4839755644513275
 31
0.0
  0
LINE
  5
1E48B
  8
0
 10
4431.483891864870202
 20
260.4839755644513275
 30
0.0
 11
4431.4611615392714157
 21
260.4839755644513275
 31
0.0
  0
LINE
  5
1E48C
  8
0
 10
4431.4115108557698477
 20
260.4839755644513275
 30
0.0
 11
4431.3887805301710614
 21
260.4839755644513275
 31
0.0
  0
LINE
  5
1E48D
  8
0
 10
4431.4249710347703513
 20
260.4907583452513222
 30
0.0
 11
4431.4477013602690931
 21
260.4907583452513222
 31
0.0
  0
LINE
  5
1E48E
  8
0
 10
4431.497352043869796
 20
260.4907583452513222
 30
0.0
 11
4431.5200823693703569
 21
260.4907583452513222
 31
0.0
  0
LINE
  5
1E48F
  8
0
 10
4431.3887805301710614
 20
260.4925194219512719
 30
0.0
 11
4431.4115108557698477
 21
260.4925194219512719
 31
0.0
  0
LINE
  5
1E490
  8
0
 10
4431.4611615392714157
 20
260.4925194219512719
 30
0.0
 11
4431.483891864870202
 21
260.4925194219512719
 31
0.0
  0
LINE
  5
1E491
  8
0
 10
4431.5065772482266766
 20
260.4933423562512758
 30
0.0
 11
4431.497352043869796
 21
260.4933423562512758
 31
0.0
  0
LINE
  5
1E492
  8
0
 10
4431.4477013602690931
 20
260.4933423562512758
 30
0.0
 11
4431.4249710347703513
 21
260.4933423562512758
 31
0.0
  0
LINE
  5
1E493
  8
0
 10
4431.3887805301710614
 20
260.5001251371513149
 30
0.0
 11
4431.4115108557698477
 21
260.5001251371513149
 31
0.0
  0
LINE
  5
1E494
  8
0
 10
4431.7141442377696876
 20
260.4445840260513023
 30
0.0
 11
4431.7179506404700078
 21
260.4448443070513122
 31
0.0
  0
LINE
  5
1E495
  8
0
 10
4431.6804001707723728
 20
260.4683075095513232
 30
0.0
 11
4431.6769975365714345
 21
260.4677949360512912
 31
0.0
  0
LINE
  5
1E496
  8
0
 10
4432.1066709673696096
 20
260.6292575527513122
 30
0.0
 11
4432.169770876770599
 21
260.6292575527513122
 31
0.0
  0
LINE
  5
1E497
  8
0
 10
4432.1066709673696096
 20
260.6526939229513005
 30
0.0
 11
4432.169770876770599
 21
260.6526939229513005
 31
0.0
  0
ARC
  5
1E498
  8
0
 10
4431.3656647302714191
 20
257.7568819309512946
 30
0.0
 40
3.0976595027999991
 50
86.8076976665077353
 51
89.1910670272005746
  0
ARC
  5
1E499
  8
0
 10
4431.3655945523705668
 20
257.8139881889513276
 30
0.0
 40
3.0358616167000001
 50
86.7499746623984578
 51
89.1764256639478248
  0
ARC
  5
1E49A
  8
0
 10
4431.3645321814710769
 20
257.9978113322512741
 30
0.0
 40
2.8357456982999989
 50
87.7990357323020447
 51
89.0968347227178725
  0
ARC
  5
1E49B
  8
0
 10
4431.3740133050696386
 20
258.2074887432513037
 30
0.0
 40
2.6258592382999999
 50
84.6263162273159679
 51
87.8300536245917129
  0
ARC
  5
1E49C
  8
0
 10
4431.5346802179701626
 20
259.9222330647513104
 30
0.0
 40
0.8448571863999998
 50
74.541415434290883
 51
77.3382143275068188
  0
ARC
  5
1E49D
  8
0
 10
4431.4180734030560416
 20
258.4492476721375169
 30
0.0
 40
2.4034890892494549
 50
80.4246160685292182
 51
87.1359883577435852
  0
ARC
  5
1E49E
  8
0
 10
4431.4197910169750685
 20
258.5176356539690232
 30
0.0
 40
2.3303166637672512
 50
80.1855330559997412
 51
87.0995381012373144
  0
ARC
  5
1E49F
  8
0
 10
4431.3651958115706293
 20
258.7469497184513898
 30
0.0
 40
2.034120040199999
 50
86.8156079764887352
 51
88.7074971747427981
  0
ARC
  5
1E4A0
  8
0
 10
4431.3654706441702729
 20
258.9744232967512971
 30
0.0
 40
1.790848295999999
 50
86.229393899610713
 51
88.6799494095166239
  0
ARC
  5
1E4A1
  8
0
 10
4431.4625654698984363
 20
259.0117513317381963
 30
0.0
 40
1.8168837061949781
 50
78.0983254742069306
 51
85.0313248327661455
  0
ARC
  5
1E4A2
  8
0
 10
4431.4031320334697739
 20
259.2004047381512919
 30
0.0
 40
1.578975521699999
 50
81.7723292972520284
 51
83.9231408155235954
  0
ARC
  5
1E4A3
  8
0
 10
4431.4314674968745749
 20
258.8413852233392731
 30
0.0
 40
1.9870885716723889
 50
78.2264149253162344
 51
85.977948325680444
  0
ARC
  5
1E4A4
  8
0
 10
4431.4185640176710876
 20
259.5122781440513222
 30
0.0
 40
1.250201818599999
 50
79.996644217946951
 51
83.242770073377514
  0
ARC
  5
1E4A5
  8
0
 10
4431.3639538100705977
 20
259.2890433205512863
 30
0.0
 40
1.213112391099999
 50
89.3559958149883755
 51
90.6439434908159853
  0
ARC
  5
1E4A6
  8
0
 10
4431.3639211190702554
 20
259.2913729600513193
 30
0.0
 40
1.2107825314
 50
90.6436355802998435
 51
91.1781479167814837
  0
ARC
  5
1E4A7
  8
0
 10
4431.5693819600710412
 20
261.9197162572513093
 30
0.0
 40
1.4724909443
 50
280.9261071349142753
 51
283.9844447342098874
  0
ARC
  5
1E4A8
  8
0
 10
4431.582935850569811
 20
261.6947948619513227
 30
0.0
 40
1.2290067478999991
 50
282.6792243786122185
 51
284.0675424445778958
  0
ARC
  5
1E4A9
  8
0
 10
4431.5818648962704174
 20
261.6759779766513248
 30
0.0
 40
1.2079180607999991
 50
282.986494665331179
 51
284.3052469303195267
  0
ARC
  5
1E4AA
  8
0
 10
4431.6081564860696744
 20
261.4793692303513239
 30
0.0
 40
0.9980875904000001
 50
284.3736718608583942
 51
285.4899890629419019
  0
ARC
  5
1E4AB
  8
0
 10
4431.6449713451438583
 20
259.8380787376304966
 30
0.0
 40
0.9707353592341901
 50
71.523857567708319
 51
78.5745814728424961
  0
ARC
  5
1E4AC
  8
0
 10
4431.7229756187698513
 20
261.2099368868513238
 30
0.0
 40
0.7241368604
 50
288.5696089358175982
 51
289.7871813694872003
  0
ARC
  5
1E4AD
  8
0
 10
4431.6734930909642571
 20
260.4382397691583719
 30
0.0
 40
0.0581266449116447
 50
314.3752605416393067
 51
319.8927084157069203
  0
LINE
  5
1E4AE
  8
0
 10
4431.6767023536704073
 20
260.4224099570512863
 30
0.0
 11
4431.6781135650508077
 21
260.4262611088269068
 31
0.0
  0
ARC
  5
1E4AF
  8
0
 10
4432.1596081565594432
 20
260.6446379112321097
 30
0.0
 40
0.0898216100588044
 50
9.6235440661850067
 51
47.5322033119883471
  0
ARC
  5
1E4B0
  8
0
 10
4432.0244135157108758
 20
260.4987690494140224
 30
0.0
 40
0.2887055894700034
 50
47.2860850714103975
 51
66.1230681072264161
  0
ARC
  5
1E4B1
  8
0
 10
4431.7691480432768003
 20
259.937657087796822
 30
0.0
 40
0.9051424895700604
 50
65.7245354392903067
 51
77.017172193693952
  0
ARC
  5
1E4B2
  8
0
 10
4431.4737992208656578
 20
258.6959474320693744
 30
0.0
 40
2.1814815466532691
 50
76.7850531835558598
 51
85.8337427000051747
  0
ARC
  5
1E4B3
  8
0
 10
4431.5585804731999815
 20
259.2815423009366214
 30
0.0
 40
1.5594176645078299
 50
74.8938938296701906
 51
80.4283388125856078
  0
ARC
  5
1E4B4
  8
0
 10
4431.5727441521694345
 20
259.3891802144897838
 30
0.0
 40
1.445456724579925
 50
74.3158112484814239
 51
80.2708605967346358
  0
ARC
  5
1E4B5
  8
0
 10
4431.7704682486601087
 20
260.0837518420286187
 30
0.0
 40
0.7232994674259177
 50
65.1705842371515445
 51
74.5213930499931791
  0
ARC
  5
1E4B6
  8
0
 10
4431.9679278445319142
 20
260.5009885868942092
 30
0.0
 40
0.2617449832375064
 50
48.0487145482336331
 51
66.0465599870241817
  0
ARC
  5
1E4B7
  8
0
 10
4432.084950584069702
 20
260.6295258859706792
 30
0.0
 40
0.0879274700614117
 50
15.2772664858796698
 51
48.7683844074523023
  0
ARC
  5
1E4B8
  8
0
 10
4431.7286838067147983
 20
259.92337016670308
 30
0.0
 40
0.8954432205484124
 50
69.4475038914320919
 51
74.6993952509521932
  0
ARC
  5
1E4B9
  8
0
 10
4431.8753147578772769
 20
260.3080915514686922
 30
0.0
 40
0.4837371024017941
 50
60.7333844159687288
 51
69.7123035720697857
  0
ARC
  5
1E4BA
  8
0
 10
4431.9861336800131539
 20
260.508592461705291
 30
0.0
 40
0.2546563194618079
 50
52.0834292633196512
 51
60.4304596794694078
  0
ARC
  5
1E4BB
  8
0
 10
4432.0679254809438135
 20
260.6115287147962931
 30
0.0
 40
0.123193644862882
 50
34.5041608750884734
 51
52.6742719602215388
  0
ARC
  5
1E4BC
  8
0
 10
4432.1259849632751866
 20
260.6510747494980933
 30
0.0
 40
0.0529470525297015
 50
1.4172645252443581
 51
34.8281874486033587
  0
ARC
  5
1E4BD
  8
0
 10
4432.1207197843723407
 20
260.6526744602219878
 30
0.0
 40
0.0581967571959559
 50
336.6140874137495871
 51
359.7143411931941728
  0
ARC
  5
1E4BE
  8
0
 10
4432.0953608049976538
 20
260.6638249589478846
 30
0.0
 40
0.0858986003453632
 50
320.4892574460694163
 51
336.5013831173342851
  0
ARC
  5
1E4BF
  8
0
 10
4432.1700206019449979
 20
260.6528497285771095
 30
0.0
 40
0.0784407929432305
 50
322.4659384227741157
 51
4.9761310027240038
  0
ARC
  5
1E4C0
  8
0
 10
4432.0850270233422634
 20
260.7159225613809213
 30
0.0
 40
0.1842744597030443
 50
300.2066235569091077
 51
323.0146328167600132
  0
ARC
  5
1E4C1
  8
0
 10
4431.9255651587827742
 20
260.9683059427346166
 30
0.0
 40
0.482738318841581
 50
290.4052001340152174
 51
301.4921946432961022
  0
ARC
  5
1E4C2
  8
0
 10
4431.7131989132067247
 20
261.5254168628966909
 30
0.0
 40
1.0789444011409901
 50
282.1673871482735763
 51
290.6600795826508943
  0
ARC
  5
1E4C3
  8
0
 10
4431.5405584486370572
 20
262.2524585764418248
 30
0.0
 40
1.8261070173090821
 50
279.2711093640917852
 51
282.6544991803531843
  0
ARC
  5
1E4C4
  8
0
 10
4431.6707836714631412
 20
261.515364272820193
 30
0.0
 40
1.0556190370497349
 50
283.947469889075478
 51
288.2830912754644146
  0
ARC
  5
1E4C5
  8
0
 10
4431.8361288803153002
 20
261.0306050096929766
 30
0.0
 40
0.5434828250144698
 50
287.7640484357509081
 51
299.9104849374538162
  0
ARC
  5
1E4C6
  8
0
 10
4432.0305281981782173
 20
260.6983070737770163
 30
0.0
 40
0.1585334845935848
 50
298.8958636332810102
 51
325.7896284886875264
  0
ARC
  5
1E4C7
  8
0
 10
4431.7826387747800254
 20
260.2370948796242942
 30
0.0
 40
0.5486735391242058
 50
63.2460307186054678
 51
71.954028891040366
  0
ARC
  5
1E4C8
  8
0
 10
4431.9286623989828513
 20
260.5222054749623908
 30
0.0
 40
0.2283597985909246
 50
47.4161589902544165
 51
63.7593807639749315
  0
ARC
  5
1E4C9
  8
0
 10
4432.029560365852376
 20
260.6307447470654211
 30
0.0
 40
0.0801736315034706
 50
15.8887579118601501
 51
48.0199520916212919
  0
ARC
  5
1E4CA
  8
0
 10
4431.3672819824523685
 20
258.1197230111163208
 30
0.0
 40
2.7115085800309808
 50
85.6945911466518453
 51
89.1119604382233348
  0
ARC
  5
1E4CB
  8
0
 10
4431.6206446647629491
 20
259.7694629675611964
 30
0.0
 40
1.0399438948531361
 50
71.4448528647192944
 51
77.9965460568012645
  0
ARC
  5
1E4CC
  8
0
 10
4431.8283776833413867
 20
260.3645183014049849
 30
0.0
 40
0.4097866750963913
 50
56.3735553318899321
 51
72.504418766142166
  0
ARC
  5
1E4CD
  8
0
 10
4431.9775701207317979
 20
260.5924254567494813
 30
0.0
 40
0.1374113119462435
 50
37.6435685521529493
 51
55.5470741387533025
  0
ARC
  5
1E4CE
  8
0
 10
4432.0381748782756404
 20
260.6388780179103151
 30
0.0
 40
0.0610525792637534
 50
1.9690267285612411
 51
37.8611818352795595
  0
ARC
  5
1E4CF
  8
0
 10
4432.0350177809968955
 20
260.6488160647879795
 30
0.0
 40
0.0742745885910774
 50
319.4639940311192277
 51
344.7324275088354284
  0
ARC
  5
1E4D0
  8
0
 10
4431.9619052187754278
 20
260.7153342998220751
 30
0.0
 40
0.1730985082405188
 50
299.6265689471471774
 51
318.4590347054574977
  0
ARC
  5
1E4D1
  8
0
 10
4431.868489270941609
 20
260.8648891918369941
 30
0.0
 40
0.3493568511249482
 50
295.3541461381216777
 51
300.8192191194654015
  0
ARC
  5
1E4D2
  8
0
 10
4432.0443402927030547
 20
260.6415972583548069
 30
0.0
 40
0.0548546372935801
 50
330.6195661282631022
 51
359.3508066872734048
  0
ARC
  5
1E4D3
  8
0
 10
4431.9991698913972868
 20
260.6686573492639809
 30
0.0
 40
0.1075004963974096
 50
308.5920880816594263
 51
329.8633603804252061
  0
ARC
  5
1E4D4
  8
0
 10
4431.9047505241032923
 20
260.786032135656626
 30
0.0
 40
0.2581381925359076
 50
296.1796968332919278
 51
308.7216528176419956
  0
ARC
  5
1E4D5
  8
0
 10
4431.4564087775906955
 20
260.8886986425874284
 30
0.0
 40
0.3464419605372486
 50
268.9683992595241193
 51
278.6910461530089265
  0
ARC
  5
1E4D6
  8
0
 10
4431.4964635070473378
 20
260.6345830651039819
 30
0.0
 40
0.0891997610148732
 50
277.922585679050826
 51
299.5358045919551842
  0
ARC
  5
1E4D7
  8
0
 10
4431.5302706956008478
 20
260.5757906262335837
 30
0.0
 40
0.0213860340176105
 50
298.3807113535066264
 51
333.1345220354047001
  0
ARC
  5
1E4D8
  8
0
 10
4431.5386026501018932
 20
260.5713831555804063
 30
0.0
 40
0.0119627834534609
 50
333.932404599422398
 51
359.5567437594608009
  0
ARC
  5
1E4D9
  8
0
 10
4431.392579233926881
 20
258.6336246809058821
 30
0.0
 40
2.187504757089703
 50
80.5607460350055788
 51
88.0353620427399193
  0
ARC
  5
1E4DA
  8
0
 10
4431.5566547422204167
 20
259.6169306438192734
 30
0.0
 40
1.1906041854845391
 50
72.9315641720751131
 51
80.5891363138187558
  0
ARC
  5
1E4DB
  8
0
 10
4431.7550696093312581
 20
260.2597705955028005
 30
0.0
 40
0.51784167565981
 50
62.3862165457233004
 51
73.0414663819332901
  0
ARC
  5
1E4DC
  8
0
 10
4431.9052287843678641
 20
260.5449538436010926
 30
0.0
 40
0.1955448259206653
 50
45.3593468607066086
 51
62.6410726887849307
  0
ARC
  5
1E4DD
  8
0
 10
4431.9986124121996909
 20
260.6372600905385752
 30
0.0
 40
0.0642691716832103
 50
3.3143368455659861
 51
46.7727846161816387
  0
ARC
  5
1E4DE
  8
0
 10
4432.0054236916175796
 20
260.6428490166404117
 30
0.0
 40
0.0573809804477632
 50
324.1685388112474016
 51
358.1291702924369815
  0
ARC
  5
1E4DF
  8
0
 10
4431.9767565479050972
 20
260.6613354562520044
 30
0.0
 40
0.0914622660006161
 50
315.7016071986463999
 51
325.292502544822014
  0
ARC
  5
1E4E0
  8
0
 10
4431.5250939295356147
 20
260.7092415208447846
 30
0.0
 40
0.0991442614625746
 50
58.6030102569422979
 51
121.4665328008632059
  0
ARC
  5
1E4E1
  8
0
 10
4431.6760511181728361
 20
260.6928169099505226
 30
0.0
 40
0.0996011002982033
 50
58.8162794587779203
 51
121.4160557953023982
  0
ARC
  5
1E4E2
  8
0
 10
4431.8060779884253861
 20
260.6675696487334903
 30
0.0
 40
0.0995859515677628
 50
58.8598414862825265
 51
121.5887097998358968
  0
ARC
  5
1E4E3
  8
0
 10
4431.9065146927187016
 20
260.6337327990156041
 30
0.0
 40
0.1003804746549502
 50
59.1865286381219207
 51
121.5603861713292986
  0
ARC
  5
1E4E4
  8
0
 10
4431.9693737600318855
 20
260.5933445807398812
 30
0.0
 40
0.1028643434734473
 50
59.1985275162020272
 51
98.8400237990377661
  0
ARC
  5
1E4E5
  8
0
 10
4432.0180341280656648
 20
260.6139694567298761
 30
0.0
 40
0.0387050016161285
 50
44.22438624162465
 51
89.7071381801263783
  0
ARC
  5
1E4E6
  8
0
 10
4431.9478479124863952
 20
260.5757835654792984
 30
0.0
 40
0.0366303276617596
 50
77.7971331992249304
 51
142.7994720001881888
  0
ARC
  5
1E4E7
  8
0
 10
4431.9081000164778743
 20
260.4831553523408161
 30
0.0
 40
0.0930579156450888
 50
75.481954118803813
 51
124.7402183217700014
  0
ARC
  5
1E4E8
  8
0
 10
4431.8360280251090444
 20
260.5116905607333138
 30
0.0
 40
0.0279264516035241
 50
35.1389179659473498
 51
91.0530533593476292
  0
ARC
  5
1E4E9
  8
0
 10
4431.5273577339994517
 20
260.6349911373750956
 30
0.0
 40
0.1000450506917553
 50
71.5285916537652042
 51
110.0032011721105931
  0
ARC
  5
1E4EA
  8
0
 10
4431.5247016594121305
 20
260.8336770128414059
 30
0.0
 40
0.1093323160373917
 50
253.2185648617588924
 51
288.313227964164696
  0
ARC
  5
1E4EB
  8
0
 10
4431.5270414820706719
 20
260.658602358275175
 30
0.0
 40
0.0749124105188651
 50
72.3976145272052349
 51
109.138665878026103
  0
ARC
  5
1E4EC
  8
0
 10
4431.5251361949722195
 20
260.8007097089409854
 30
0.0
 40
0.0748465832488665
 50
252.3808795111372092
 51
289.1554008941677125
  0
ARC
  5
1E4ED
  8
0
 10
4431.6829017438712981
 20
260.6255249858684806
 30
0.0
 40
0.0941924806699705
 50
71.9302690745115427
 51
112.8934428741023055
  0
ARC
  5
1E4EE
  8
0
 10
4431.6750529451928742
 20
260.8118700210177963
 30
0.0
 40
0.1036517618967357
 50
253.8714216922082869
 51
290.9522902563386992
  0
ARC
  5
1E4EF
  8
0
 10
4431.6819887210112938
 20
260.6472086467408076
 30
0.0
 40
0.0708702264174009
 50
72.942375863637821
 51
111.8813150308199056
  0
ARC
  5
1E4F0
  8
0
 10
4431.6763659319149156
 20
260.7807046699485909
 30
0.0
 40
0.0708502022072967
 50
252.9366511024931867
 51
291.887039792003975
  0
ARC
  5
1E4F1
  8
0
 10
4431.8175521704579296
 20
260.6089501543766005
 30
0.0
 40
0.0865092774929813
 50
71.8850576042618741
 51
116.6622795434097952
  0
ARC
  5
1E4F2
  8
0
 10
4431.8048117834841833
 20
260.7794397775156767
 30
0.0
 40
0.0967598315386821
 50
254.3641239104013039
 51
294.1832132372024944
  0
ARC
  5
1E4F3
  8
0
 10
4431.8161000867867187
 20
260.628383162337002
 30
0.0
 40
0.0652634582784427
 50
73.0539051129458699
 51
115.492780411705894
  0
ARC
  5
1E4F4
  8
0
 10
4431.8070311408655471
 20
260.7497514926429858
 30
0.0
 40
0.0652908239865645
 50
253.063228880790291
 51
295.4834566439026275
  0
ARC
  5
1E4F5
  8
0
 10
4431.9207819610737715
 20
260.6025830407264152
 30
0.0
 40
0.0594097900152497
 50
73.008687962804558
 51
119.8668173688608931
  0
ARC
  5
1E4F6
  8
0
 10
4431.9085603988878574
 20
260.7108964041539139
 30
0.0
 40
0.0593890783421208
 50
253.0000288124641088
 51
299.8754765191736169
  0
ARC
  5
1E4F7
  8
0
 10
4431.9223326045130307
 20
260.5824551255178108
 30
0.0
 40
0.0815397827925129
 50
72.0607039612762748
 51
119.8411490071039935
  0
ARC
  5
1E4F8
  8
0
 10
4431.9065286547838696
 20
260.7340686983666274
 30
0.0
 40
0.0845930430769557
 50
252.9735139448968937
 51
298.928339023460012
  0
ARC
  5
1E4F9
  8
0
 10
4431.9916872386147588
 20
260.5571463945299797
 30
0.0
 40
0.0706485357787962
 50
71.1903923570714738
 51
126.7367484705832936
  0
ARC
  5
1E4FA
  8
0
 10
4431.9705850715272391
 20
260.6909307129621993
 30
0.0
 40
0.0800145094376114
 50
254.668948602969607
 51
303.2581922247322268
  0
ARC
  5
1E4FB
  8
0
 10
4431.9894356968097782
 20
260.5714208710307958
 30
0.0
 40
0.0540105345945621
 50
73.0353882414212165
 51
124.8983537763947993
  0
ARC
  5
1E4FC
  8
0
 10
4431.9743089500698261
 20
260.6672861103998002
 30
0.0
 40
0.053926093509558
 50
252.9917547119675874
 51
304.9419873059125052
  0
ARC
  5
1E4FD
  8
0
 10
4431.9658797843003413
 20
260.7207065330713931
 30
0.0
 40
0.0984198617849783
 50
273.4360099358901834
 51
284.4976288756253098
  0
ARC
  5
1E4FE
  8
0
 10
4432.0206341835000785
 20
260.5225205355905018
 30
0.0
 40
0.0667334903195896
 50
71.9785770215661245
 51
131.2315466513965134
  0
ARC
  5
1E4FF
  8
0
 10
4431.9961184493149631
 20
260.6418983354234911
 30
0.0
 40
0.0718775524403361
 50
254.2847190299355873
 51
308.9254046430439757
  0
ARC
  5
1E500
  8
0
 10
4431.9908685230802803
 20
260.6655575099076145
 30
0.0
 40
0.0842102037085785
 50
272.0798022336538224
 51
291.6919439202789022
  0
ARC
  5
1E501
  8
0
 10
4431.9948934593612648
 20
260.6462437936082779
 30
0.0
 40
0.0624846276824469
 50
276.7185900667258807
 51
287.0836050142137879
  0
ARC
  5
1E502
  8
0
 10
4432.0253697436155562
 20
260.5016371890953906
 30
0.0
 40
0.0857399821003541
 50
92.2564445645841147
 51
111.5153015893384065
  0
ARC
  5
1E503
  8
0
 10
4432.0028137024019088
 20
260.5580238416886232
 30
0.0
 40
0.0250118037525519
 50
110.8176573530648028
 51
127.4912942723002942
  0
ARC
  5
1E504
  8
0
 10
4431.9901626547261912
 20
260.5740892928554899
 30
0.0
 40
0.0045721826648647
 50
124.2335004999799963
 51
160.0774176860894897
  0
ARC
  5
1E505
  8
0
 10
4431.9871789736926075
 20
260.5752001034973091
 30
0.0
 40
0.0013888295797827
 50
161.217908474678012
 51
195.1888920264833871
  0
ARC
  5
1E506
  8
0
 10
4432.0232459236221985
 20
260.5632070576573938
 30
0.0
 40
0.0241361235155684
 50
73.9350458980741934
 51
92.9732940740295675
  0
ARC
  5
1E507
  8
0
 10
4432.0292535419721389
 20
260.5834695720217837
 30
0.0
 40
0.0030069950194889
 50
21.3477446238461113
 51
77.0963854303913791
  0
ARC
  5
1E508
  8
0
 10
4432.0299896554352017
 20
260.584268019895319
 30
0.0
 40
0.0020857029750429
 50
330.5390387653204129
 51
8.1639031732874781
  0
ARC
  5
1E509
  8
0
 10
4432.0223366507689207
 20
260.5903223031774019
 30
0.0
 40
0.011823275970691
 50
295.539441935114894
 51
323.214074757798528
  0
ARC
  5
1E50A
  8
0
 10
4431.9937045328788372
 20
260.6509941245064965
 30
0.0
 40
0.0789116686514471
 50
270.5185666535276141
 51
295.3048125206694863
  0
ARC
  5
1E50B
  8
0
 10
4431.9935677158082399
 20
260.588952034525505
 30
0.0
 40
0.016887802479184
 50
248.5150669129085941
 51
272.8884812952462084
  0
ARC
  5
1E50C
  8
0
 10
4431.9881207164053194
 20
260.575495412081807
 30
0.0
 40
0.0023753542010848
 50
196.1116569669503065
 51
251.8923305266478962
  0
ARC
  5
1E50D
  8
0
 10
4431.8219490176634281
 20
260.4974790728629728
 30
0.0
 40
0.0393937626267063
 50
290.0506366179477027
 51
304.4625969160570094
  0
ARC
  5
1E50E
  8
0
 10
4431.8404282951269124
 20
260.4714023695414085
 30
0.0
 40
0.0074522786933663
 50
300.7687743705911885
 51
344.8393635459505049
  0
ARC
  5
1E50F
  8
0
 10
4431.843909734276167
 20
260.4701429015844951
 30
0.0
 40
0.0037749757272118
 50
349.475872974374397
 51
36.9464403673809514
  0
ARC
  5
1E510
  8
0
 10
4431.8401332808489315
 20
260.4670760383741026
 30
0.0
 40
0.0086384017517243
 50
38.1478668118248478
 51
62.513906377863151
  0
ARC
  5
1E511
  8
0
 10
4431.8316110977320932
 20
260.4498683732252857
 30
0.0
 40
0.0278396032238456
 50
63.2994686677709524
 51
82.0632443674955141
  0
ARC
  5
1E512
  8
0
 10
4431.8317539646632213
 20
260.4653029236650923
 30
0.0
 40
0.0083121094288747
 50
50.2425703004178104
 51
63.5586868610221885
  0
ARC
  5
1E513
  8
0
 10
4431.8347551823862887
 20
260.4688203802966768
 30
0.0
 40
0.0036890891341637
 50
17.7664523454655097
 51
51.1381828772341791
  0
ARC
  5
1E514
  8
0
 10
4431.835728868323713
 20
260.4692671741993877
 30
0.0
 40
0.0026286430201975
 50
341.1231734413556751
 51
14.9671386944176508
  0
ARC
  5
1E515
  8
0
 10
4431.8318087573388766
 20
260.4712468394725988
 30
0.0
 40
0.0070045741582229
 50
301.3710672408009827
 51
336.1690667882614889
  0
ARC
  5
1E516
  8
0
 10
4431.5856243911375714
 20
260.2489645001957115
 30
0.0
 40
0.4940989458340314
 50
67.9703590119622447
 51
74.8469788206622439
  0
ARC
  5
1E517
  8
0
 10
4431.7489205952806515
 20
260.5096914814831734
 30
0.0
 40
0.2178330421859464
 50
57.9724958666447918
 51
63.1807023308401696
  0
ARC
  5
1E518
  8
0
 10
4431.8636247546201048
 20
260.6406450489934059
 30
0.0
 40
0.0416703286166497
 50
0.4546946327910275
 51
12.2744066804324401
  0
ARC
  5
1E519
  8
0
 10
4431.8663162652974279
 20
260.6412384241921814
 30
0.0
 40
0.0389783909424662
 50
336.5328880100876177
 51
359.6138646517154029
  0
ARC
  5
1E51A
  8
0
 10
4431.846950821864084
 20
260.6502435983042005
 30
0.0
 40
0.0603306535690002
 50
318.1994830317249239
 51
336.011888957374822
  0
ARC
  5
1E51B
  8
0
 10
4431.7841790188658706
 20
260.7133180242660728
 30
0.0
 40
0.1492566475053283
 50
297.0852133110341242
 51
316.2105290222033886
  0
ARC
  5
1E51C
  8
0
 10
4431.6986027295151871
 20
260.8673269413035882
 30
0.0
 40
0.3253962337353977
 50
294.8706888218678728
 51
298.1538299367471723
  0
ARC
  5
1E51D
  8
0
 10
4431.7655697598765983
 20
260.6098632931814905
 30
0.0
 40
0.0888448178342074
 50
38.9606626928827282
 51
55.728950316839942
  0
ARC
  5
1E51E
  8
0
 10
4431.8008032704728976
 20
260.6378813457459955
 30
0.0
 40
0.0438321882515107
 50
10.6993910235106799
 51
39.4418938088165874
  0
ARC
  5
1E51F
  8
0
 10
4431.8113408288827486
 20
260.6409563641757927
 30
0.0
 40
0.0329241672245795
 50
341.1724781290762962
 51
8.8453767990124135
  0
ARC
  5
1E520
  8
0
 10
4431.7996667353427256
 20
260.6450499704980075
 30
0.0
 40
0.0452948476352527
 50
322.1969087257371029
 51
341.0369923799879075
  0
ARC
  5
1E521
  8
0
 10
4431.722585457943751
 20
261.1922186980272045
 30
0.0
 40
0.7039026625803972
 50
289.2098977850072856
 51
289.7451628196255911
  0
ARC
  5
1E522
  8
0
 10
4431.9942499537391996
 20
260.4896453093651871
 30
0.0
 40
0.0589980160341249
 50
66.7657100182701555
 51
134.5154911814115906
  0
ARC
  5
1E523
  8
0
 10
4431.9742181160663677
 20
260.5962665767376052
 30
0.0
 40
0.0679854212658816
 50
251.7134166248503107
 51
309.5677845748890036
  0
ARC
  5
1E524
  8
0
 10
4431.9972880891637033
 20
260.4737698121559788
 30
0.0
 40
0.0725353361416192
 50
87.4000896511188756
 51
114.4226938621034009
  0
ARC
  5
1E525
  8
0
 10
4431.974854012675678
 20
260.5922620938674754
 30
0.0
 40
0.0496383385030873
 50
269.5656510965915231
 51
291.8761099498469207
  0
ARC
  5
1E526
  8
0
 10
4431.9991729933462921
 20
260.525498355587672
 30
0.0
 40
0.0207797083148575
 50
73.4963322571439761
 51
86.1219320409429798
  0
ARC
  5
1E527
  8
0
 10
4432.0035169741822756
 20
260.539451562215902
 30
0.0
 40
0.0061706104836051
 50
47.5543383332816987
 51
75.3651788518179444
  0
ARC
  5
1E528
  8
0
 10
4432.006161605266243
 20
260.5424708657258179
 30
0.0
 40
0.0021594963167576
 50
11.6704791149882503
 51
45.2672113709873685
  0
ARC
  5
1E529
  8
0
 10
4431.9737734201571584
 20
260.5259513431980736
 30
0.0
 40
0.0153014012826208
 50
115.0392960717889963
 51
136.7487632613911046
  0
ARC
  5
1E52A
  8
0
 10
4431.4294439045952458
 20
260.7199138746677249
 30
0.0
 40
0.5638706003420939
 50
340.7687197083125739
 51
341.0107763586286183
  0
ARC
  5
1E52B
  8
0
 10
4432.5242227253238525
 20
260.3628813301360196
 30
0.0
 40
0.5464522320913949
 50
160.7648618793863022
 51
161.0146341875048961
  0
ARC
  5
1E52C
  8
0
 10
4431.9722813439821039
 20
260.6055025650518928
 30
0.0
 40
0.0747865181460505
 50
270.4439603569491055
 51
293.5564899578001246
  0
ARC
  5
1E52D
  8
0
 10
4431.9953973475076054
 20
260.5523553710613101
 30
0.0
 40
0.0168299620597916
 50
293.7293370930599963
 51
315.9645138712825769
  0
ARC
  5
1E52E
  8
0
 10
4431.9716548050755591
 20
260.5523753072735076
 30
0.0
 40
0.0216905693536656
 50
248.7801742298090915
 51
273.1873577761213028
  0
ARC
  5
1E52F
  8
0
 10
4431.9647245314372412
 20
260.5349989412848117
 30
0.0
 40
0.0029888516525297
 50
195.8037009879672041
 51
252.0612588184939113
  0
ARC
  5
1E530
  8
0
 10
4431.9709859243230312
 20
260.6131378527696256
 30
0.0
 40
0.0730743264051532
 50
267.6504273352715018
 51
293.7244058057146958
  0
ARC
  5
1E531
  8
0
 10
4431.9269816141795673
 20
260.4375884837771196
 30
0.0
 40
0.0702459902979878
 50
87.1865131199404715
 51
110.4411451891675
  0
ARC
  5
1E532
  8
0
 10
4431.9118021740123368
 20
260.4792950441927246
 30
0.0
 40
0.025866551746171
 50
111.1991512012636036
 51
123.5886039968835064
  0
ARC
  5
1E533
  8
0
 10
4431.9026630693142579
 20
260.4928601958487207
 30
0.0
 40
0.009510986426101
 50
122.9345618756972982
 51
139.7624800885199079
  0
ARC
  5
1E534
  8
0
 10
4431.8982333383928562
 20
260.4965203821894875
 30
0.0
 40
0.0037657249701214
 50
138.737983153177197
 51
167.0164051555223921
  0
ARC
  5
1E535
  8
0
 10
4431.8968204528082424
 20
260.4969207018942825
 30
0.0
 40
0.0023001675323227
 50
168.8263584734584981
 51
215.4402609734347891
  0
ARC
  5
1E536
  8
0
 10
4431.8988371778577857
 20
260.4984782879910767
 30
0.0
 40
0.0048474302628922
 50
216.6175001647850991
 51
244.7685226019762013
  0
ARC
  5
1E537
  8
0
 10
4431.9039443734636734
 20
260.5088166052292991
 30
0.0
 40
0.0163778607618717
 50
244.0235119122689014
 51
263.0010473189094
  0
ARC
  5
1E538
  8
0
 10
4431.9095300852795845
 20
260.5477263371868162
 30
0.0
 40
0.0556840664662562
 50
262.1748882279198938
 51
278.8196805592618261
  0
ARC
  5
1E539
  8
0
 10
4431.9115577874890732
 20
260.5505760695547792
 30
0.0
 40
0.0582403674909909
 50
276.4178995957271923
 51
295.1874821904830242
  0
ARC
  5
1E53A
  8
0
 10
4431.9321837360903373
 20
260.5075412314793084
 30
0.0
 40
0.0105250763703089
 50
293.2818252129584948
 51
327.5299213570789902
  0
ARC
  5
1E53B
  8
0
 10
4431.9292738636859212
 20
260.480626719464226
 30
0.0
 40
0.027147694399052
 50
71.8264923041839722
 51
87.5599933764685829
  0
ARC
  5
1E53C
  8
0
 10
4431.9357286242493501
 20
260.4998278102070799
 30
0.0
 40
0.006892717292284
 50
43.4975090707213212
 51
73.0238899739907339
  0
ARC
  5
1E53D
  8
0
 10
4431.9389352661628436
 20
260.5029866600244191
 30
0.0
 40
0.0023937789950802
 50
332.7537005698648045
 51
41.4808389733927427
  0
ARC
  5
1E53E
  8
0
 10
4431.9110113071919841
 20
260.547681190138178
 30
0.0
 40
0.0436538045106003
 50
262.4762720169825911
 51
294.0315003287943796
  0
ARC
  5
1E53F
  8
0
 10
4431.9082705407827234
 20
260.566725606883324
 30
0.0
 40
0.065299380834218
 50
262.2407119858262945
 51
294.1864825787797031
  0
ARC
  5
1E540
  8
0
 10
4431.9242579101310184
 20
260.455976314812915
 30
0.0
 40
0.0545278893763218
 50
61.1359417850306599
 51
135.2525783531951902
  0
ARC
  5
1E541
  8
0
 10
4431.9103054590368629
 20
260.5528683754508279
 30
0.0
 40
0.0635345431869468
 50
247.0496979242107898
 51
309.3388222140291077
  0
ARC
  5
1E542
  8
0
 10
4431.3817913544817202
 20
259.3785803630900091
 30
0.0
 40
1.1362024260854531
 50
81.581438327315027
 51
86.1803604312400466
  0
ARC
  5
1E543
  8
0
 10
4431.4756576051931916
 20
259.9595779349772897
 30
0.0
 40
0.5466464013858003
 50
68.3880536303322657
 51
82.5903090007869167
  0
ARC
  5
1E544
  8
0
 10
4431.6300026588833134
 20
260.3458719611141987
 30
0.0
 40
0.1324023138976409
 50
48.3753347277479975
 51
67.6267177170584262
  0
ARC
  5
1E545
  8
0
 10
4431.6908353060971422
 20
260.4179003785358191
 30
0.0
 40
0.0354305424134278
 50
4.4317806000374853
 51
48.8618546877275506
  0
ARC
  5
1E546
  8
0
 10
4431.6939168294920819
 20
260.4223559014367879
 30
0.0
 40
0.0322888064589819
 50
318.1023369945409058
 51
356.9504826538943121
  0
ARC
  5
1E547
  8
0
 10
4431.7746162253242801
 20
260.4592570932014155
 30
0.0
 40
0.0608389731888017
 50
339.0690383029062218
 51
359.96691531809239
  0
ARC
  5
1E548
  8
0
 10
4431.7391222835631197
 20
260.4787277247451129
 30
0.0
 40
0.1010965064404068
 50
299.2553669285044862
 51
335.9470947325955876
  0
ARC
  5
1E549
  8
0
 10
4431.6143924151956526
 20
260.6865552560540209
 30
0.0
 40
0.3434481703459562
 50
285.2095775792017776
 51
300.4657183720721036
  0
ARC
  5
1E54A
  8
0
 10
4431.4235167460228695
 20
261.3950377034731218
 30
0.0
 40
1.077191993842042
 50
271.4179088006421239
 51
285.1201698005643266
  0
ARC
  5
1E54B
  8
0
 10
4431.3831522461468921
 20
261.4500018439429141
 30
0.0
 40
1.123445951414876
 50
273.7935154414125236
 51
278.4446858000483758
  0
ARC
  5
1E54C
  8
0
 10
4431.4760730008392784
 20
260.8800934376401983
 30
0.0
 40
0.5450013052744943
 50
277.3881452052943928
 51
291.6334922071765163
  0
ARC
  5
1E54D
  8
0
 10
4431.4723225279585677
 20
261.0015812873907066
 30
0.0
 40
0.6660258402855295
 50
276.5682451366250234
 51
288.4545166483671892
  0
ARC
  5
1E54E
  8
0
 10
4431.629423860850693
 20
260.4963306851835227
 30
0.0
 40
0.1334793304124853
 50
292.4516799239368083
 51
311.546267631287094
  0
ARC
  5
1E54F
  8
0
 10
4431.6051967170324133
 20
260.6001270485041914
 30
0.0
 40
0.2431569549773167
 50
288.699545800543774
 51
300.5257295507544768
  0
ARC
  5
1E550
  8
0
 10
4431.6872428958668024
 20
260.4627558278821766
 30
0.0
 40
0.0831567761273121
 50
299.9053590027676819
 51
322.4684502768018888
  0
ARC
  5
1E551
  8
0
 10
4431.7275446337607718
 20
260.4311039118705935
 30
0.0
 40
0.031919200277044
 50
323.4535970463850845
 51
358.4565869601839267
  0
ARC
  5
1E552
  8
0
 10
4431.7281433181651664
 20
260.4295467584913126
 30
0.0
 40
0.0313167026171529
 50
1.2760943858845939
 51
35.531374477988841
  0
ARC
  5
1E553
  8
0
 10
4431.6864180665070307
 20
260.3973196427659786
 30
0.0
 40
0.0840246293102208
 50
36.8801251573001991
 51
61.7721858085316029
  0
ARC
  5
1E554
  8
0
 10
4431.5924037142103771
 20
260.231867676622187
 30
0.0
 40
0.2743050282406739
 50
60.8158295691306208
 51
72.0375723681568871
  0
ARC
  5
1E555
  8
0
 10
4431.4564886817179286
 20
259.7891907613403077
 30
0.0
 40
0.7373561167227193
 50
72.5992428948819537
 51
82.8601890039670081
  0
ARC
  5
1E556
  8
0
 10
4431.3756208658605829
 20
259.2306415630256993
 30
0.0
 40
1.301670314950153
 50
82.3840001266638353
 51
87.7344954853859349
  0
ARC
  5
1E557
  8
0
 10
4431.364430326713773
 20
259.3135278269762125
 30
0.0
 40
1.188624092480135
 50
86.6616808186895042
 51
89.3656985230546468
  0
ARC
  5
1E558
  8
0
 10
4431.3728261091564491
 20
259.4512669560375002
 30
0.0
 40
1.050629854911721
 50
83.5390303801224547
 51
86.6813543100844726
  0
ARC
  5
1E559
  8
0
 10
4431.4062045494565609
 20
259.7300565205392786
 30
0.0
 40
0.7698570943083535
 50
77.6590329450701944
 51
83.6726415886273145
  0
ARC
  5
1E55A
  8
0
 10
4431.5005642843443638
 20
260.1449257146664991
 30
0.0
 40
0.3444247587703652
 50
65.9695731005423625
 51
78.2429083651443307
  0
ARC
  5
1E55B
  8
0
 10
4431.6089853142257198
 20
260.3810623589300803
 30
0.0
 40
0.0846513038390122
 50
41.526436480816372
 51
67.9085178360775927
  0
ARC
  5
1E55C
  8
0
 10
4431.650724871786224
 20
260.4188088271762922
 30
0.0
 40
0.0283844503306533
 50
9.4164178368583631
 51
40.3414535068626066
  0
ARC
  5
1E55D
  8
0
 10
4431.656991699504033
 20
260.4206308829690215
 30
0.0
 40
0.0219175692054749
 50
336.7148177911379889
 51
7.3973625059532448
  0
ARC
  5
1E55E
  8
0
 10
4431.6382013670681772
 20
260.4303497554433875
 30
0.0
 40
0.0430454696070239
 50
308.1088986485739838
 51
334.7187815191734899
  0
ARC
  5
1E55F
  8
0
 10
4431.5858209001953583
 20
260.4975565208159196
 30
0.0
 40
0.1282536825245988
 50
292.2694267966771235
 51
307.99176606019779
  0
ARC
  5
1E560
  8
0
 10
4431.4501815897274355
 20
260.8597764453515992
 30
0.0
 40
0.5149925287449082
 50
275.9109333062540941
 51
290.9625634375443042
  0
ARC
  5
1E561
  8
0
 10
4431.3705836356893997
 20
261.4101167999995141
 30
0.0
 40
1.0708404023675631
 50
272.3462017887903244
 51
277.1148623330120131
  0
ARC
  5
1E562
  8
0
 10
4431.6391109817968754
 20
260.441227241892193
 30
0.0
 40
0.0420380952003657
 50
308.7330259688724823
 51
333.4086184911001283
  0
ARC
  5
1E563
  8
0
 10
4431.5805383507140505
 20
260.5168208049632881
 30
0.0
 40
0.1376641936575803
 50
289.9911578343475185
 51
308.0639396735268747
  0
ARC
  5
1E564
  8
0
 10
4431.4642728334492858
 20
260.8297935754147261
 30
0.0
 40
0.4715326276722556
 50
278.6077347531081045
 51
290.2660599899157887
  0
ARC
  5
1E565
  8
0
 10
4431.3767662106711214
 20
261.3435471533775853
 30
0.0
 40
0.9926430880702897
 50
272.8213575258611741
 51
279.1634798625480016
  0
ARC
  5
1E566
  8
0
 10
4431.475393256231655
 20
259.7225670800107764
 30
0.0
 40
0.852046026438419
 50
70.8937440503170961
 51
84.9384951947182856
  0
ARC
  5
1E567
  8
0
 10
4431.6882065492036418
 20
260.3320192175833085
 30
0.0
 40
0.2065146202854033
 50
54.1825791921408992
 51
71.3386423194458672
  0
ARC
  5
1E568
  8
0
 10
4431.7661739901159308
 20
260.4372555372979718
 30
0.0
 40
0.0755708449207964
 50
32.2170327221724833
 51
55.4245325785126823
  0
ARC
  5
1E569
  8
0
 10
4431.7950815736667209
 20
260.4566984017624804
 30
0.0
 40
0.0407617099875345
 50
7.9127200089027871
 51
30.7579718487364389
  0
ARC
  5
1E56A
  8
0
 10
4431.3639808786192589
 20
261.7038560406106171
 30
0.0
 40
1.3769669544989609
 50
266.1462695123913136
 51
273.8517255291649235
  0
ARC
  5
1E56B
  8
0
 10
4431.3639551884198227
 20
261.5485098348239035
 30
0.0
 40
1.209389154622488
 50
267.6084394111964002
 51
272.3915605888035998
  0
ARC
  5
1E56C
  8
0
 10
4431.3639551884198227
 20
261.5563514980141804
 30
0.0
 40
1.2058223023712631
 50
267.0683664208813184
 51
272.9316335791186816
  0
ARC
  5
1E56D
  8
0
 10
4431.3639551884198227
 20
259.0143222409579948
 30
0.0
 40
1.518284879093309
 50
87.6173059736638464
 51
92.3826940263361394
  0
ARC
  5
1E56E
  8
0
 10
4431.3639551884689354
 20
258.9486878519632
 30
0.0
 40
1.7523420927881761
 50
83.8868834526176954
 51
96.1131165473823046
  0
ARC
  5
1E56F
  8
0
 10
4431.3639551884198227
 20
258.135725568205828
 30
0.0
 40
2.686117281805775
 50
87.7892539653126249
 51
92.2107460346873609
  0
ARC
  5
1E570
  8
0
 10
4431.3639551906207998
 20
257.9978207385942142
 30
0.0
 40
2.8334481358465751
 50
89.0829009566741377
 51
90.9170991329668965
  0
ARC
  5
1E571
  8
0
 10
4431.3639551884198227
 20
257.5399469125125052
 30
0.0
 40
3.3425053234388051
 50
85.3954397256060531
 51
94.6045602743939753
  0
LINE
  5
1E572
  8
0
 10
4431.9151362907696239
 20
267.1168941456513153
 30
0.0
 11
4431.9151362907696239
 21
263.892419022467891
 31
0.0
  0
LINE
  5
1E573
  8
0
 10
4430.8127740860709309
 20
267.1168941456513153
 30
0.0
 11
4430.8127740860709309
 21
263.8924189720513027
 31
0.0
  0
ENDSEC
  0
EOF
