  0
SECTION
  2
HEADER
  9
$ACADVER
  1
AC1009
  9
$INSBASE
 10
4478.449746527678144
 20
268.3362863843457262
 30
0.0
  9
$EXTMIN
 10
4477.5639197559776221
 20
260.8782511279275127
 30
0.0
  9
$EXTMAX
 10
4481.2268674318793273
 20
269.2221131560957019
 30
0.0
  9
$LIMMIN
 10
0.0
 20
0.0
  9
$LIMMAX
 10
11.6929133858000007
 20
8.2677165353999982
  9
$ORTHOMODE
 70
     0
  9
$REGENMODE
 70
     1
  9
$FILLMODE
 70
     1
  9
$QTEXTMODE
 70
     0
  9
$MIRRTEXT
 70
     0
  9
$DRAGMODE
 70
     2
  9
$LTSCALE
 40
0.6431102362
  9
$OSMODE
 70
  4095
  9
$ATTMODE
 70
     1
  9
$TEXTSIZE
 40
0.2
  9
$TRACEWID
 40
0.05
  9
$TEXTSTYLE
  7
STANDARD
  9
$CLAYER
  8
0
  9
$CELTYPE
  6
BYLAYER
  9
$CECOLOR
 62
   256
  9
$DIMSCALE
 40
1.0
  9
$DIMASZ
 40
0.1875
  9
$DIMEXO
 40
0.0625
  9
$DIMDLI
 40
0.4443307087
  9
$DIMRND
 40
0.0
  9
$DIMDLE
 40
0.0
  9
$DIMEXE
 40
0.125
  9
$DIMTP
 40
0.01
  9
$DIMTM
 40
0.01
  9
$DIMTXT
 40
2.0
  9
$DIMCEN
 40
0.1052362205
  9
$DIMTSZ
 40
0.0
  9
$DIMTOL
 70
     1
  9
$DIMLIM
 70
     0
  9
$DIMTIH
 70
     1
  9
$DIMTOH
 70
     1
  9
$DIMSE1
 70
     0
  9
$DIMSE2
 70
     0
  9
$DIMTAD
 70
     0
  9
$DIMZIN
 70
     0
  9
$DIMBLK
  1

  9
$DIMASO
 70
     1
  9
$DIMSHO
 70
     1
  9
$DIMPOST
  1
\X
  9
$DIMAPOST
  1

  9
$DIMALT
 70
     1
  9
$DIMALTD
 70
     2
  9
$DIMALTF
 40
25.3999999999999986
  9
$DIMLFAC
 40
1.0
  9
$DIMTOFL
 70
     0
  9
$DIMTVP
 40
0.0
  9
$DIMTIX
 70
     0
  9
$DIMSOXD
 70
     0
  9
$DIMSAH
 70
     0
  9
$DIMBLK1
  1

  9
$DIMBLK2
  1

  9
$DIMSTYLE
  2
STANDARD
  9
$DIMCLRD
 70
     0
  9
$DIMCLRE
 70
     0
  9
$DIMCLRT
 70
     0
  9
$DIMTFAC
 40
1.0
  9
$DIMGAP
 40
0.09
  9
$LUNITS
 70
     2
  9
$LUPREC
 70
     4
  9
$SKETCHINC
 40
0.1
  9
$FILLETRAD
 40
0.0
  9
$AUNITS
 70
     0
  9
$AUPREC
 70
     0
  9
$MENU
  1
.
  9
$ELEVATION
 40
0.0
  9
$PELEVATION
 40
0.0
  9
$THICKNESS
 40
0.0
  9
$LIMCHECK
 70
     0
  9
$BLIPMODE
 70
     0
  9
$CHAMFERA
 40
0.0
  9
$CHAMFERB
 40
0.0
  9
$SKPOLY
 70
     0
  9
$TDCREATE
 40
2458060.468368056230247
  9
$TDUPDATE
 40
2460012.4335648152045906
  9
$TDINDWG
 40
0.4746829861
  9
$TDUSRTIMER
 40
0.4746829861
  9
$USRTIMER
 70
     1
  9
$ANGBASE
 50
0.0
  9
$ANGDIR
 70
     0
  9
$PDMODE
 70
     0
  9
$PDSIZE
 40
0.3125
  9
$PLINEWID
 40
0.0
  9
$COORDS
 70
     1
  9
$SPLFRAME
 70
     0
  9
$SPLINETYPE
 70
     6
  9
$SPLINESEGS
 70
     8
  9
$ATTDIA
 70
     1
  9
$ATTREQ
 70
     1
  9
$HANDLING
 70
     1
  9
$HANDSEED
  5
1ED77
  9
$SURFTAB1
 70
     6
  9
$SURFTAB2
 70
     6
  9
$SURFTYPE
 70
     6
  9
$SURFU
 70
     6
  9
$SURFV
 70
     6
  9
$UCSNAME
  2

  9
$UCSORG
 10
0.0
 20
0.0
 30
0.0
  9
$UCSXDIR
 10
1.0
 20
0.0
 30
0.0
  9
$UCSYDIR
 10
0.0
 20
1.0
 30
0.0
  9
$PUCSNAME
  2

  9
$PUCSORG
 10
0.0
 20
0.0
 30
0.0
  9
$PUCSXDIR
 10
1.0
 20
0.0
 30
0.0
  9
$PUCSYDIR
 10
0.0
 20
1.0
 30
0.0
  9
$USERI1
 70
     0
  9
$USERI2
 70
     0
  9
$USERI3
 70
     0
  9
$USERI4
 70
     0
  9
$USERI5
 70
     0
  9
$USERR1
 40
0.0
  9
$USERR2
 40
0.0
  9
$USERR3
 40
0.0
  9
$USERR4
 40
0.0
  9
$USERR5
 40
0.0
  9
$WORLDVIEW
 70
     1
  9
$SHADEDGE
 70
     3
  9
$SHADEDIF
 70
    70
  9
$TILEMODE
 70
     1
  9
$MAXACTVP
 70
    64
  9
$PLIMCHECK
 70
     0
  9
$PEXTMIN
 10
1.0000000000000000E+20
 20
1.0000000000000000E+20
 30
1.0000000000000000E+20
  9
$PEXTMAX
 10
-1.0000000000000000E+20
 20
-1.0000000000000000E+20
 30
-1.0000000000000000E+20
  9
$PLIMMIN
 10
0.0
 20
0.0
  9
$PLIMMAX
 10
12.0
 20
9.0
  9
$UNITMODE
 70
     0
  9
$VISRETAIN
 70
     1
  9
$PLINEGEN
 70
     0
  9
$PSLTSCALE
 70
     1
  0
ENDSEC
  0
SECTION
  2
TABLES
  0
TABLE
  2
VPORT
 70
     1
  0
VPORT
  2
*ACTIVE
 70
     0
 10
0.0
 20
0.0
 11
1.0
 21
1.0
 12
78.2569909987041683
 22
15.6278257118686703
 13
0.0
 23
0.0
 14
1.0
 24
1.0
 15
0.0
 25
0.0
 16
0.0
 26
0.0
 36
0.0438225416440575
 17
4401.1384025952247612
 27
249.4223564301429121
 37
0.0
 40
8.4130540168058943
 41
2.5251322751322749
 42
50.0
 43
0.0
 44
0.0
 50
0.0
 51
0.0
 71
     0
 72
   100
 73
     1
 74
     1
 75
     0
 76
     0
 77
     0
 78
     0
  0
ENDTAB
  0
TABLE
  2
LTYPE
 70
     2
  0
LTYPE
  2
CONTINUOUS
 70
     0
  3
Solid line
 72
    65
 73
     0
 40
0.0
  0
LTYPE
  2
PHANTOM2
 70
     0
  3
___ _ _ ___ _ _ ___ _ _ ___ _ _
 72
    65
 73
     6
 40
1.25
 49
0.625
 49
-0.125
 49
0.125
 49
-0.125
 49
0.125
 49
-0.125
  0
ENDTAB
  0
TABLE
  2
LAYER
 70
     2
  0
LAYER
  2
0
 70
     0
 62
   255
  6
CONTINUOUS
  0
LAYER
  2
DEFPOINTS
 70
     0
 62
     7
  6
CONTINUOUS
  0
ENDTAB
  0
TABLE
  2
STYLE
 70
     1
  0
STYLE
  2
STANDARD
 70
     0
 40
0.0
 41
0.8
 50
0.0
 71
     0
 42
0.2
  3
txt
  4

  0
ENDTAB
  0
TABLE
  2
VIEW
 70
     0
  0
ENDTAB
  0
TABLE
  2
UCS
 70
     0
  0
ENDTAB
  0
TABLE
  2
APPID
 70
    11
  0
APPID
  2
ACAD
 70
     0
  0
APPID
  2
ACAD_MLEADERVER
 70
     0
  0
APPID
  2
ACAD_EXEMPT_FROM_CAD_STANDARDS
 70
     0
  0
APPID
  2
ACAD_NAV_VCDISPLAY
 70
     0
  0
APPID
  2
ACAECLAYERSTANDARD
 70
     0
  0
APPID
  2
ACCMTRANSPARENCY
 70
     0
  0
APPID
  2
ACAD_DSTYLE_DIMJAG
 70
     0
  0
APPID
  2
ACAD_DSTYLE_DIMTALN
 70
     0
  0
APPID
  2
ACDBATTR
 70
     0
  0
APPID
  2
ACADANNOTATIVE
 70
     0
  0
APPID
  2
DCO15
 70
     0
  0
ENDTAB
  0
TABLE
  2
DIMSTYLE
 70
     1
  0
DIMSTYLE
  2
STANDARD
 70
     0
  3

  4

  5

  6

  7

 40
1.0
 41
0.1875
 42
0.0625
 43
0.38
 44
0.125
 45
0.0
 46
0.0
 47
0.01
 48
0.01
140
0.15625
141
0.09
142
0.0
143
25.3999999999999986
144
1.0
145
0.0
146
1.0
147
0.09
 71
     1
 72
     0
 73
     1
 74
     1
 75
     0
 76
     0
 77
     0
 78
     4
170
     0
171
     2
172
     0
173
     0
174
     0
175
     0
176
     0
177
     0
178
     0
  0
ENDTAB
  0
ENDSEC
  0
SECTION
  2
BLOCKS
  0
BLOCK
  8
0
  2
$MODEL_SPACE
 70
     0
 10
0.0
 20
0.0
 30
0.0
  3
$MODEL_SPACE
  1

  0
ENDBLK
  5
21
  8
0
  0
BLOCK
 67
     1
  8
0
  2
$PAPER_SPACE
 70
     0
 10
0.0
 20
0.0
 30
0.0
  3
$PAPER_SPACE
  1

  0
ENDBLK
  5
1D
 67
     1
  8
0
  0
BLOCK
  8
0
  2
_FILLED
 70
     0
 10
0.0
 20
0.0
 30
0.0
  3
_FILLED
  1

  0
SOLID
  5
1C78F
  8
0
  6
BYBLOCK
 62
     0
 10
0.0
 20
0.0
 30
0.0
 11
-1.0
 21
0.1666666667
 31
0.0
 12
-1.0
 22
-0.1666666667
 32
0.0
 13
-1.0
 23
-0.1666666667
 33
0.0
  0
ENDBLK
  5
1C790
  8
0
  6
BYBLOCK
 62
     0
  0
ENDSEC
  0
SECTION
  2
ENTITIES
  0
ATTDEF
  5
1C5FC
  8
DEFPOINTS
 10
4478.4452626763486478
 20
268.3349894680774241
 30
0.0
 40
0.001
  1
K-21369K-4
  3

  2
MODELNUMBER
 70
     0
1001
ACDBATTR
1070
     0
1070
     1
  0
ATTDEF
  5
1C5FD
  8
DEFPOINTS
 10
4478.4451368666914277
 20
268.3333226276981804
 30
0.0
 40
0.001
  1
TAUT
  3

  2
TRADENAME
 70
     0
1001
ACDBATTR
1070
     0
1070
     1
  0
ATTDEF
  5
1C5FE
  8
DEFPOINTS
 10
4478.4452626763486478
 20
268.3316561347440938
 30
0.0
 40
0.001
  1
KITCHEN SINK FAUCET
  3

  2
PRODUCT
 70
     0
1001
ACDBATTR
1070
     0
1070
     1
  0
LINE
  5
1EC7F
  8
0
 10
4481.2268674318784178
 20
267.5410260291956774
 30
0.0
 11
4481.2268674318784178
 21
269.1316168854957027
 31
0.0
  0
LINE
  5
1EC80
  8
0
 10
4480.2765181811782895
 20
269.1563922666956046
 30
0.0
 11
4480.2765181811782895
 21
267.5161805018956898
 31
0.0
  0
LINE
  5
1EC81
  8
0
 10
4480.1387229055790158
 20
267.529199770195703
 30
0.0
 11
4480.1387229055790158
 21
269.1433573205957259
 31
0.0
  0
LINE
  5
1EC82
  8
0
 10
4480.9979245234062546
 20
267.5095147307956722
 30
0.0
 11
4481.0831904788519751
 21
267.6944378559259121
 31
0.0
  0
LINE
  5
1EC83
  8
0
 10
4478.9221874725790258
 20
261.3169415508957059
 30
0.0
 11
4478.9221874725790258
 21
268.3362863843956916
 31
0.0
  0
LINE
  5
1EC84
  8
0
 10
4477.9773055827781718
 20
261.3169415508950806
 30
0.0
 11
4477.9773055827781718
 21
268.3362863843956916
 31
0.0
  0
LINE
  5
1EC85
  8
0
 10
4478.9221874725790258
 20
267.5095147307956722
 30
0.0
 11
4480.1190378662786316
 21
267.5095147307956722
 31
0.0
  0
LINE
  5
1EC86
  8
0
 10
4480.2901369858773251
 20
267.5095147307956722
 30
0.0
 11
4481.195371368978158
 21
267.5095147307956722
 31
0.0
  0
LINE
  5
1EC87
  8
0
 10
4481.1953705792775509
 20
267.6944076136956028
 30
0.0
 11
4481.0845397253788178
 21
267.6944076039957281
 31
0.0
  0
LINE
  5
1EC88
  8
0
 10
4481.0845386722703552
 20
268.9781651545256977
 30
0.0
 11
4480.9977314560719606
 21
269.163058037795679
 31
0.0
  0
LINE
  5
1EC89
  8
0
 10
4481.084539088578822
 20
268.9781651549956791
 30
0.0
 11
4481.1953713690782024
 21
268.9781651554956738
 31
0.0
  0
LINE
  5
1EC8A
  8
0
 10
4478.8024330005664524
 20
269.1630563674514747
 30
0.0
 11
4480.1190378662786316
 21
269.1630580378957234
 31
0.0
  0
LINE
  5
1EC8B
  8
0
 10
4481.1953713688790231
 20
269.163058037795679
 30
0.0
 11
4480.290136985978279
 21
269.163058037795679
 31
0.0
  0
ARC
  5
1EC8C
  8
0
 10
4711.464853299878996
 20
268.3362863852955797
 30
0.0
 40
230.4113086412999962
 50
179.8599101660007022
 51
180.1400898345007988
  0
ARC
  5
1EC8D
  8
0
 10
4478.449746527678144
 20
268.3362863843956916
 30
0.0
 40
0.8858267717
 50
302.2309526349807811
 51
237.7690473650191905
  0
ARC
  5
1EC8E
  8
0
 10
4480.0191216073790201
 20
268.2304104793956867
 30
0.0
 40
0.8661417323
 50
72.7119315102758748
 51
82.0629436103910876
  0
ARC
  5
1EC8F
  8
0
 10
4480.0191216073790201
 20
268.4421622892957089
 30
0.0
 40
0.8661417323
 50
277.9370563896089266
 51
287.2880684897240826
  0
ARC
  5
1EC90
  8
0
 10
4478.449746527678144
 20
268.3362863843956916
 30
0.0
 40
0.7086614173000001
 50
311.8103148993794207
 51
228.1896851006206077
  0
ARC
  5
1EC91
  8
0
 10
4478.449746527678144
 20
268.3362863843956916
 30
0.0
 40
0.7086614173000001
 50
357.0057408104000842
 51
2.99425918959995
  0
ARC
  5
1EC92
  8
0
 10
4478.449746527678144
 20
268.3362863843956916
 30
0.0
 40
0.4881889764000001
 50
345.4074493964707244
 51
194.5925506035291903
  0
ARC
  5
1EC93
  8
0
 10
4478.449746527678144
 20
268.3362863843956916
 30
0.0
 40
0.4724409449000001
 50
0.0
 51
180.0
  0
ARC
  5
1EC94
  8
0
 10
4481.0845714884926565
 20
267.7259278060765268
 30
0.0
 40
0.031520218084808
 50
180.5349623190573141
 51
269.9422626873736135
  0
ARC
  5
1EC95
  8
0
 10
4481.0845744691223445
 20
268.946641492086826
 30
0.0
 40
0.0315236827634731
 50
90.0643058197338746
 51
179.4575406201199996
  0
ARC
  5
1EC96
  8
0
 10
4481.1954013930971996
 20
267.7258793085749744
 30
0.0
 40
0.0314717099641897
 50
269.9439019327494975
 51
358.9122706449709881
  0
ARC
  5
1EC97
  8
0
 10
4481.1954092465275608
 20
268.9467039366360268
 30
0.0
 40
0.031461241660794
 50
0.7986416174283267
 51
90.0689807016646427
  0
ARC
  5
1EC98
  8
0
 10
4480.1190378662786316
 20
267.529199770195703
 30
0.0
 40
0.0196850394
 50
270.0
 51
0.0
  0
ARC
  5
1EC99
  8
0
 10
4478.8026054704787384
 20
269.3609509505956794
 30
0.0
 40
0.1978946583
 50
251.25390335009061
 51
269.9500653556913221
  0
ARC
  5
1EC9A
  8
0
 10
4480.1190378630708437
 20
269.143372989153022
 30
0.0
 40
0.0196850487426954
 50
359.9543947128927925
 51
89.9999906659153339
  0
CIRCLE
  5
1EC9B
  8
0
 10
4480.7111899863775761
 20
268.3362863305957262
 30
0.0
 40
0.1285263355000114
  0
ARC
  5
1EC9C
  8
0
 10
4478.4724484728922107
 20
261.9608443448195771
 30
0.0
 40
0.4590945147018837
 50
304.7795318663017952
 51
348.4132747045038059
  0
ARC
  5
1EC9D
  8
0
 10
4478.4503971787280534
 20
261.9948063670374268
 30
0.0
 40
0.4995694189115094
 50
263.1800976873444142
 51
304.6349386774330128
  0
ARC
  5
1EC9E
  8
0
 10
4478.4459154426258465
 20
261.986610373975509
 30
0.0
 40
0.4909115287444939
 50
231.344694636912692
 51
263.5858843020596964
  0
ARC
  5
1EC9F
  8
0
 10
4478.4038000286036549
 20
261.9378284542611937
 30
0.0
 40
0.4265170016736044
 50
180.5892518548457986
 51
231.6694962093444019
  0
ARC
  5
1ECA0
  8
0
 10
4478.4945932798627837
 20
261.3208136915902742
 30
0.0
 40
0.4276117247188243
 50
303.4181888859566243
 51
359.4811640122484846
  0
ARC
  5
1ECA1
  8
0
 10
4478.4495301479246336
 20
261.380629664502294
 30
0.0
 40
0.5023785365748507
 50
258.1384709669566746
 51
303.9507587533873902
  0
ARC
  5
1ECA2
  8
0
 10
4478.4365513416378235
 20
261.3495211308209036
 30
0.0
 40
0.4693088872207133
 50
212.7892934652510064
 51
258.9085361943746193
  0
ARC
  5
1ECA3
  8
0
 10
4478.3925081740590031
 20
261.3179673793193842
 30
0.0
 40
0.4152038585208294
 50
180.1415586542620986
 51
212.4202117944658141
  0
ARC
  5
1ECA4
  8
0
 10
4480.580560462262838
 20
267.7610906775328772
 30
0.0
 40
0.4738207179735169
 50
355.7084044549246187
 51
1.4311468460498109
  0
ARC
  5
1ECA5
  8
0
 10
4480.4379999811217203
 20
268.9079175168938036
 30
0.0
 40
0.6162888777312744
 50
359.2311792469695888
 51
3.6303058059935198
  0
ARC
  5
1ECA6
  8
0
 10
4481.1945294949182426
 20
267.5418522643989263
 30
0.0
 40
0.0323484904048212
 50
271.4912991823873085
 51
358.5364096380699834
  0
ARC
  5
1ECA7
  8
0
 10
4481.19452726685995
 20
269.1307163506377833
 30
0.0
 40
0.0323527006049339
 50
1.595029494987259
 51
88.5049479363847666
  0
ARC
  5
1ECA8
  8
0
 10
4481.006573884899808
 20
267.5604973118968246
 30
0.0
 40
0.0317400344145611
 50
193.3359612382126898
 51
270.4034948346431975
  0
ARC
  5
1ECA9
  8
0
 10
4481.0065745272440836
 20
269.1120757824008933
 30
0.0
 40
0.0317397097630549
 50
89.6541689792743313
 51
166.663915431618193
  0
ARC
  5
1ECAA
  8
0
 10
4486.9068164469408657
 20
268.3362828545022012
 30
0.0
 40
5.982601449639815
 50
172.4784785567603933
 51
187.5214501811404944
  0
ARC
  5
1ECAB
  8
0
 10
4480.2925464775271394
 20
267.5684132071758086
 30
0.0
 40
0.0589477410077369
 50
259.4838429400768973
 51
267.6573797140811166
  0
ARC
  5
1ECAC
  8
0
 10
4480.2834618924207462
 20
267.5180003084137184
 30
0.0
 40
0.0077282336956188
 50
218.5194843022418922
 51
257.4890968788141095
  0
ARC
  5
1ECAD
  8
0
 10
4480.2816226962077053
 20
267.5160794615491113
 30
0.0
 40
0.0051055149432095
 50
178.8660177372682085
 51
214.5048024503545037
  0
ARC
  5
1ECAE
  8
0
 10
4480.2917068494707564
 20
269.1075387515394937
 30
0.0
 40
0.055541476553826
 50
91.6196640556543827
 51
100.2875753040553946
  0
ARC
  5
1ECAF
  8
0
 10
4480.2834618924207462
 20
269.1546426062777186
 30
0.0
 40
0.0077282336956188
 50
102.5109031211859048
 51
141.4805156977581078
  0
ARC
  5
1ECB0
  8
0
 10
4480.281639440505387
 20
269.1565554323776155
 30
0.0
 40
0.0051238579340955
 50
145.5273517252967963
 51
181.8248526410897909
  0
ENDSEC
  0
EOF
