  0
SECTION
  2
HEADER
  9
$ACADVER
  1
AC1009
  9
$INSBASE
 10
4472.2894222936402002
 20
261.9284697311003924
 30
0.0
  9
$EXTMIN
 10
4464.6122037782661209
 20
261.9192485345964769
 30
-0.0000000349181948
  9
$EXTMAX
 10
4473.4613719876633695
 20
274.599868333840277
 30
0.0000000814935746
  9
$LIMMIN
 10
0.0
 20
0.0
  9
$LIMMAX
 10
11.6929133858000007
 20
8.2677165353999982
  9
$ORTHOMODE
 70
     0
  9
$REGENMODE
 70
     1
  9
$FILLMODE
 70
     1
  9
$QTEXTMODE
 70
     0
  9
$MIRRTEXT
 70
     0
  9
$DRAGMODE
 70
     2
  9
$LTSCALE
 40
0.6431102362
  9
$OSMODE
 70
  4095
  9
$ATTMODE
 70
     1
  9
$TEXTSIZE
 40
0.2
  9
$TRACEWID
 40
0.05
  9
$TEXTSTYLE
  7
STANDARD
  9
$CLAYER
  8
0
  9
$CELTYPE
  6
BYLAYER
  9
$CECOLOR
 62
   256
  9
$DIMSCALE
 40
1.0
  9
$DIMASZ
 40
0.1875
  9
$DIMEXO
 40
0.0625
  9
$DIMDLI
 40
0.4443307087
  9
$DIMRND
 40
0.0
  9
$DIMDLE
 40
0.0
  9
$DIMEXE
 40
0.125
  9
$DIMTP
 40
0.01
  9
$DIMTM
 40
0.01
  9
$DIMTXT
 40
2.0
  9
$DIMCEN
 40
0.1052362205
  9
$DIMTSZ
 40
0.0
  9
$DIMTOL
 70
     1
  9
$DIMLIM
 70
     0
  9
$DIMTIH
 70
     1
  9
$DIMTOH
 70
     1
  9
$DIMSE1
 70
     0
  9
$DIMSE2
 70
     0
  9
$DIMTAD
 70
     0
  9
$DIMZIN
 70
     0
  9
$DIMBLK
  1

  9
$DIMASO
 70
     1
  9
$DIMSHO
 70
     1
  9
$DIMPOST
  1
\X
  9
$DIMAPOST
  1

  9
$DIMALT
 70
     1
  9
$DIMALTD
 70
     2
  9
$DIMALTF
 40
25.3999999999999986
  9
$DIMLFAC
 40
1.0
  9
$DIMTOFL
 70
     0
  9
$DIMTVP
 40
0.0
  9
$DIMTIX
 70
     0
  9
$DIMSOXD
 70
     0
  9
$DIMSAH
 70
     0
  9
$DIMBLK1
  1

  9
$DIMBLK2
  1

  9
$DIMSTYLE
  2
STANDARD
  9
$DIMCLRD
 70
     0
  9
$DIMCLRE
 70
     0
  9
$DIMCLRT
 70
     0
  9
$DIMTFAC
 40
1.0
  9
$DIMGAP
 40
0.09
  9
$LUNITS
 70
     2
  9
$LUPREC
 70
     4
  9
$SKETCHINC
 40
0.1
  9
$FILLETRAD
 40
0.0
  9
$AUNITS
 70
     0
  9
$AUPREC
 70
     0
  9
$MENU
  1
.
  9
$ELEVATION
 40
0.0
  9
$PELEVATION
 40
0.0
  9
$THICKNESS
 40
0.0
  9
$LIMCHECK
 70
     0
  9
$BLIPMODE
 70
     0
  9
$CHAMFERA
 40
0.0
  9
$CHAMFERB
 40
0.0
  9
$SKPOLY
 70
     0
  9
$TDCREATE
 40
2458060.468368056230247
  9
$TDUPDATE
 40
2460012.4332754630595446
  9
$TDINDWG
 40
0.4744515046
  9
$TDUSRTIMER
 40
0.4744515046
  9
$USRTIMER
 70
     1
  9
$ANGBASE
 50
0.0
  9
$ANGDIR
 70
     0
  9
$PDMODE
 70
     0
  9
$PDSIZE
 40
0.3125
  9
$PLINEWID
 40
0.0
  9
$COORDS
 70
     1
  9
$SPLFRAME
 70
     0
  9
$SPLINETYPE
 70
     6
  9
$SPLINESEGS
 70
     8
  9
$ATTDIA
 70
     1
  9
$ATTREQ
 70
     1
  9
$HANDLING
 70
     1
  9
$HANDSEED
  5
1ECDE
  9
$SURFTAB1
 70
     6
  9
$SURFTAB2
 70
     6
  9
$SURFTYPE
 70
     6
  9
$SURFU
 70
     6
  9
$SURFV
 70
     6
  9
$UCSNAME
  2

  9
$UCSORG
 10
0.0
 20
0.0
 30
0.0
  9
$UCSXDIR
 10
1.0
 20
0.0
 30
0.0
  9
$UCSYDIR
 10
0.0
 20
1.0
 30
0.0
  9
$PUCSNAME
  2

  9
$PUCSORG
 10
0.0
 20
0.0
 30
0.0
  9
$PUCSXDIR
 10
1.0
 20
0.0
 30
0.0
  9
$PUCSYDIR
 10
0.0
 20
1.0
 30
0.0
  9
$USERI1
 70
     0
  9
$USERI2
 70
     0
  9
$USERI3
 70
     0
  9
$USERI4
 70
     0
  9
$USERI5
 70
     0
  9
$USERR1
 40
0.0
  9
$USERR2
 40
0.0
  9
$USERR3
 40
0.0
  9
$USERR4
 40
0.0
  9
$USERR5
 40
0.0
  9
$WORLDVIEW
 70
     1
  9
$SHADEDGE
 70
     3
  9
$SHADEDIF
 70
    70
  9
$TILEMODE
 70
     1
  9
$MAXACTVP
 70
    64
  9
$PLIMCHECK
 70
     0
  9
$PEXTMIN
 10
1.0000000000000000E+20
 20
1.0000000000000000E+20
 30
1.0000000000000000E+20
  9
$PEXTMAX
 10
-1.0000000000000000E+20
 20
-1.0000000000000000E+20
 30
-1.0000000000000000E+20
  9
$PLIMMIN
 10
0.0
 20
0.0
  9
$PLIMMAX
 10
12.0
 20
9.0
  9
$UNITMODE
 70
     0
  9
$VISRETAIN
 70
     1
  9
$PLINEGEN
 70
     0
  9
$PSLTSCALE
 70
     1
  0
ENDSEC
  0
SECTION
  2
TABLES
  0
TABLE
  2
VPORT
 70
     1
  0
VPORT
  2
*ACTIVE
 70
     0
 10
0.0
 20
0.0
 11
1.0
 21
1.0
 12
67.8983852877399841
 22
18.8372020040754293
 13
0.0
 23
0.0
 14
1.0
 24
1.0
 15
0.0
 25
0.0
 16
0.0
 26
0.0
 36
0.0438225416440575
 17
4401.1384025952247612
 27
249.4223564301429121
 37
0.0
 40
12.7838315198456094
 41
2.5251322751322749
 42
50.0
 43
0.0
 44
0.0
 50
0.0
 51
0.0
 71
     0
 72
   100
 73
     1
 74
     1
 75
     0
 76
     0
 77
     0
 78
     0
  0
ENDTAB
  0
TABLE
  2
LTYPE
 70
     2
  0
LTYPE
  2
CONTINUOUS
 70
     0
  3
Solid line
 72
    65
 73
     0
 40
0.0
  0
LTYPE
  2
PHANTOM2
 70
     0
  3
___ _ _ ___ _ _ ___ _ _ ___ _ _
 72
    65
 73
     6
 40
1.25
 49
0.625
 49
-0.125
 49
0.125
 49
-0.125
 49
0.125
 49
-0.125
  0
ENDTAB
  0
TABLE
  2
LAYER
 70
     2
  0
LAYER
  2
0
 70
     0
 62
   255
  6
CONTINUOUS
  0
LAYER
  2
DEFPOINTS
 70
     0
 62
     7
  6
CONTINUOUS
  0
ENDTAB
  0
TABLE
  2
STYLE
 70
     1
  0
STYLE
  2
STANDARD
 70
     0
 40
0.0
 41
0.8
 50
0.0
 71
     0
 42
0.2
  3
txt
  4

  0
ENDTAB
  0
TABLE
  2
VIEW
 70
     0
  0
ENDTAB
  0
TABLE
  2
UCS
 70
     0
  0
ENDTAB
  0
TABLE
  2
APPID
 70
    11
  0
APPID
  2
ACAD
 70
     0
  0
APPID
  2
ACAD_MLEADERVER
 70
     0
  0
APPID
  2
ACAD_EXEMPT_FROM_CAD_STANDARDS
 70
     0
  0
APPID
  2
ACAD_NAV_VCDISPLAY
 70
     0
  0
APPID
  2
ACAECLAYERSTANDARD
 70
     0
  0
APPID
  2
ACCMTRANSPARENCY
 70
     0
  0
APPID
  2
ACAD_DSTYLE_DIMJAG
 70
     0
  0
APPID
  2
ACAD_DSTYLE_DIMTALN
 70
     0
  0
APPID
  2
ACDBATTR
 70
     0
  0
APPID
  2
ACADANNOTATIVE
 70
     0
  0
APPID
  2
DCO15
 70
     0
  0
ENDTAB
  0
TABLE
  2
DIMSTYLE
 70
     1
  0
DIMSTYLE
  2
STANDARD
 70
     0
  3

  4

  5

  6

  7

 40
1.0
 41
0.1875
 42
0.0625
 43
0.38
 44
0.125
 45
0.0
 46
0.0
 47
0.01
 48
0.01
140
0.15625
141
0.09
142
0.0
143
25.3999999999999986
144
1.0
145
0.0
146
1.0
147
0.09
 71
     1
 72
     0
 73
     1
 74
     1
 75
     0
 76
     0
 77
     0
 78
     4
170
     0
171
     2
172
     0
173
     0
174
     0
175
     0
176
     0
177
     0
178
     0
  0
ENDTAB
  0
ENDSEC
  0
SECTION
  2
BLOCKS
  0
BLOCK
  8
0
  2
$MODEL_SPACE
 70
     0
 10
0.0
 20
0.0
 30
0.0
  3
$MODEL_SPACE
  1

  0
ENDBLK
  5
21
  8
0
  0
BLOCK
 67
     1
  8
0
  2
$PAPER_SPACE
 70
     0
 10
0.0
 20
0.0
 30
0.0
  3
$PAPER_SPACE
  1

  0
ENDBLK
  5
1D
 67
     1
  8
0
  0
BLOCK
  8
0
  2
_FILLED
 70
     0
 10
0.0
 20
0.0
 30
0.0
  3
_FILLED
  1

  0
SOLID
  5
1C78F
  8
0
  6
BYBLOCK
 62
     0
 10
0.0
 20
0.0
 30
0.0
 11
-1.0
 21
0.1666666667
 31
0.0
 12
-1.0
 22
-0.1666666667
 32
0.0
 13
-1.0
 23
-0.1666666667
 33
0.0
  0
ENDBLK
  5
1C790
  8
0
  6
BYBLOCK
 62
     0
  0
ENDSEC
  0
SECTION
  2
ENTITIES
  0
ATTDEF
  5
1C5FC
  8
DEFPOINTS
 10
4472.2872531123321096
 20
261.926799820011297
 30
0.0
 40
0.001
  1
K-21369K-4
  3

  2
MODELNUMBER
 70
     0
1001
ACDBATTR
1070
     0
1070
     1
  0
ATTDEF
  5
1C5FD
  8
DEFPOINTS
 10
4472.28712730267398
 20
261.9251329796319965
 30
0.0
 40
0.001
  1
TAUT
  3

  2
TRADENAME
 70
     0
1001
ACDBATTR
1070
     0
1070
     1
  0
ATTDEF
  5
1C5FE
  8
DEFPOINTS
 10
4472.2872531123321096
 20
261.9234664866779099
 30
0.0
 40
0.001
  1
KITCHEN SINK FAUCET
  3

  2
PRODUCT
 70
     0
1001
ACDBATTR
1070
     0
1070
     1
  0
LINE
  5
1EBFB
  8
0
 10
4471.40359552199061
 20
261.9284697311003924
 30
0.0
 11
4473.1752490652906999
 21
261.9284697311003924
 31
0.0
  0
LINE
  5
1EBFC
  8
0
 10
4465.4484364109912349
 20
273.3174202309004954
 30
0.0
 11
4465.07972913399135
 21
272.4048108449866277
 31
0.0
  0
LINE
  5
1EBFD
  8
0
 10
4465.07972913399135
 20
272.4048108449866277
 30
0.0
 11
4464.8319578438913595
 21
271.7915553821865728
 31
0.0
  0
LINE
  5
1EBFE
  8
0
 10
4466.3245156436905745
 20
272.9634612450004738
 30
0.0
 11
4465.9558083666906896
 21
272.0508518590866061
 31
0.0
  0
LINE
  5
1EBFF
  8
0
 10
4465.9558083666906896
 20
272.0508518590866061
 30
0.0
 11
4465.7080370764906547
 21
271.4375963962866081
 31
0.0
  0
LINE
  5
1EC00
  8
0
 10
4473.1555640258911808
 20
266.456028786200477
 30
0.0
 11
4472.9812309019798704
 21
266.456028786200477
 31
0.0
  0
LINE
  5
1EC01
  8
0
 10
4471.597613685315082
 20
266.456028786200477
 30
0.0
 11
4471.4232805613910386
 21
266.456028786200477
 31
0.0
  0
LINE
  5
1EC02
  8
0
 10
4471.7261411535910156
 20
267.358747608000499
 30
0.0
 11
4472.8527034336912038
 21
267.358747608000499
 31
0.0
  0
LINE
  5
1EC03
  8
0
 10
4465.6977867580926613
 20
271.4332453942589041
 30
0.0
 11
4464.8363088459927894
 21
271.7813050636589765
 31
0.0
  0
LINE
  5
1EC04
  8
0
 10
4471.40359552199061
 20
261.9284697311003924
 30
0.0
 11
4471.40359552199061
 21
266.4363437468003895
 31
0.0
  0
LINE
  5
1EC05
  8
0
 10
4471.8169813487911597
 20
267.358747608000499
 30
0.0
 11
4471.8169813487911597
 21
272.5505090948004749
 31
0.0
  0
LINE
  5
1EC06
  8
0
 10
4471.4640861408897763
 20
264.2397955455003853
 30
0.0
 11
4471.6475435229913273
 21
267.2847429398004806
 31
0.0
  0
LINE
  5
1EC07
  8
0
 10
4473.1147584407899558
 20
264.2397956366003768
 30
0.0
 11
4472.9313010647911142
 21
267.2847429325004214
 31
0.0
  0
LINE
  5
1EC08
  8
0
 10
4472.7618632384910597
 20
267.358747608000499
 30
0.0
 11
4472.7618632384910597
 21
272.5505090948004749
 31
0.0
  0
LINE
  5
1EC09
  8
0
 10
4473.1752490652906999
 20
261.9284697311003924
 30
0.0
 11
4473.1752490652906999
 21
266.4363437468003895
 31
0.0
  0
LINE
  5
1EC0A
  8
0
 10
4470.7146191439924223
 20
273.6528712995004753
 30
0.0
 11
4467.3466080817906914
 21
273.6528712995004753
 31
0.0
  0
LINE
  5
1EC0B
  8
0
 10
4470.7146191439924223
 20
274.5977531893004198
 30
0.0
 11
4467.3466080817906914
 21
274.5977531893004198
 31
0.0
  0
ARC
  5
1EC0C
  8
0
 10
4467.3466080817906914
 20
272.5505090948004749
 30
0.0
 40
2.047244094499999
 50
90.0
 51
158.0000000000989928
  0
ARC
  5
1EC0D
  8
0
 10
4467.3466080817906914
 20
272.5505090948004749
 30
0.0
 40
1.102362204699999
 50
90.0
 51
158.0000000000989928
  0
ARC
  5
1EC0E
  8
0
 10
4464.8392585041901839
 20
271.7886057238866897
 30
0.0
 40
0.0078740157
 50
157.9999999999918998
 51
248.0000000000173941
  0
ARC
  5
1EC0F
  8
0
 10
4465.7007364162900558
 20
271.4405460544866173
 30
0.0
 40
0.0078740157
 50
248.0000000000173941
 51
337.9999999999919282
  0
ARC
  5
1EC10
  8
0
 10
4471.7261211105942493
 20
267.2800287374835762
 30
0.0
 40
0.0787188730684636
 50
89.9854116422426245
 51
176.5666987191087003
  0
ARC
  5
1EC11
  8
0
 10
4471.4232805613910386
 20
266.4363437468003895
 30
0.0
 40
0.0196850394
 50
90.0
 51
180.0
  0
ARC
  5
1EC12
  8
0
 10
4472.2894756463019803
 20
264.1921387815791036
 30
0.0
 40
0.8266576478255858
 50
274.0943993811927726
 51
3.3049369760111351
  0
ARC
  5
1EC13
  8
0
 10
4472.2893921972099633
 20
264.192155136222425
 30
0.0
 40
0.8266799230622451
 50
176.6962939003846031
 51
274.1000874017669844
  0
ARC
  5
1EC14
  8
0
 10
4472.8527237275711741
 20
267.2800290038725848
 30
0.0
 40
0.0787186067437301
 50
3.433113346281039
 51
90.0147710146725757
  0
ARC
  5
1EC15
  8
0
 10
4473.1555640258911808
 20
266.4363437468003895
 30
0.0
 40
0.0196850394
 50
0.0
 51
90.0
  0
ARC
  5
1EC16
  8
0
 10
4470.7146191439924223
 20
272.5505090948004749
 30
0.0
 40
2.047244094499999
 50
0.0
 51
90.0
  0
ARC
  5
1EC17
  8
0
 10
4470.7146191439924223
 20
272.5505090948004749
 30
0.0
 40
1.102362204699999
 50
0.0
 51
90.0
  0
ENDSEC
  0
EOF
