  0
SECTION
  2
HEADER
  9
$ACADVER
  1
AC1009
  9
$INSBASE
 10
4417.3829000180139701
 20
254.4595148825746946
 30
0.0
  9
$EXTMIN
 10
4414.6057791114144493
 20
254.4548082392865922
 30
0.0
  9
$EXTMAX
 10
4418.2687267897135825
 20
267.128798340774722
 30
0.0
  9
$LIMMIN
 10
0.0
 20
0.0
  9
$LIMMAX
 10
11.6929133858000007
 20
8.2677165353999982
  9
$ORTHOMODE
 70
     0
  9
$REGENMODE
 70
     1
  9
$FILLMODE
 70
     1
  9
$QTEXTMODE
 70
     0
  9
$MIRRTEXT
 70
     0
  9
$DRAGMODE
 70
     2
  9
$LTSCALE
 40
0.6431102362
  9
$OSMODE
 70
   547
  9
$ATTMODE
 70
     1
  9
$TEXTSIZE
 40
0.2
  9
$TRACEWID
 40
0.05
  9
$TEXTSTYLE
  7
STANDARD
  9
$CLAYER
  8
0
  9
$CELTYPE
  6
BYLAYER
  9
$CECOLOR
 62
   256
  9
$DIMSCALE
 40
1.0
  9
$DIMASZ
 40
0.1875
  9
$DIMEXO
 40
0.0625
  9
$DIMDLI
 40
0.4443307087
  9
$DIMRND
 40
0.0
  9
$DIMDLE
 40
0.0
  9
$DIMEXE
 40
0.125
  9
$DIMTP
 40
0.01
  9
$DIMTM
 40
0.01
  9
$DIMTXT
 40
2.0
  9
$DIMCEN
 40
0.1052362205
  9
$DIMTSZ
 40
0.0
  9
$DIMTOL
 70
     1
  9
$DIMLIM
 70
     0
  9
$DIMTIH
 70
     1
  9
$DIMTOH
 70
     1
  9
$DIMSE1
 70
     0
  9
$DIMSE2
 70
     0
  9
$DIMTAD
 70
     0
  9
$DIMZIN
 70
     0
  9
$DIMBLK
  1

  9
$DIMASO
 70
     1
  9
$DIMSHO
 70
     1
  9
$DIMPOST
  1
\X
  9
$DIMAPOST
  1

  9
$DIMALT
 70
     1
  9
$DIMALTD
 70
     2
  9
$DIMALTF
 40
25.3999999999999986
  9
$DIMLFAC
 40
1.0
  9
$DIMTOFL
 70
     0
  9
$DIMTVP
 40
0.0
  9
$DIMTIX
 70
     0
  9
$DIMSOXD
 70
     0
  9
$DIMSAH
 70
     0
  9
$DIMBLK1
  1

  9
$DIMBLK2
  1

  9
$DIMSTYLE
  2
STANDARD
  9
$DIMCLRD
 70
     0
  9
$DIMCLRE
 70
     0
  9
$DIMCLRT
 70
     0
  9
$DIMTFAC
 40
1.0
  9
$DIMGAP
 40
0.09
  9
$LUNITS
 70
     2
  9
$LUPREC
 70
     4
  9
$SKETCHINC
 40
0.1
  9
$FILLETRAD
 40
0.0
  9
$AUNITS
 70
     0
  9
$AUPREC
 70
     0
  9
$MENU
  1
.
  9
$ELEVATION
 40
0.0
  9
$PELEVATION
 40
0.0
  9
$THICKNESS
 40
0.0
  9
$LIMCHECK
 70
     0
  9
$BLIPMODE
 70
     0
  9
$CHAMFERA
 40
0.0
  9
$CHAMFERB
 40
0.0
  9
$SKPOLY
 70
     0
  9
$TDCREATE
 40
2458060.468368056230247
  9
$TDUPDATE
 40
2459200.4925462971441448
  9
$TDINDWG
 40
0.4651112269
  9
$TDUSRTIMER
 40
0.4651112269
  9
$USRTIMER
 70
     1
  9
$ANGBASE
 50
0.0
  9
$ANGDIR
 70
     0
  9
$PDMODE
 70
     0
  9
$PDSIZE
 40
0.3125
  9
$PLINEWID
 40
0.0
  9
$COORDS
 70
     1
  9
$SPLFRAME
 70
     0
  9
$SPLINETYPE
 70
     6
  9
$SPLINESEGS
 70
     8
  9
$ATTDIA
 70
     1
  9
$ATTREQ
 70
     1
  9
$HANDLING
 70
     1
  9
$HANDSEED
  5
1BD3A
  9
$SURFTAB1
 70
     6
  9
$SURFTAB2
 70
     6
  9
$SURFTYPE
 70
     6
  9
$SURFU
 70
     6
  9
$SURFV
 70
     6
  9
$UCSNAME
  2

  9
$UCSORG
 10
0.0
 20
0.0
 30
0.0
  9
$UCSXDIR
 10
1.0
 20
0.0
 30
0.0
  9
$UCSYDIR
 10
0.0
 20
1.0
 30
0.0
  9
$PUCSNAME
  2

  9
$PUCSORG
 10
0.0
 20
0.0
 30
0.0
  9
$PUCSXDIR
 10
1.0
 20
0.0
 30
0.0
  9
$PUCSYDIR
 10
0.0
 20
1.0
 30
0.0
  9
$USERI1
 70
     0
  9
$USERI2
 70
     0
  9
$USERI3
 70
     0
  9
$USERI4
 70
     0
  9
$USERI5
 70
     0
  9
$USERR1
 40
0.0
  9
$USERR2
 40
0.0
  9
$USERR3
 40
0.0
  9
$USERR4
 40
0.0
  9
$USERR5
 40
0.0
  9
$WORLDVIEW
 70
     1
  9
$SHADEDGE
 70
     3
  9
$SHADEDIF
 70
    70
  9
$TILEMODE
 70
     1
  9
$MAXACTVP
 70
    64
  9
$PLIMCHECK
 70
     0
  9
$PEXTMIN
 10
1.0000000000000000E+20
 20
1.0000000000000000E+20
 30
1.0000000000000000E+20
  9
$PEXTMAX
 10
-1.0000000000000000E+20
 20
-1.0000000000000000E+20
 30
-1.0000000000000000E+20
  9
$PLIMMIN
 10
0.0
 20
0.0
  9
$PLIMMAX
 10
12.0
 20
9.0
  9
$UNITMODE
 70
     0
  9
$VISRETAIN
 70
     1
  9
$PLINEGEN
 70
     0
  9
$PSLTSCALE
 70
     1
  0
ENDSEC
  0
SECTION
  2
TABLES
  0
TABLE
  2
VPORT
 70
     1
  0
VPORT
  2
*ACTIVE
 70
     0
 10
0.0
 20
0.0
 11
1.0
 21
1.0
 12
505.0718964828632238
 22
128.2121981791464975
 13
0.0
 23
0.0
 14
1.0
 24
1.0
 15
0.0
 25
0.0
 16
0.0
 26
0.0
 36
60.4960186965801583
 17
3911.3653564453120453
 27
132.5796051025390057
 37
0.0
 40
15.3098431641127704
 41
1.9002217294900221
 42
50.0
 43
0.0
 44
0.0
 50
0.0
 51
0.0
 71
     0
 72
   100
 73
     1
 74
     1
 75
     0
 76
     0
 77
     0
 78
     0
  0
ENDTAB
  0
TABLE
  2
LTYPE
 70
     2
  0
LTYPE
  2
CONTINUOUS
 70
     0
  3
Solid line
 72
    65
 73
     0
 40
0.0
  0
LTYPE
  2
PHANTOM2
 70
     0
  3
___ _ _ ___ _ _ ___ _ _ ___ _ _
 72
    65
 73
     6
 40
1.25
 49
0.625
 49
-0.125
 49
0.125
 49
-0.125
 49
0.125
 49
-0.125
  0
ENDTAB
  0
TABLE
  2
LAYER
 70
     2
  0
LAYER
  2
0
 70
     0
 62
   255
  6
CONTINUOUS
  0
LAYER
  2
DEFPOINTS
 70
     0
 62
     7
  6
CONTINUOUS
  0
ENDTAB
  0
TABLE
  2
STYLE
 70
     1
  0
STYLE
  2
STANDARD
 70
     0
 40
0.0
 41
0.8
 50
0.0
 71
     0
 42
0.2
  3
txt
  4

  0
ENDTAB
  0
TABLE
  2
VIEW
 70
     0
  0
ENDTAB
  0
TABLE
  2
UCS
 70
     0
  0
ENDTAB
  0
TABLE
  2
APPID
 70
    11
  0
APPID
  2
ACAD
 70
     0
  0
APPID
  2
ACAD_MLEADERVER
 70
     0
  0
APPID
  2
ACAD_EXEMPT_FROM_CAD_STANDARDS
 70
     0
  0
APPID
  2
ACAD_NAV_VCDISPLAY
 70
     0
  0
APPID
  2
ACAECLAYERSTANDARD
 70
     0
  0
APPID
  2
ACCMTRANSPARENCY
 70
     0
  0
APPID
  2
ACAD_DSTYLE_DIMJAG
 70
     0
  0
APPID
  2
ACAD_DSTYLE_DIMTALN
 70
     0
  0
APPID
  2
ACDBATTR
 70
     0
  0
APPID
  2
ACADANNOTATIVE
 70
     0
  0
APPID
  2
DCO15
 70
     0
  0
ENDTAB
  0
TABLE
  2
DIMSTYLE
 70
     1
  0
DIMSTYLE
  2
STANDARD
 70
     0
  3

  4

  5

  6

  7

 40
1.0
 41
0.1875
 42
0.0625
 43
0.38
 44
0.125
 45
0.0
 46
0.0
 47
0.01
 48
0.01
140
0.15625
141
0.09
142
0.0
143
25.3999999999999986
144
1.0
145
0.0
146
1.0
147
0.09
 71
     1
 72
     0
 73
     1
 74
     1
 75
     0
 76
     0
 77
     0
 78
     4
170
     0
171
     2
172
     0
173
     0
174
     0
175
     0
176
     0
177
     0
178
     0
  0
ENDTAB
  0
ENDSEC
  0
SECTION
  2
BLOCKS
  0
BLOCK
  8
0
  2
$MODEL_SPACE
 70
     0
 10
0.0
 20
0.0
 30
0.0
  3
$MODEL_SPACE
  1

  0
ENDBLK
  5
21
  8
0
  0
BLOCK
 67
     1
  8
0
  2
$PAPER_SPACE
 70
     0
 10
0.0
 20
0.0
 30
0.0
  3
$PAPER_SPACE
  1

  0
ENDBLK
  5
1D
 67
     1
  8
0
  0
ENDSEC
  0
SECTION
  2
ENTITIES
  0
LINE
  5
1BABA
  8
0
 10
4416.4970732463143577
 20
254.4595148825746946
 30
0.0
 11
4418.2687267897135825
 21
254.4595148825746946
 31
0.0
  0
LINE
  5
1BABB
  8
0
 10
4415.7136086794143921
 20
255.8965227565747966
 30
0.0
 11
4416.3002228526138424
 21
255.8965227565747966
 31
0.0
  0
LINE
  5
1BABC
  8
0
 10
4414.6372751767139562
 20
255.8965392390747979
 30
0.0
 11
4415.1634297060609242
 21
255.8965392390747979
 31
0.0
  0
LINE
  5
1BABD
  8
0
 10
4415.7136086794143921
 20
257.5500660636748194
 30
0.0
 11
4416.3002228526138424
 21
257.5500660636748194
 31
0.0
  0
LINE
  5
1BABE
  8
0
 10
4414.9398800053140803
 20
257.5500825461746786
 30
0.0
 11
4414.9860584395146361
 21
257.5500825461746786
 31
0.0
  0
LINE
  5
1BABF
  8
0
 10
4415.2597520538129174
 20
257.5500825461746786
 30
0.0
 11
4415.5561283645147341
 21
257.5500825461746786
 31
0.0
  0
LINE
  5
1BAC0
  8
0
 10
4414.9877896181142205
 20
257.5499291036746854
 30
0.0
 11
4414.9860584395146361
 21
257.5500825461746786
 31
0.0
  0
LINE
  5
1BAC1
  8
0
 10
4414.9084315483141836
 20
257.5797610148748049
 30
0.0
 11
4414.7790907017142672
 21
259.8600764374746745
 31
0.0
  0
LINE
  5
1BAC2
  8
0
 10
4414.6057791138146058
 20
259.8582966966746994
 30
0.0
 11
4414.6057791138146058
 21
255.9280625989746909
 31
0.0
  0
LINE
  5
1BAC3
  8
0
 10
4418.2490373581140375
 20
258.9870739376747792
 30
0.0
 11
4416.5167582857129673
 21
258.9870739376747792
 31
0.0
  0
LINE
  5
1BAC4
  8
0
 10
4415.2919696332146486
 20
256.1721940181263903
 30
0.0
 11
4415.2919696332146486
 21
256.1425857486747759
 31
0.0
  0
LINE
  5
1BAC5
  8
0
 10
4415.5561283645147341
 20
256.8259656364746775
 30
0.0
 11
4415.5561283645147341
 21
257.5500825461746786
 31
0.0
  0
LINE
  5
1BAC6
  8
0
 10
4414.6372751767139562
 20
259.8897927594748012
 30
0.0
 11
4414.7469347070136791
 21
259.8897927594748012
 31
0.0
  0
LINE
  5
1BAC7
  8
0
 10
4415.6939236400139634
 20
255.9162179560748029
 30
0.0
 11
4415.6939236400139634
 21
257.5303708641746994
 31
0.0
  0
LINE
  5
1BAC8
  8
0
 10
4416.4970732463143577
 20
258.9673888982748053
 30
0.0
 11
4416.4970732463143577
 21
257.7469164423748111
 31
0.0
  0
LINE
  5
1BAC9
  8
0
 10
4416.4970732463143577
 20
255.6996723670748111
 30
0.0
 11
4416.4970732463143577
 21
254.4595148825746946
 31
0.0
  0
LINE
  5
1BACA
  8
0
 10
4416.9104590731139979
 20
266.6563573958748066
 30
0.0
 11
4416.9104590731139979
 21
258.9870739376747792
 31
0.0
  0
LINE
  5
1BACB
  8
0
 10
4415.1634297060609242
 20
255.8965392390747979
 30
0.0
 11
4415.5192416701129332
 21
256.6595805018748138
 31
0.0
  0
LINE
  5
1BACC
  8
0
 10
4417.8553409629139423
 20
266.6563573958748066
 30
0.0
 11
4417.8553409629139423
 21
258.9870739376747792
 31
0.0
  0
LINE
  5
1BACD
  8
0
 10
4418.2687267897135825
 20
258.9673888982748053
 30
0.0
 11
4418.2687267897135825
 21
254.4595148825746946
 31
0.0
  0
ARC
  5
1BACE
  8
0
 10
4415.8135249383140035
 20
256.8291703150748049
 30
0.0
 40
0.8661417323
 50
233.3027670493823109
 51
262.0629436037606865
  0
ARC
  5
1BACF
  8
0
 10
4415.8135249383140035
 20
256.6174185051747827
 30
0.0
 40
0.8661417323
 50
97.9370563962393987
 51
107.2880684897245942
  0
ARC
  5
1BAD0
  8
0
 10
4417.3829000180139701
 20
266.6563573958748066
 30
0.0
 40
0.4724409449000001
 50
0.0
 51
180.0
  0
ARC
  5
1BAD1
  8
0
 10
4415.1624275771137036
 20
256.8259656364746775
 30
0.0
 40
0.3937007874
 50
335.0000012518012795
 51
0.0
  0
ARC
  5
1BAD2
  8
0
 10
4414.6372628856133815
 20
259.8583089876752865
 30
0.0
 40
0.0314837741986912
 50
89.9776320273420254
 51
180.0223677907248998
  0
ARC
  5
1BAD3
  8
0
 10
4414.7469744167419776
 20
259.8583795713468021
 30
0.0
 40
0.0314132132267246
 50
1.894391783550111
 51
90.0724281334675112
  0
ARC
  5
1BAD4
  8
0
 10
4415.7136086811142377
 20
255.9162078001947975
 30
0.0
 40
0.0196850437200106
 50
179.9704400409274001
 51
269.9999950513541194
  0
ARC
  5
1BAD5
  8
0
 10
4415.7136086812670328
 20
257.5303810198026895
 30
0.0
 40
0.0196850438720625
 50
90.0000053916347866
 51
180.0295592252010977
  0
ARC
  5
1BAD6
  8
0
 10
4416.5167582857129673
 20
258.9673888982748053
 30
0.0
 40
0.0196850394
 50
90.0
 51
180.0
  0
ARC
  5
1BAD7
  8
0
 10
4418.2490417494782378
 20
258.9673888979284015
 30
0.0
 40
0.019685040236169
 50
0.0000010080963985
 51
90.0127816155059151
  0
ARC
  5
1BAD8
  8
0
 10
4415.3018121529139535
 20
256.1425857486747759
 30
0.0
 40
0.0098425197
 50
180.0
 51
233.3027670498946975
  0
LINE
  5
1BAD9
  8
0
 10
4414.856952631814238
 20
257.056089252374818
 30
0.0
 11
4414.7783704612793372
 21
259.8594180089373253
 31
0.0
  0
ARC
  5
1BADA
  8
0
 10
4414.7471150599685643
 20
259.8577128913112233
 30
0.0
 40
0.0320628759697992
 50
4.2274488530569698
 51
84.5534183971551272
  0
ARC
  5
1BADB
  8
0
 10
4420.5052827515601166
 20
256.7652031884982762
 30
0.0
 40
5.6558154004335357
 50
171.7193916623114092
 51
177.0519016217347996
  0
ARC
  5
1BADC
  8
0
 10
4414.9398785221392245
 20
257.5815822115353058
 30
0.0
 40
0.0314996653953978
 50
183.314482950750488
 51
270.0026977960109775
  0
ARC
  5
1BADD
  8
0
 10
4415.1228804631418825
 20
258.3276397897299717
 30
0.0
 40
0.7893563502859015
 50
260.145862966874688
 51
279.6792455539883235
  0
ARC
  5
1BADE
  8
0
 10
4415.2617754864158996
 20
257.5194886134379999
 30
0.0
 40
0.0306607729810858
 50
93.783938095892168
 51
101.6257722155466041
  0
ARC
  5
1BADF
  8
0
 10
4414.6380704662860808
 20
255.9288299147011116
 30
0.0
 40
0.0323004677660473
 50
181.3612214239149125
 51
268.589142996260307
  0
ARC
  5
1BAE0
  8
0
 10
4416.3002229842941233
 20
255.6996724945543065
 30
0.0
 40
0.1968502620205067
 50
359.9999628954540754
 51
90.0000383270058109
  0
ARC
  5
1BAE1
  8
0
 10
4416.2982939700068528
 20
257.7488453401285824
 30
0.0
 40
0.1987886348250541
 50
270.5559601883089726
 51
359.4440354457751141
  0
ARC
  5
1BAE2
  8
0
 10
4411.5250411281285778
 20
259.7344147050516767
 30
0.0
 40
6.4031436902605456
 50
320.9410991691738104
 51
328.6125538327984259
  0
ARC
  5
1BAE3
  8
0
 10
4409.7790994723391123
 20
252.4205657868581056
 30
0.0
 40
8.5732830895366767
 50
33.4588107664979972
 51
38.409166904965879
  0
ARC
  5
1BAE4
  8
0
 10
4415.9159698678804489
 20
256.4649674029304265
 30
0.0
 40
1.2236058867002131
 50
19.6483238456989184
 51
33.8948977959613131
  0
ARC
  5
1BAE5
  8
0
 10
4416.1237594940066629
 20
256.8943177440785917
 30
0.0
 40
0.9986245218267589
 50
330.2981625814123277
 51
341.1005769696857897
  0
ARC
  5
1BAE6
  8
0
 10
4416.6308158943202216
 20
256.7233176294731152
 30
0.0
 40
0.463522463875519
 50
340.7967054820401245
 51
19.2844810722455193
  0
ATTDEF
  5
1BAE8
  8
DEFPOINTS
 10
4417.3825328510629333
 20
254.4581415726198941
 30
0.0
 40
0.001
  1
K-21369T-4
  3

  2
MODELNUMBER
 70
     0
1001
ACDBATTR
1070
     0
1070
     1
  0
ATTDEF
  5
1BAE9
  8
DEFPOINTS
 10
4417.3824070414048037
 20
254.4564747322407072
 30
0.0
 40
0.001
  1
TAUT
  3

  2
TRADENAME
 70
     0
1001
ACDBATTR
1070
     0
1070
     1
  0
ATTDEF
  5
1BAEA
  8
DEFPOINTS
 10
4417.3825328510629333
 20
254.4548082392865922
 30
0.0
 40
0.001
  1
KITCHEN SINK FAUCET
  3

  2
PRODUCT
 70
     0
1001
ACDBATTR
1070
     0
1070
     1
  0
ENDSEC
  0
EOF
