  0
SECTION
  2
HEADER
  9
$ACADVER
  1
AC1009
  9
$INSBASE
 10
2946.4863899158381173
 20
181.2870747167858951
 30
0.0
  9
$EXTMIN
 10
2938.7624956221720822
 20
159.3973291052978993
 30
-0.0000000000112498
  9
$EXTMAX
 10
2954.2193745099598345
 20
181.2928031607904131
 30
0.0000000000002956
  9
$LIMMIN
 10
0.0
 20
0.0
  9
$LIMMAX
 10
11.6929133858000007
 20
8.2677165353999982
  9
$ORTHOMODE
 70
     0
  9
$REGENMODE
 70
     1
  9
$FILLMODE
 70
     1
  9
$QTEXTMODE
 70
     0
  9
$MIRRTEXT
 70
     0
  9
$DRAGMODE
 70
     2
  9
$LTSCALE
 40
0.6431102362
  9
$OSMODE
 70
   575
  9
$ATTMODE
 70
     1
  9
$TEXTSIZE
 40
0.2
  9
$TRACEWID
 40
0.05
  9
$TEXTSTYLE
  7
STANDARD
  9
$CLAYER
  8
0
  9
$CELTYPE
  6
BYLAYER
  9
$CECOLOR
 62
   256
  9
$DIMSCALE
 40
1.0
  9
$DIMASZ
 40
0.1875
  9
$DIMEXO
 40
0.0625
  9
$DIMDLI
 40
0.4443307087
  9
$DIMRND
 40
0.0
  9
$DIMDLE
 40
0.0
  9
$DIMEXE
 40
0.125
  9
$DIMTP
 40
0.01
  9
$DIMTM
 40
0.01
  9
$DIMTXT
 40
2.0
  9
$DIMCEN
 40
0.1052362205
  9
$DIMTSZ
 40
0.0
  9
$DIMTOL
 70
     1
  9
$DIMLIM
 70
     0
  9
$DIMTIH
 70
     1
  9
$DIMTOH
 70
     1
  9
$DIMSE1
 70
     0
  9
$DIMSE2
 70
     0
  9
$DIMTAD
 70
     0
  9
$DIMZIN
 70
     0
  9
$DIMBLK
  1

  9
$DIMASO
 70
     1
  9
$DIMSHO
 70
     1
  9
$DIMPOST
  1
\X
  9
$DIMAPOST
  1

  9
$DIMALT
 70
     1
  9
$DIMALTD
 70
     2
  9
$DIMALTF
 40
25.3999999999999986
  9
$DIMLFAC
 40
1.0
  9
$DIMTOFL
 70
     0
  9
$DIMTVP
 40
0.0
  9
$DIMTIX
 70
     0
  9
$DIMSOXD
 70
     0
  9
$DIMSAH
 70
     0
  9
$DIMBLK1
  1

  9
$DIMBLK2
  1

  9
$DIMSTYLE
  2
STANDARD
  9
$DIMCLRD
 70
     0
  9
$DIMCLRE
 70
     0
  9
$DIMCLRT
 70
     0
  9
$DIMTFAC
 40
1.0
  9
$DIMGAP
 40
0.09
  9
$LUNITS
 70
     2
  9
$LUPREC
 70
     4
  9
$SKETCHINC
 40
0.1
  9
$FILLETRAD
 40
0.0
  9
$AUNITS
 70
     0
  9
$AUPREC
 70
     0
  9
$MENU
  1
.
  9
$ELEVATION
 40
0.0
  9
$PELEVATION
 40
0.0
  9
$THICKNESS
 40
0.0
  9
$LIMCHECK
 70
     0
  9
$BLIPMODE
 70
     0
  9
$CHAMFERA
 40
0.0
  9
$CHAMFERB
 40
0.0
  9
$SKPOLY
 70
     0
  9
$TDCREATE
 40
2458060.468368056230247
  9
$TDUPDATE
 40
2459420.0756597220897675
  9
$TDINDWG
 40
0.3711991898
  9
$TDUSRTIMER
 40
0.3711991898
  9
$USRTIMER
 70
     1
  9
$ANGBASE
 50
0.0
  9
$ANGDIR
 70
     0
  9
$PDMODE
 70
     0
  9
$PDSIZE
 40
0.3125
  9
$PLINEWID
 40
0.0
  9
$COORDS
 70
     2
  9
$SPLFRAME
 70
     0
  9
$SPLINETYPE
 70
     6
  9
$SPLINESEGS
 70
     8
  9
$ATTDIA
 70
     1
  9
$ATTREQ
 70
     1
  9
$HANDLING
 70
     1
  9
$HANDSEED
  5
73A4
  9
$SURFTAB1
 70
     6
  9
$SURFTAB2
 70
     6
  9
$SURFTYPE
 70
     6
  9
$SURFU
 70
     6
  9
$SURFV
 70
     6
  9
$UCSNAME
  2

  9
$UCSORG
 10
0.0
 20
0.0
 30
0.0
  9
$UCSXDIR
 10
1.0
 20
0.0
 30
0.0
  9
$UCSYDIR
 10
0.0
 20
1.0
 30
0.0
  9
$PUCSNAME
  2

  9
$PUCSORG
 10
0.0
 20
0.0
 30
0.0
  9
$PUCSXDIR
 10
1.0
 20
0.0
 30
0.0
  9
$PUCSYDIR
 10
0.0
 20
1.0
 30
0.0
  9
$USERI1
 70
     0
  9
$USERI2
 70
     0
  9
$USERI3
 70
     0
  9
$USERI4
 70
     0
  9
$USERI5
 70
     0
  9
$USERR1
 40
0.0
  9
$USERR2
 40
0.0
  9
$USERR3
 40
0.0
  9
$USERR4
 40
0.0
  9
$USERR5
 40
0.0
  9
$WORLDVIEW
 70
     1
  9
$SHADEDGE
 70
     3
  9
$SHADEDIF
 70
    70
  9
$TILEMODE
 70
     1
  9
$MAXACTVP
 70
    64
  9
$PLIMCHECK
 70
     0
  9
$PEXTMIN
 10
1.0000000000000000E+20
 20
1.0000000000000000E+20
 30
1.0000000000000000E+20
  9
$PEXTMAX
 10
-1.0000000000000000E+20
 20
-1.0000000000000000E+20
 30
-1.0000000000000000E+20
  9
$PLIMMIN
 10
0.0
 20
0.0
  9
$PLIMMAX
 10
12.0
 20
9.0
  9
$UNITMODE
 70
     0
  9
$VISRETAIN
 70
     1
  9
$PLINEGEN
 70
     0
  9
$PSLTSCALE
 70
     1
  0
ENDSEC
  0
SECTION
  2
TABLES
  0
TABLE
  2
VPORT
 70
     1
  0
VPORT
  2
*ACTIVE
 70
     0
 10
0.0
 20
0.0
 11
1.0
 21
1.0
 12
-76.0716111672807642
 22
-2.9393760080599338
 13
0.0
 23
0.0
 14
1.0
 24
1.0
 15
0.0
 25
0.0
 16
0.0
 26
0.0
 36
53.9206147545299501
 17
3024.819091796875
 27
173.1462860107421875
 37
0.0
 40
32.8765096760040265
 41
2.6314049586776851
 42
50.0
 43
0.0
 44
0.0
 50
0.0
 51
0.0
 71
     0
 72
   100
 73
     1
 74
     1
 75
     0
 76
     0
 77
     0
 78
     0
  0
ENDTAB
  0
TABLE
  2
LTYPE
 70
     2
  0
LTYPE
  2
CONTINUOUS
 70
     0
  3
Solid line
 72
    65
 73
     0
 40
0.0
  0
LTYPE
  2
PHANTOM2
 70
     0
  3
___ _ _ ___ _ _ ___ _ _ ___ _ _
 72
    65
 73
     6
 40
1.25
 49
0.625
 49
-0.125
 49
0.125
 49
-0.125
 49
0.125
 49
-0.125
  0
ENDTAB
  0
TABLE
  2
LAYER
 70
     2
  0
LAYER
  2
0
 70
     0
 62
   255
  6
CONTINUOUS
  0
LAYER
  2
DEFPOINTS
 70
     0
 62
     7
  6
CONTINUOUS
  0
ENDTAB
  0
TABLE
  2
STYLE
 70
     1
  0
STYLE
  2
STANDARD
 70
     0
 40
0.0
 41
0.8
 50
0.0
 71
     0
 42
0.2
  3
txt
  4

  0
ENDTAB
  0
TABLE
  2
VIEW
 70
     3
  0
ENDTAB
  0
TABLE
  2
UCS
 70
     0
  0
ENDTAB
  0
TABLE
  2
APPID
 70
     9
  0
APPID
  2
ACAD
 70
     0
  0
APPID
  2
ACAD_MLEADERVER
 70
     0
  0
APPID
  2
ACAD_EXEMPT_FROM_CAD_STANDARDS
 70
     0
  0
APPID
  2
ACAD_NAV_VCDISPLAY
 70
     0
  0
APPID
  2
ACAECLAYERSTANDARD
 70
     0
  0
APPID
  2
ACCMTRANSPARENCY
 70
     0
  0
APPID
  2
ACAD_DSTYLE_DIMJAG
 70
     0
  0
APPID
  2
ACAD_DSTYLE_DIMTALN
 70
     0
  0
APPID
  2
ACDBATTR
 70
     0
  0
ENDTAB
  0
TABLE
  2
DIMSTYLE
 70
     1
  0
DIMSTYLE
  2
STANDARD
 70
     0
  3

  4

  5

  6

  7

 40
1.0
 41
0.1875
 42
0.0625
 43
0.38
 44
0.125
 45
0.0
 46
0.0
 47
0.01
 48
0.01
140
0.15625
141
0.09
142
0.0
143
25.3999999999999986
144
1.0
145
0.0
146
1.0
147
0.09
 71
     1
 72
     0
 73
     1
 74
     1
 75
     0
 76
     0
 77
     0
 78
     4
170
     0
171
     2
172
     0
173
     0
174
     0
175
     0
176
     0
177
     0
178
     0
  0
ENDTAB
  0
ENDSEC
  0
SECTION
  2
BLOCKS
  0
BLOCK
  8
0
  2
$MODEL_SPACE
 70
     0
 10
0.0
 20
0.0
 30
0.0
  3
$MODEL_SPACE
  1

  0
ENDBLK
  5
21
  8
0
  0
BLOCK
 67
     1
  8
0
  2
$PAPER_SPACE
 70
     0
 10
0.0
 20
0.0
 30
0.0
  3
$PAPER_SPACE
  1

  0
ENDBLK
  5
1D
 67
     1
  8
0
  0
ENDSEC
  0
SECTION
  2
ENTITIES
  0
ATTDEF
  5
3930
  8
DEFPOINTS
 10
2946.4863224409491522
 20
181.2905539401085093
 30
0.0
 40
0.001
  1
K-21379T-BNS
  3

  2
MODELNUMBER
 70
     0
1001
ACDBATTR
1070
     0
1070
     1
  0
ATTDEF
  5
3931
  8
DEFPOINTS
 10
2946.4863224409491522
 20
181.2888872734417873
 30
0.0
 40
0.001
  1
VEIL
  3

  2
TRADENAME
 70
     0
1001
ACDBATTR
1070
     0
1070
     1
  0
ATTDEF
  5
3932
  8
DEFPOINTS
 10
2946.4863224409491522
 20
181.2872206067750938
 30
0.0
 40
0.001
  1
TOILET 
  3

  2
PRODUCT
 70
     0
1001
ACDBATTR
1070
     0
1070
     1
  0
LINE
  5
7213
  8
0
 10
2939.4636351604381161
 20
167.8064671454858967
 30
0.0
 11
2939.5847096838379002
 21
167.2765823863859111
 31
0.0
  0
LINE
  5
7214
  8
0
 10
2942.7470269141381323
 20
179.020319578985891
 30
0.0
 11
2942.7492198435379578
 21
178.9576672386859002
 31
0.0
  0
LINE
  5
7215
  8
0
 10
2942.192325680938211
 20
179.0291571274858882
 30
0.0
 11
2942.1999338865380196
 21
178.7955552656858913
 31
0.0
  0
LINE
  5
7216
  8
0
 10
2942.2147363724379829
 20
178.7802593507223037
 30
0.0
 11
2942.2147363724379829
 21
178.80466879598589
 31
0.0
  0
LINE
  5
7217
  8
0
 10
2942.7245788921381973
 20
178.7527620768643999
 30
0.0
 11
2942.7245788921381973
 21
178.8932514730859111
 31
0.0
  0
LINE
  5
7218
  8
0
 10
2942.7993820417382267
 20
179.1084262762859112
 30
0.0
 11
2942.7993820417382267
 21
179.1163002917859046
 31
0.0
  0
LINE
  5
7219
  8
0
 10
2942.8899332228379535
 20
179.0716632582858949
 30
0.0
 11
2942.8899332228379535
 21
179.0799157434859126
 31
0.0
  0
LINE
  5
721A
  8
0
 10
2942.976547396137903
 20
179.1163002914859135
 30
0.0
 11
2942.976547396137903
 21
179.0716633304992911
 31
0.0
  0
LINE
  5
721B
  8
0
 10
2943.8644073201380706
 20
179.0702888448859085
 30
0.0
 11
2943.8634498402379904
 21
179.0655009781858951
 31
0.0
  0
LINE
  5
721C
  8
0
 10
2943.8643398053382043
 20
179.0069495164858893
 30
0.0
 11
2943.8634536777381072
 21
179.0025184462859045
 31
0.0
  0
LINE
  5
721D
  8
0
 10
2942.7139658787377812
 20
178.9260200984859068
 30
0.0
 11
2942.7101842749380012
 21
178.9681778526858977
 31
0.0
  0
LINE
  5
721E
  8
0
 10
2943.3761536953379618
 20
181.2870747167858951
 30
0.0
 11
2943.3839806888381645
 21
180.8998726883858978
 31
0.0
  0
LINE
  5
721F
  8
0
 10
2943.8643398053382043
 20
179.0506068035859073
 30
0.0
 11
2943.8643398053382043
 21
179.0069495164858893
 31
0.0
  0
LINE
  5
7220
  8
0
 10
2943.8741851913378014
 20
179.0716640788934058
 30
0.0
 11
2943.8741851913378014
 21
178.7512531582362953
 31
0.0
  0
LINE
  5
7221
  8
0
 10
2943.8632647505378372
 20
179.0585202541859076
 30
0.0
 11
2943.8623876241381367
 21
178.9958698174858966
 31
0.0
  0
LINE
  5
7222
  8
0
 10
2943.8633179447379007
 20
178.9973992074858984
 30
0.0
 11
2943.8624407710381092
 21
178.9347453895859132
 31
0.0
  0
LINE
  5
7223
  8
0
 10
2942.7860098816381651
 20
179.0655009757859091
 30
0.0
 11
2942.7786312580378763
 21
179.080259347185887
 31
0.0
  0
LINE
  5
7224
  8
0
 10
2942.7497370776382013
 20
178.8166916047858876
 30
0.0
 11
2942.7503583668990359
 21
178.8160708864782009
 31
0.0
  0
LINE
  5
7225
  8
0
 10
2942.9142497059378911
 20
178.7512531594859126
 30
0.0
 11
2946.4863899158381173
 21
178.7512531548358936
 31
0.0
  0
LINE
  5
7226
  8
0
 10
2942.1996370669330645
 20
178.80466879598589
 30
0.0
 11
2942.2147363724379829
 21
178.80466879598589
 31
0.0
  0
LINE
  5
7227
  8
0
 10
2942.7491296095749931
 20
178.8440388746859071
 30
0.0
 11
2942.7245788921381973
 21
178.8440388746859071
 31
0.0
  0
LINE
  5
7228
  8
0
 10
2942.7152133672379932
 20
178.8932514730859111
 30
0.0
 11
2942.7245788921381973
 21
178.8932514730859111
 31
0.0
  0
LINE
  5
7229
  8
0
 10
2943.8624407710381092
 20
178.9347453895859132
 30
0.0
 11
2943.8741851913378014
 21
178.9347453895859132
 31
0.0
  0
LINE
  5
722A
  8
0
 10
2942.3125010448379726
 20
178.9795215727858988
 30
0.0
 11
2942.655146924537803
 21
178.9795215726859112
 31
0.0
  0
LINE
  5
722B
  8
0
 10
2943.8741851913378014
 20
178.9958676669859017
 30
0.0
 11
2946.4863899158381173
 21
178.9958676669859017
 31
0.0
  0
LINE
  5
722C
  8
0
 10
2943.8623876241381367
 20
178.9958698174858966
 30
0.0
 11
2942.7885883245380683
 21
178.9958709154859093
 31
0.0
  0
LINE
  5
722D
  8
0
 10
2943.8634536777381072
 20
179.0025184462859045
 30
0.0
 11
2943.8741851913378014
 21
179.0025184462859045
 31
0.0
  0
LINE
  5
722E
  8
0
 10
2942.6510809971377967
 20
179.0235293892858977
 30
0.0
 11
2942.3084529666380149
 21
179.0235293892858977
 31
0.0
  0
LINE
  5
722F
  8
0
 10
2942.1527642954379189
 20
179.0425721924858919
 30
0.0
 11
2941.9320459704381392
 21
179.0425721924858919
 31
0.0
  0
LINE
  5
7230
  8
0
 10
2942.7860098816381651
 20
179.0655009757859091
 30
0.0
 11
2943.8634498402379904
 21
179.0655009781858951
 31
0.0
  0
LINE
  5
7231
  8
0
 10
2942.8899332228379535
 20
179.0716632582858949
 30
0.0
 11
2946.4863899158381173
 21
179.0716662567859032
 31
0.0
  0
LINE
  5
7232
  8
0
 10
2942.870248183538024
 20
179.080259347185887
 30
0.0
 11
2942.7786312580378763
 21
179.080259347185887
 31
0.0
  0
LINE
  5
7233
  8
0
 10
2942.8930828291381658
 20
179.0887412366859053
 30
0.0
 11
2942.8190670811382006
 21
179.0887412366859053
 31
0.0
  0
LINE
  5
7234
  8
0
 10
2942.8190670814378791
 20
179.1359853310858909
 30
0.0
 11
2942.9568623567379291
 21
179.1359853310858909
 31
0.0
  0
LINE
  5
7235
  8
0
 10
2943.8741851913378014
 20
179.0506060969858879
 30
0.0
 11
2943.8643398053382043
 21
179.0506068035859073
 31
0.0
  0
LINE
  5
7236
  8
0
 10
2942.870248183538024
 20
179.080259347185887
 30
0.0
 11
2942.8899332228379535
 21
179.0799157434859126
 31
0.0
  0
LINE
  5
7237
  8
0
 10
2942.3050632537378988
 20
178.7638332307859059
 30
0.0
 11
2942.5744247634379462
 21
178.7561105571859059
 31
0.0
  0
LINE
  5
7238
  8
0
 10
2943.422750423837897
 20
180.8613027388859109
 30
0.0
 11
2944.633829716137825
 21
180.8466828051859068
 31
0.0
  0
LINE
  5
7239
  8
0
 10
2946.4863899158381173
 20
181.2870747167858951
 30
0.0
 11
2943.3761536953379618
 21
181.2870747167858951
 31
0.0
  0
LINE
  5
723A
  8
0
 10
2943.3761536953379618
 20
181.2870747167858951
 30
0.0
 11
2939.2379828052380617
 21
181.2870747167858951
 31
0.0
  0
ARC
  5
723B
  8
0
 10
2940.2522397848069886
 20
178.8667872017132936
 30
0.0
 40
2.4986333454148908
 50
358.8369520528843282
 51
2.0844160001164109
  0
ARC
  5
723C
  8
0
 10
2929.3890354306381596
 20
178.6612708375859029
 30
0.0
 40
13.3622196382999991
 50
0.3906291985369433
 51
0.6637810270686928
  0
ARC
  5
723D
  8
0
 10
2942.9136755243380321
 20
190.6006374388859115
 30
0.0
 40
11.8493842933
 50
268.3593836801096018
 51
270.0027763623891133
  0
ARC
  5
723E
  8
0
 10
2942.7865215889578394
 20
179.0248833199945011
 30
0.0
 40
0.0406208789462932
 50
90.7217826410125951
 51
176.7638634024262103
  0
ARC
  5
723F
  8
0
 10
2943.4233427264380225
 20
180.9006683619859075
 30
0.0
 40
0.0393700787
 50
181.1580327555003009
 51
269.1379818305035201
  0
ARC
  5
7240
  8
0
 10
2942.8930828291381658
 20
179.069056197285903
 30
0.0
 40
0.0196850394
 50
7.6105936814861099
 51
90.0000000028920937
  0
ARC
  5
7241
  8
0
 10
2942.8190670811382006
 20
179.1084262759858916
 30
0.0
 40
0.0196850394
 50
179.9999996054002906
 51
270.0000000005991865
  0
ARC
  5
7242
  8
0
 10
2942.8190670811382006
 20
179.1163002917859046
 30
0.0
 40
0.0196850394
 50
89.9999996051088402
 51
180.0000000005993002
  0
ARC
  5
7243
  8
0
 10
2942.9568623567379291
 20
179.1163002917859046
 30
0.0
 40
0.0196850394
 50
359.9999996054003191
 51
90.0000000005992433
  0
ARC
  5
7244
  8
0
 10
2946.4863899086381025
 20
384.4769273503858926
 30
0.0
 40
203.6386713589000124
 50
269.4787564476014836
 51
270.0000000020323228
  0
ARC
  5
7245
  8
0
 10
2945.9454902684719855
 20
318.7718407013618958
 30
0.0
 40
140.0737779966306107
 50
268.4683707751929092
 51
270.2212501468840742
  0
LINE
  5
7246
  8
0
 10
2942.7459654857379974
 20
179.0271764178858973
 30
0.0
 11
2942.7470269141381323
 21
179.020319578985891
 31
0.0
  0
LINE
  5
7247
  8
0
 10
2943.8644120375402053
 20
179.0716640707451859
 30
0.0
 11
2943.8643398053382043
 21
179.0506068035859073
 31
0.0
  0
LINE
  5
7248
  8
0
 10
2942.201487778937917
 20
178.7481079714858936
 30
0.0
 11
2941.9991467300378645
 21
178.7537096070859093
 31
0.0
  0
LINE
  5
7249
  8
0
 10
2941.8255192783672101
 20
178.7725767051655055
 30
0.0
 11
2941.8821210036380762
 21
179.0318643664359115
 31
0.0
  0
ARC
  5
724A
  8
0
 10
2946.4922160329488179
 20
164.6625802496151891
 30
0.0
 40
5.257697221332279
 50
256.1861619516063229
 51
269.9365098491427943
  0
ARC
  5
724B
  8
0
 10
2946.4363320192869651
 20
164.3652532031962892
 30
0.0
 40
4.955654779041379
 50
239.3126170245240871
 51
255.9927977097055987
  0
ARC
  5
724C
  8
0
 10
2947.0600654390750606
 20
165.3200741383921866
 30
0.0
 40
6.0952893287825818
 50
219.7282756447297061
 51
238.8511425558587007
  0
ARC
  5
724D
  8
0
 10
2952.6989864257839145
 20
169.8256389020747008
 30
0.0
 40
13.3125398027703206
 50
203.204431269316899
 51
219.1302681173378915
  0
ARC
  5
724E
  8
0
 10
2953.4114882945727913
 20
170.2911576497930923
 30
0.0
 40
14.1515889838923901
 50
192.2994065857382964
 51
203.8001117329455951
  0
ARC
  5
724F
  8
0
 10
2963.1788517217851222
 20
172.7442750872889974
 30
0.0
 40
24.2238197611718391
 50
185.5776314778339042
 51
191.7616614246636004
  0
ARC
  5
7250
  8
0
 10
2974.8177246588820708
 20
173.7353192270267925
 30
0.0
 40
35.9042037389799304
 50
177.6653949061102082
 51
185.3464307642217932
  0
ARC
  5
7251
  8
0
 10
3489.9537388968428786
 20
151.5857936663281862
 30
0.0
 40
551.5161014001188278
 50
176.9129066115345097
 51
177.5462422435026895
  0
ARC
  5
7252
  8
0
 10
2956.1520878486089714
 20
170.3884932498579872
 30
0.0
 40
16.7869503530533315
 50
157.0276463308213977
 51
169.419522569535701
  0
ARC
  5
7253
  8
0
 10
2958.9530688951749653
 20
169.6937634376182018
 30
0.0
 40
19.66859557701612
 50
168.9283401989468132
 51
177.8134408459044948
  0
ARC
  5
7254
  8
0
 10
2953.4302801500530222
 20
169.9813316253238895
 30
0.0
 40
14.1390640477610194
 50
178.1240339005489091
 51
188.5314175357293891
  0
ARC
  5
7255
  8
0
 10
2949.0771951226752208
 20
173.6330587284404885
 30
0.0
 40
9.0096679257187606
 50
148.2267621204115926
 51
158.4650872870251135
  0
ARC
  5
7256
  8
0
 10
2949.6006582851869098
 20
173.6777567422290076
 30
0.0
 40
9.4363616208023569
 50
147.2832830154698058
 51
150.1314361995405875
  0
ARC
  5
7257
  8
0
 10
2943.1610490206307986
 20
177.7970732963094065
 30
0.0
 40
1.792004505399341
 50
138.8077301072077887
 51
146.8127097173264985
  0
ARC
  5
7258
  8
0
 10
2942.0049827691468636
 20
178.810035014175611
 30
0.0
 40
0.2549374609751223
 50
123.2342789599264989
 51
139.0069031960393033
  0
ARC
  5
7259
  8
0
 10
2941.9335245020338334
 20
178.9122445710515876
 30
0.0
 40
0.1303360079349144
 50
90.6499772296507871
 51
121.5842498114811008
  0
ARC
  5
725A
  8
0
 10
2942.151496067224798
 20
178.9633776717801936
 30
0.0
 40
0.0792046748153145
 50
68.1366527191694331
 51
89.082538630566475
  0
ARC
  5
725B
  8
0
 10
2942.1662682459268581
 20
179.0031174579191884
 30
0.0
 40
0.0368382180689731
 50
44.9804617751427003
 51
66.4423666596903928
  0
ARC
  5
725C
  8
0
 10
2946.4658676353251394
 20
164.5696357423892096
 30
0.0
 40
5.0619045163523158
 50
260.5411928648945263
 51
270.2322926631251221
  0
ARC
  5
725D
  8
0
 10
2946.4612645473689554
 20
164.4187296614068998
 30
0.0
 40
4.912335464858252
 50
241.4665686218615122
 51
260.3048962482633897
  0
ARC
  5
725E
  8
0
 10
2947.0351328632050354
 20
165.2809718118936075
 30
0.0
 40
5.9446854887490597
 50
220.245666605717787
 51
240.5769606850047921
  0
ARC
  5
725F
  8
0
 10
2951.2832852911101327
 20
168.8361493309350863
 30
0.0
 40
11.4841429707666691
 50
207.5241974128834954
 51
220.0910671395247107
  0
ARC
  5
7260
  8
0
 10
2953.5691737891429511
 20
170.3203114357617096
 30
0.0
 40
14.1995477878272993
 50
193.2015637947054074
 51
208.5726256101553133
  0
ARC
  5
7261
  8
0
 10
2951.0428741410451039
 20
169.8681972845351993
 30
0.0
 40
11.6375627034414499
 50
180.8910178521005889
 51
193.8750139967498001
  0
ARC
  5
7262
  8
0
 10
2958.0814287795988093
 20
169.7920393103356957
 30
0.0
 40
18.6750042892250008
 50
167.4959847640992905
 51
180.3215720390527963
  0
ARC
  5
7263
  8
0
 10
2955.2127835687929291
 20
170.6684662176024858
 30
0.0
 40
15.6864011843929099
 50
154.1116707486233111
 51
168.3527433539723859
  0
ARC
  5
7264
  8
0
 10
2952.8807966999502241
 20
171.7168099968604054
 30
0.0
 40
13.1309249528946204
 50
147.6945979800308919
 51
153.7841955626086019
  0
ARC
  5
7265
  8
0
 10
2941.8770939208288837
 20
178.6708623571072962
 30
0.0
 40
0.1140427654254562
 50
116.8874585576264025
 51
146.1436514208214135
  0
ARC
  5
7266
  8
0
 10
2941.8798391022842225
 20
178.6656188480492062
 30
0.0
 40
0.1199609372589291
 50
89.1120601639166665
 51
116.9242823966157943
  0
ARC
  5
7267
  8
0
 10
2942.008949578604188
 20
179.1816044133205139
 30
0.0
 40
0.4280070841320286
 50
258.3973523258927116
 51
268.6876127207052036
  0
ARC
  5
7268
  8
0
 10
2941.9487650991500232
 20
178.8918675852337117
 30
0.0
 40
0.1320880166153241
 50
244.6523584798715945
 51
258.6931293674741141
  0
ARC
  5
7269
  8
0
 10
2941.9040102402677803
 20
178.797301825496703
 30
0.0
 40
0.0274664450163563
 50
221.0039474453542994
 51
244.5724070202772964
  0
ARC
  5
726A
  8
0
 10
2941.8886629510298008
 20
178.7839790638199133
 30
0.0
 40
0.0071431981262836
 50
167.1691416062689086
 51
221.1267654366880038
  0
ARC
  5
726B
  8
0
 10
2942.3130033593911321
 20
179.1074151698902028
 30
0.0
 40
0.3436736739357006
 50
258.7861638048843247
 51
268.6761423427333852
  0
ARC
  5
726C
  8
0
 10
2942.2716525012810962
 20
178.9053478339656067
 30
0.0
 40
0.1374284336032665
 50
245.3606228679242065
 51
259.3136138705372105
  0
ARC
  5
726D
  8
0
 10
2942.2281406902698109
 20
178.8115507887243893
 30
0.0
 40
0.0340342277695542
 50
221.04453162060571
 51
246.110701155137491
  0
ARC
  5
726E
  8
0
 10
2942.2108896484751313
 20
178.7962489817192022
 30
0.0
 40
0.0109777029275859
 50
183.6231170531112866
 51
219.9338130498032911
  0
ARC
  5
726F
  8
0
 10
2948.6629765149978084
 20
178.7813092580070133
 30
0.0
 40
6.4357012477914726
 50
178.5528998983820088
 51
180.0536719860523931
  0
ARC
  5
7270
  8
0
 10
2942.3123982937931942
 20
178.900886786343591
 30
0.0
 40
0.0786348535739657
 50
89.9251323983228872
 51
179.8071738650002089
  0
ARC
  5
7271
  8
0
 10
2937.8246814925801118
 20
178.7586047576687918
 30
0.0
 40
4.4113860748061828
 50
0.1819333799226681
 51
1.851741022346248
  0
ARC
  5
7272
  8
0
 10
2942.3166056414288505
 20
178.9421999705949986
 30
0.0
 40
0.087293157931504
 50
158.1520513275820861
 51
178.9259121292697046
  0
ARC
  5
7273
  8
0
 10
2942.3085055992128218
 20
178.9446909704111874
 30
0.0
 40
0.0788510187845356
 50
123.8277648933686947
 51
157.6417264279745041
  0
ARC
  5
7274
  8
0
 10
2942.3084784365378255
 20
178.9447058820983045
 30
0.0
 40
0.0788235113025756
 50
90.018513737939827
 51
123.8173972134548961
  0
ARC
  5
7275
  8
0
 10
2942.6510418431248581
 20
178.9643433597464082
 30
0.0
 40
0.0591860424905468
 50
62.647544253473832
 51
89.9620964709532984
  0
ARC
  5
7276
  8
0
 10
2942.6510637394430887
 20
178.9644100364668873
 30
0.0
 40
0.0591167609425026
 50
36.0825981809091516
 51
62.6367016116149884
  0
ARC
  5
7277
  8
0
 10
2942.6499821962120222
 20
178.9637790793011902
 30
0.0
 40
0.0603625669620998
 50
4.1789930757710048
 51
35.9619973165273805
  0
ARC
  5
7278
  8
0
 10
2942.6552250492431995
 20
178.9203846775662896
 30
0.0
 40
0.0591369467279668
 50
42.3287381338607105
 51
90.0756951979536922
  0
ARC
  5
7279
  8
0
 10
2942.6556141699102227
 20
178.920774095744207
 30
0.0
 40
0.0585870503434778
 50
5.137260302653031
 51
42.3034413240644369
  0
ARC
  5
727A
  8
0
 10
2942.0924169591198734
 20
178.8859499206114094
 30
0.0
 40
0.6228392076876644
 50
0.6716945855501085
 51
3.6886547011201052
  0
LINE
  5
727B
  8
0
 10
2942.7152133672379932
 20
178.8932514730859111
 30
0.0
 11
2942.7168415554660896
 21
178.7528880948541996
 31
0.0
  0
ARC
  5
727C
  8
0
 10
2942.788125036503061
 20
178.9569620908133061
 30
0.0
 40
0.0389115827640644
 50
89.3178104211156807
 51
178.9616405753504011
  0
ARC
  5
727D
  8
0
 10
2942.0687170101377887
 20
178.8152444092428084
 30
0.0
 40
0.6810216051733365
 50
0.1217556954524564
 51
3.8519552130396741
  0
ARC
  5
727E
  8
0
 10
2943.1291213902459276
 20
178.8280829850478142
 30
0.0
 40
0.382340362322354
 50
175.0619145592455084
 51
177.6082287089215868
  0
ARC
  5
727F
  8
0
 10
2947.9090379230360668
 20
178.9377990045186948
 30
0.0
 40
5.1638459809338428
 50
179.008257738547087
 51
181.0403786179047927
  0
ARC
  5
7280
  8
0
 10
2943.9910261847057882
 20
178.9965745327841944
 30
0.0
 40
0.1277109025735079
 50
177.3323794460197007
 51
179.6300181756685959
  0
ARC
  5
7281
  8
0
 10
2972.1768304424231246
 20
178.7421774664680925
 30
0.0
 40
28.3155793145563095
 50
179.4866537845065011
 51
179.9816355922453965
  0
ARC
  5
7282
  8
0
 10
2944.0374114214750989
 20
179.0573956757004055
 30
0.0
 40
0.1741503019667396
 50
177.3323764491711927
 51
179.6300089747942934
  0
ARC
  5
7283
  8
0
 10
2942.8895281502018406
 20
179.0598430849184126
 30
0.0
 40
0.020076745398954
 50
36.0683640499170224
 51
88.8439096883177939
  0
ARC
  5
7284
  8
0
 10
2942.7797438132161005
 20
179.0397813372428004
 30
0.0
 40
0.0404932965807681
 50
91.5744022885057092
 51
178.4321432091196016
  0
LINE
  5
7285
  8
0
 10
2942.7392656764382082
 20
179.0408892681859072
 30
0.0
 11
2942.7392656764382082
 21
178.8440388746859071
 31
0.0
  0
LINE
  5
7286
  8
0
 10
2953.5091446712381185
 20
167.8064671454858967
 30
0.0
 11
2953.3880701478378796
 21
167.2765823863859111
 31
0.0
  0
LINE
  5
7287
  8
0
 10
2950.2257529175381023
 20
179.020319578985891
 30
0.0
 11
2950.2235599881378221
 21
178.9576672386859002
 31
0.0
  0
LINE
  5
7288
  8
0
 10
2950.7804541507380236
 20
179.0291571274858882
 30
0.0
 11
2950.772845945138215
 21
178.7955552656858913
 31
0.0
  0
LINE
  5
7289
  8
0
 10
2950.7580434592377969
 20
178.7802593507223037
 30
0.0
 11
2950.7580434592377969
 21
178.80466879598589
 31
0.0
  0
LINE
  5
728A
  8
0
 10
2950.2482009395380373
 20
178.7527620768643999
 30
0.0
 11
2950.2482009395380373
 21
178.8932514730859111
 31
0.0
  0
LINE
  5
728B
  8
0
 10
2950.1733977899380079
 20
179.1084262762859112
 30
0.0
 11
2950.1733977899380079
 21
179.1163002917859046
 31
0.0
  0
LINE
  5
728C
  8
0
 10
2950.0828466088378264
 20
179.0716632582858949
 30
0.0
 11
2950.0828466088378264
 21
179.0799157434859126
 31
0.0
  0
LINE
  5
728D
  8
0
 10
2949.9962324355378769
 20
179.1163002914859135
 30
0.0
 11
2949.9962324355378769
 21
179.0716633304992911
 31
0.0
  0
LINE
  5
728E
  8
0
 10
2949.108372511538164
 20
179.0702888448859085
 30
0.0
 11
2949.1093299914377894
 21
179.0655009781858951
 31
0.0
  0
LINE
  5
728F
  8
0
 10
2949.1084400263380303
 20
179.0069495164858893
 30
0.0
 11
2949.1093261539372179
 21
179.0025184462859045
 31
0.0
  0
LINE
  5
7290
  8
0
 10
2950.2588139529379987
 20
178.9260200984859068
 30
0.0
 11
2950.2625955567377787
 21
178.9681778526858977
 31
0.0
  0
LINE
  5
7291
  8
0
 10
2949.596626136337818
 20
181.2870747167858951
 30
0.0
 11
2949.5887991428371606
 21
180.8998726883858978
 31
0.0
  0
LINE
  5
7292
  8
0
 10
2949.1084400263380303
 20
179.0506068035859073
 30
0.0
 11
2949.1084400263380303
 21
179.0069495164858893
 31
0.0
  0
LINE
  5
7293
  8
0
 10
2949.0985946403379785
 20
179.0716640788934058
 30
0.0
 11
2949.0985946403379785
 21
178.7512531582362953
 31
0.0
  0
LINE
  5
7294
  8
0
 10
2949.1095150811379426
 20
179.0585202541859076
 30
0.0
 11
2949.1103922075380979
 21
178.9958698174858966
 31
0.0
  0
LINE
  5
7295
  8
0
 10
2949.1094618869378792
 20
178.9973992074858984
 30
0.0
 11
2949.1103390606381254
 21
178.9347453895859132
 31
0.0
  0
LINE
  5
7296
  8
0
 10
2950.1867699500380695
 20
179.0655009757859091
 30
0.0
 11
2950.1941485736379036
 21
179.080259347185887
 31
0.0
  0
LINE
  5
7297
  8
0
 10
2950.2230427540380333
 20
178.8166916047858876
 30
0.0
 11
2950.2224214647781082
 21
178.8160708864782009
 31
0.0
  0
LINE
  5
7298
  8
0
 10
2950.0585301257378887
 20
178.7512531594859126
 30
0.0
 11
2946.4863899158381173
 21
178.7512531548358936
 31
0.0
  0
LINE
  5
7299
  8
0
 10
2950.7731427647431701
 20
178.80466879598589
 30
0.0
 11
2950.7580434592377969
 21
178.80466879598589
 31
0.0
  0
LINE
  5
729A
  8
0
 10
2950.2236502221007868
 20
178.8440388746859071
 30
0.0
 11
2950.2482009395380373
 21
178.8440388746859071
 31
0.0
  0
LINE
  5
729B
  8
0
 10
2950.2575664644377866
 20
178.8932514730859111
 30
0.0
 11
2950.2482009395380373
 21
178.8932514730859111
 31
0.0
  0
LINE
  5
729C
  8
0
 10
2949.1103390606381254
 20
178.9347453895859132
 30
0.0
 11
2949.0985946403379785
 21
178.9347453895859132
 31
0.0
  0
LINE
  5
729D
  8
0
 10
2950.6602787868378073
 20
178.9795215727858988
 30
0.0
 11
2950.3176329071379769
 21
178.9795215726859112
 31
0.0
  0
LINE
  5
729E
  8
0
 10
2949.0985946403379785
 20
178.9958676669859017
 30
0.0
 11
2946.4863899158381173
 21
178.9958676669859017
 31
0.0
  0
LINE
  5
729F
  8
0
 10
2949.1103922075380979
 20
178.9958698174858966
 30
0.0
 11
2950.1841915071381663
 21
178.9958709154859093
 31
0.0
  0
LINE
  5
72A0
  8
0
 10
2949.1093261539372179
 20
179.0025184462859045
 30
0.0
 11
2949.0985946403379785
 21
179.0025184462859045
 31
0.0
  0
LINE
  5
72A1
  8
0
 10
2950.3216988345370737
 20
179.0235293892858977
 30
0.0
 11
2950.6643268650382197
 21
179.0235293892858977
 31
0.0
  0
LINE
  5
72A2
  8
0
 10
2950.8200155362378609
 20
179.0425721924858919
 30
0.0
 11
2951.0407338612380954
 21
179.0425721924858919
 31
0.0
  0
LINE
  5
72A3
  8
0
 10
2950.1867699500380695
 20
179.0655009757859091
 30
0.0
 11
2949.1093299914377894
 21
179.0655009781858951
 31
0.0
  0
LINE
  5
72A4
  8
0
 10
2950.0828466088378264
 20
179.0716632582858949
 30
0.0
 11
2946.4863899158381173
 21
179.0716662567859032
 31
0.0
  0
LINE
  5
72A5
  8
0
 10
2950.1025316481382106
 20
179.080259347185887
 30
0.0
 11
2950.1941485736379036
 21
179.080259347185887
 31
0.0
  0
LINE
  5
72A6
  8
0
 10
2950.0796970025380688
 20
179.0887412366859053
 30
0.0
 11
2950.153712750538034
 21
179.0887412366859053
 31
0.0
  0
LINE
  5
72A7
  8
0
 10
2950.1537127502379008
 20
179.1359853310858909
 30
0.0
 11
2950.0159174749378508
 21
179.1359853310858909
 31
0.0
  0
LINE
  5
72A8
  8
0
 10
2949.0985946403379785
 20
179.0506060969858879
 30
0.0
 11
2949.1084400263380303
 21
179.0506068035859073
 31
0.0
  0
LINE
  5
72A9
  8
0
 10
2950.1025316481382106
 20
179.080259347185887
 30
0.0
 11
2950.0828466088378264
 21
179.0799157434859126
 31
0.0
  0
LINE
  5
72AA
  8
0
 10
2950.6677165779378811
 20
178.7638332307859059
 30
0.0
 11
2950.3983550682378336
 21
178.7561105571859059
 31
0.0
  0
LINE
  5
72AB
  8
0
 10
2949.5500294078378829
 20
180.8613027388859109
 30
0.0
 11
2948.3389501155379548
 21
180.8466828051859068
 31
0.0
  0
LINE
  5
72AC
  8
0
 10
2946.4863899158381173
 20
181.2870747167858951
 30
0.0
 11
2949.596626136337818
 21
181.2870747167858951
 31
0.0
  0
LINE
  5
72AD
  8
0
 10
2949.596626136337818
 20
181.2870747167858951
 30
0.0
 11
2953.7347970264381729
 21
181.2870747167858951
 31
0.0
  0
ARC
  5
72AE
  8
0
 10
2952.7205400468687913
 20
178.8667872017132936
 30
0.0
 40
2.4986333454148908
 50
177.9155839998836086
 51
181.1630479471157003
  0
ARC
  5
72AF
  8
0
 10
2963.583744401038075
 20
178.6612708375859029
 30
0.0
 40
13.3622196382999991
 50
179.3362189729313059
 51
179.609370801463001
  0
ARC
  5
72B0
  8
0
 10
2950.0591043073382025
 20
190.6006374388859115
 30
0.0
 40
11.8493842933
 50
269.9972236376108867
 51
271.6406163198903982
  0
ARC
  5
72B1
  8
0
 10
2950.186258242717031
 20
179.0248833199945011
 30
0.0
 40
0.0406208789462932
 50
3.2361365975737248
 51
89.2782173589874191
  0
ARC
  5
72B2
  8
0
 10
2949.5494371052382121
 20
180.9006683619859075
 30
0.0
 40
0.0393700787
 50
270.8620181694964799
 51
358.8419672444996991
  0
ARC
  5
72B3
  8
0
 10
2950.0796970025380688
 20
179.069056197285903
 30
0.0
 40
0.0196850394
 50
89.9999999971078637
 51
172.3894063185155119
  0
ARC
  5
72B4
  8
0
 10
2950.153712750538034
 20
179.1084262759858916
 30
0.0
 40
0.0196850394
 50
269.9999999994008135
 51
0.000000394599664
  0
ARC
  5
72B5
  8
0
 10
2950.153712750538034
 20
179.1163002917859046
 30
0.0
 40
0.0196850394
 50
359.9999999993991082
 51
90.0000003948911456
  0
ARC
  5
72B6
  8
0
 10
2950.0159174749378508
 20
179.1163002917859046
 30
0.0
 40
0.0196850394
 50
89.999999999400714
 51
180.0000003945995957
  0
ARC
  5
72B7
  8
0
 10
2946.4863899230381321
 20
384.4769273503858926
 30
0.0
 40
203.6386713589000124
 50
269.9999999979676772
 51
270.5212435523985164
  0
ARC
  5
72B8
  8
0
 10
2947.0272895632037944
 20
318.7718407013618958
 30
0.0
 40
140.0737779966306107
 50
269.7787498531159258
 51
271.5316292248070908
  0
LINE
  5
72B9
  8
0
 10
2950.2268143459377825
 20
179.0271764178858973
 30
0.0
 11
2950.2257529175381023
 21
179.020319578985891
 31
0.0
  0
LINE
  5
72BA
  8
0
 10
2949.1083677941360293
 20
179.0716640707451859
 30
0.0
 11
2949.1084400263380303
 21
179.0506068035859073
 31
0.0
  0
LINE
  5
72BB
  8
0
 10
2950.7712920527378628
 20
178.7481079714858936
 30
0.0
 11
2950.9736331016379154
 21
178.7537096070859093
 31
0.0
  0
LINE
  5
72BC
  8
0
 10
2951.147260553308115
 20
178.7725767051655055
 30
0.0
 11
2951.0906588280381584
 21
179.0318643664359115
 31
0.0
  0
ARC
  5
72BD
  8
0
 10
2946.4805637987260525
 20
164.6625802496151891
 30
0.0
 40
5.257697221332279
 50
270.0634901508573193
 51
283.8138380483936203
  0
ARC
  5
72BE
  8
0
 10
2946.5364478123888148
 20
164.3652532031962892
 30
0.0
 40
4.955654779041379
 50
284.0072022902944013
 51
300.6873829754758845
  0
ARC
  5
72BF
  8
0
 10
2945.912714392601174
 20
165.3200741383921866
 30
0.0
 40
6.0952893287825818
 50
301.1488574441412993
 51
320.2717243552702939
  0
ARC
  5
72C0
  8
0
 10
2940.2737934058909559
 20
169.8256389020747008
 30
0.0
 40
13.3125398027703206
 50
320.8697318826621085
 51
336.795568730683101
  0
ARC
  5
72C1
  8
0
 10
2939.5612915371029885
 20
170.2911576497930923
 30
0.0
 40
14.1515889838923901
 50
336.1998882670544049
 51
347.7005934142600267
  0
ARC
  5
72C2
  8
0
 10
2929.7939281098902029
 20
172.7442750872889974
 30
0.0
 40
24.2238197611718391
 50
348.2383385753363996
 51
354.4223685221659821
  0
ARC
  5
72C3
  8
0
 10
2918.1550551727927996
 20
173.7353192270267925
 30
0.0
 40
35.9042037389799304
 50
354.6535692357765015
 51
2.3346050938897518
  0
ARC
  5
72C4
  8
0
 10
2403.0190409348329013
 20
151.5857936663281862
 30
0.0
 40
551.5161014001188278
 50
2.4537577564972159
 51
3.087093388465505
  0
ARC
  5
72C5
  8
0
 10
2936.8206919830668085
 20
170.3884932498579872
 30
0.0
 40
16.7869503530533315
 50
10.5804774304642901
 51
22.9723536691785384
  0
ARC
  5
72C6
  8
0
 10
2934.0197109365021788
 20
169.6937634376182018
 30
0.0
 40
19.66859557701612
 50
2.1865591540954439
 51
11.0716598010531708
  0
ARC
  5
72C7
  8
0
 10
2939.5424996816232124
 20
169.9813316253238895
 30
0.0
 40
14.1390640477610194
 50
351.4685824642705256
 51
1.8759660994511149
  0
ARC
  5
72C8
  8
0
 10
2943.8955847090010138
 20
173.6330587284404885
 30
0.0
 40
9.0096679257187606
 50
21.5349127129748403
 51
31.7732378795883506
  0
ARC
  5
72C9
  8
0
 10
2943.3721215464888701
 20
173.6777567422290076
 30
0.0
 40
9.4363616208023569
 50
29.8685638004593912
 51
32.7167169845302013
  0
ARC
  5
72CA
  8
0
 10
2949.8117308110449812
 20
177.7970732963094065
 30
0.0
 40
1.792004505399341
 50
33.187290282673473
 51
41.1922698927921473
  0
ARC
  5
72CB
  8
0
 10
2950.9677970625289163
 20
178.810035014175611
 30
0.0
 40
0.2549374609751223
 50
40.9930968039606967
 51
56.7657210400734726
  0
ARC
  5
72CC
  8
0
 10
2951.039255329641037
 20
178.9122445710515876
 30
0.0
 40
0.1303360079349144
 50
58.4157501885188992
 51
89.3500227703492129
  0
ARC
  5
72CD
  8
0
 10
2950.8212837644509818
 20
178.9633776717801936
 30
0.0
 40
0.0792046748153145
 50
90.9174613694335108
 51
111.8633472808304958
  0
ARC
  5
72CE
  8
0
 10
2950.8065115857489218
 20
179.0031174579191884
 30
0.0
 40
0.0368382180689731
 50
113.557633340309593
 51
135.0195382248573139
  0
ARC
  5
72CF
  8
0
 10
2946.5069121963510952
 20
164.5696357423892096
 30
0.0
 40
5.0619045163523158
 50
269.7677073368748779
 51
279.4588071351054168
  0
ARC
  5
72D0
  8
0
 10
2946.5115152843068245
 20
164.4187296614068998
 30
0.0
 40
4.912335464858252
 50
279.6951037517366103
 51
298.5334313781385731
  0
ARC
  5
72D1
  8
0
 10
2945.9376469684711992
 20
165.2809718118936075
 30
0.0
 40
5.9446854887490597
 50
299.4230393149953215
 51
319.7543333942821846
  0
ARC
  5
72D2
  8
0
 10
2941.6894945405651924
 20
168.8361493309350863
 30
0.0
 40
11.4841429707666691
 50
319.9089328604753177
 51
332.4758025871166183
  0
ARC
  5
72D3
  8
0
 10
2939.4036060425328287
 20
170.3203114357617096
 30
0.0
 40
14.1995477878272993
 50
331.427374389843294
 51
346.7984362052944789
  0
ARC
  5
72D4
  8
0
 10
2941.9299056906302212
 20
169.8681972845351993
 30
0.0
 40
11.6375627034414499
 50
346.1249860032502284
 51
359.1089821478993827
  0
ARC
  5
72D5
  8
0
 10
2934.8913510520769705
 20
169.7920393103356957
 30
0.0
 40
18.6750042892250008
 50
359.6784279609472037
 51
12.5040152359006793
  0
ARC
  5
72D6
  8
0
 10
2937.7599962628819412
 20
170.6684662176024858
 30
0.0
 40
15.6864011843929099
 50
11.6472566460275502
 51
25.8883292513767316
  0
ARC
  5
72D7
  8
0
 10
2940.0919831317260105
 20
171.7168099968604054
 30
0.0
 40
13.1309249528946204
 50
26.2158044373913697
 51
32.3054020199690868
  0
ARC
  5
72D8
  8
0
 10
2951.0956859108468961
 20
178.6708623571072962
 30
0.0
 40
0.1140427654254562
 50
33.8563485791785226
 51
63.112541442373562
  0
ARC
  5
72D9
  8
0
 10
2951.0929407293920121
 20
178.6656188480492062
 30
0.0
 40
0.1199609372589291
 50
63.07571760338422
 51
90.8879398360833335
  0
ARC
  5
72DA
  8
0
 10
2950.9638302530720466
 20
179.1816044133205139
 30
0.0
 40
0.4280070841320286
 50
271.3123872792947964
 51
281.6026476741074021
  0
ARC
  5
72DB
  8
0
 10
2951.0240147325248472
 20
178.8918675852337117
 30
0.0
 40
0.1320880166153241
 50
281.3068706325258859
 51
295.3476415201283771
  0
ARC
  5
72DC
  8
0
 10
2951.0687695914079995
 20
178.797301825496703
 30
0.0
 40
0.0274664450163563
 50
295.4275929797228173
 51
318.9960525546457006
  0
ARC
  5
72DD
  8
0
 10
2951.0841168806459791
 20
178.7839790638199133
 30
0.0
 40
0.0071431981262836
 50
318.8732345633119962
 51
12.8308583937311198
  0
ARC
  5
72DE
  8
0
 10
2950.659776472284193
 20
179.1074151698902028
 30
0.0
 40
0.3436736739357006
 50
271.3238576572666148
 51
281.2138361951156753
  0
ARC
  5
72DF
  8
0
 10
2950.7011273303937742
 20
178.9053478339656067
 30
0.0
 40
0.1374284336032665
 50
280.6863861294627895
 51
294.6393771320758219
  0
ARC
  5
72E0
  8
0
 10
2950.744639141405969
 20
178.8115507887243893
 30
0.0
 40
0.0340342277695542
 50
293.8892988448624806
 51
318.95546837939429
  0
ARC
  5
72E1
  8
0
 10
2950.7618901832001939
 20
178.7962489817192022
 30
0.0
 40
0.0109777029275859
 50
320.0661869501967089
 51
356.3768829468885997
  0
ARC
  5
72E2
  8
0
 10
2944.3098033166779715
 20
178.7813092580070133
 30
0.0
 40
6.4357012477914726
 50
359.9463280139477206
 51
1.4471001016180081
  0
ARC
  5
72E3
  8
0
 10
2950.6603815378830404
 20
178.900886786343591
 30
0.0
 40
0.0786348535739657
 50
0.192826134999763
 51
90.0748676016771128
  0
ARC
  5
72E4
  8
0
 10
2955.1480983390952133
 20
178.7586047576687918
 30
0.0
 40
4.4113860748061828
 50
178.1482589776537111
 51
179.8180666200773032
  0
ARC
  5
72E5
  8
0
 10
2950.6561741902460199
 20
178.9421999705949986
 30
0.0
 40
0.087293157931504
 50
1.0740878707302359
 51
21.8479486724178713
  0
ARC
  5
72E6
  8
0
 10
2950.6642742324620485
 20
178.9446909704111874
 30
0.0
 40
0.0788510187845356
 50
22.3582735720254107
 51
56.1722351066313124
  0
ARC
  5
72E7
  8
0
 10
2950.6643013951370449
 20
178.9447058820983045
 30
0.0
 40
0.0788235113025756
 50
56.1826027865450897
 51
89.9814862620601872
  0
ARC
  5
72E8
  8
0
 10
2950.3217379885509217
 20
178.9643433597464082
 30
0.0
 40
0.0591860424905468
 50
90.0379035290467158
 51
117.352455746526104
  0
ARC
  5
72E9
  8
0
 10
2950.3217160922317817
 20
178.9644100364668873
 30
0.0
 40
0.0591167609425026
 50
117.3632983883850045
 51
143.9174018190907987
  0
ARC
  5
72EA
  8
0
 10
2950.3227976354651219
 20
178.9637790793011902
 30
0.0
 40
0.0603625669620998
 50
144.0380026834725982
 51
175.8210069242290103
  0
ARC
  5
72EB
  8
0
 10
2950.3175547824330351
 20
178.9203846775662896
 30
0.0
 40
0.0591369467279668
 50
89.924304802046322
 51
137.6712618661393037
  0
ARC
  5
72EC
  8
0
 10
2950.3171656617660119
 20
178.920774095744207
 30
0.0
 40
0.0585870503434778
 50
137.6965586759355062
 51
174.8627396973469956
  0
ARC
  5
72ED
  8
0
 10
2950.8803628725559065
 20
178.8859499206114094
 30
0.0
 40
0.6228392076876644
 50
176.3113452988798997
 51
179.3283054144498863
  0
LINE
  5
72EE
  8
0
 10
2950.2575664644377866
 20
178.8932514730859111
 30
0.0
 11
2950.255938276210145
 21
178.7528880948541996
 31
0.0
  0
ARC
  5
72EF
  8
0
 10
2950.1846547951718094
 20
178.9569620908133061
 30
0.0
 40
0.0389115827640644
 50
1.038359424651156
 51
90.6821895788843477
  0
ARC
  5
72F0
  8
0
 10
2950.9040628215379911
 20
178.8152444092428084
 30
0.0
 40
0.6810216051733365
 50
176.1480447869602983
 51
179.8782443045475077
  0
ARC
  5
72F1
  8
0
 10
2949.8436584414298522
 20
178.8280829850478142
 30
0.0
 40
0.382340362322354
 50
2.3917712910783471
 51
4.9380854407560939
  0
ARC
  5
72F2
  8
0
 10
2945.0637419086401678
 20
178.9377990045186948
 30
0.0
 40
5.1638459809338428
 50
358.959621382095122
 51
0.9917422614529368
  0
ARC
  5
72F3
  8
0
 10
2948.9817536469699917
 20
178.9965745327841944
 30
0.0
 40
0.1277109025735079
 50
0.3699818243313869
 51
2.6676205539803051
  0
ARC
  5
72F4
  8
0
 10
2920.79594938925311
 20
178.7421774664680925
 30
0.0
 40
28.3155793145563095
 50
0.0183644077546317
 51
0.5133462154918894
  0
ARC
  5
72F5
  8
0
 10
2948.9353684102020452
 20
179.0573956757004055
 30
0.0
 40
0.1741503019667396
 50
0.3699910252040648
 51
2.6676235508287598
  0
ARC
  5
72F6
  8
0
 10
2950.0832516814748487
 20
179.0598430849184126
 30
0.0
 40
0.020076745398954
 50
91.1560903116822345
 51
143.9316359500828924
  0
ARC
  5
72F7
  8
0
 10
2950.1930360184601341
 20
179.0397813372428004
 30
0.0
 40
0.0404932965807681
 50
1.567856790880406
 51
88.425597711494305
  0
LINE
  5
72F8
  8
0
 10
2950.2335141552380264
 20
179.0408892681859072
 30
0.0
 11
2950.2335141552380264
 21
178.8440388746859071
 31
0.0
  0
ENDSEC
  0
EOF
