  0
SECTION
  2
HEADER
  9
$ACADVER
  1
AC1009
  9
$INSBASE
 10
3986.626072251603091
 20
134.6452596147258021
 30
0.0
  9
$EXTMIN
 10
3983.3969937354290778
 20
131.5344110647478999
 30
-0.0000000000000058
  9
$EXTMAX
 10
3989.8018507780730033
 20
134.6489043247165114
 30
0.0000000000000104
  9
$LIMMIN
 10
0.0
 20
0.0
  9
$LIMMAX
 10
11.6929133858000007
 20
8.2677165353999982
  9
$ORTHOMODE
 70
     0
  9
$REGENMODE
 70
     1
  9
$FILLMODE
 70
     1
  9
$QTEXTMODE
 70
     0
  9
$MIRRTEXT
 70
     0
  9
$DRAGMODE
 70
     2
  9
$LTSCALE
 40
0.6431102362
  9
$OSMODE
 70
  4095
  9
$ATTMODE
 70
     1
  9
$TEXTSIZE
 40
0.2
  9
$TRACEWID
 40
0.05
  9
$TEXTSTYLE
  7
STANDARD
  9
$CLAYER
  8
0
  9
$CELTYPE
  6
BYLAYER
  9
$CECOLOR
 62
   256
  9
$DIMSCALE
 40
1.0
  9
$DIMASZ
 40
0.1875
  9
$DIMEXO
 40
0.0625
  9
$DIMDLI
 40
0.4443307087
  9
$DIMRND
 40
0.0
  9
$DIMDLE
 40
0.0
  9
$DIMEXE
 40
0.125
  9
$DIMTP
 40
0.01
  9
$DIMTM
 40
0.01
  9
$DIMTXT
 40
2.0
  9
$DIMCEN
 40
0.1052362205
  9
$DIMTSZ
 40
0.0
  9
$DIMTOL
 70
     1
  9
$DIMLIM
 70
     0
  9
$DIMTIH
 70
     1
  9
$DIMTOH
 70
     1
  9
$DIMSE1
 70
     0
  9
$DIMSE2
 70
     0
  9
$DIMTAD
 70
     0
  9
$DIMZIN
 70
     0
  9
$DIMBLK
  1

  9
$DIMASO
 70
     1
  9
$DIMSHO
 70
     1
  9
$DIMPOST
  1
\X
  9
$DIMAPOST
  1

  9
$DIMALT
 70
     1
  9
$DIMALTD
 70
     2
  9
$DIMALTF
 40
25.3999999999999986
  9
$DIMLFAC
 40
1.0
  9
$DIMTOFL
 70
     0
  9
$DIMTVP
 40
0.0
  9
$DIMTIX
 70
     0
  9
$DIMSOXD
 70
     0
  9
$DIMSAH
 70
     0
  9
$DIMBLK1
  1

  9
$DIMBLK2
  1

  9
$DIMSTYLE
  2
STANDARD
  9
$DIMCLRD
 70
     0
  9
$DIMCLRE
 70
     0
  9
$DIMCLRT
 70
     0
  9
$DIMTFAC
 40
1.0
  9
$DIMGAP
 40
0.09
  9
$LUNITS
 70
     2
  9
$LUPREC
 70
     4
  9
$SKETCHINC
 40
0.1
  9
$FILLETRAD
 40
0.0
  9
$AUNITS
 70
     0
  9
$AUPREC
 70
     0
  9
$MENU
  1
.
  9
$ELEVATION
 40
0.0
  9
$PELEVATION
 40
0.0
  9
$THICKNESS
 40
0.0
  9
$LIMCHECK
 70
     0
  9
$BLIPMODE
 70
     0
  9
$CHAMFERA
 40
0.0
  9
$CHAMFERB
 40
0.0
  9
$SKPOLY
 70
     0
  9
$TDCREATE
 40
2458060.468368056230247
  9
$TDUPDATE
 40
2459076.7266435190103948
  9
$TDINDWG
 40
0.4028311343
  9
$TDUSRTIMER
 40
0.4028311343
  9
$USRTIMER
 70
     1
  9
$ANGBASE
 50
0.0
  9
$ANGDIR
 70
     0
  9
$PDMODE
 70
     0
  9
$PDSIZE
 40
0.3125
  9
$PLINEWID
 40
0.0
  9
$COORDS
 70
     1
  9
$SPLFRAME
 70
     0
  9
$SPLINETYPE
 70
     6
  9
$SPLINESEGS
 70
     8
  9
$ATTDIA
 70
     1
  9
$ATTREQ
 70
     1
  9
$HANDLING
 70
     1
  9
$HANDSEED
  5
F0DD
  9
$SURFTAB1
 70
     6
  9
$SURFTAB2
 70
     6
  9
$SURFTYPE
 70
     6
  9
$SURFU
 70
     6
  9
$SURFV
 70
     6
  9
$UCSNAME
  2

  9
$UCSORG
 10
0.0
 20
0.0
 30
0.0
  9
$UCSXDIR
 10
1.0
 20
0.0
 30
0.0
  9
$UCSYDIR
 10
0.0
 20
1.0
 30
0.0
  9
$PUCSNAME
  2

  9
$PUCSORG
 10
0.0
 20
0.0
 30
0.0
  9
$PUCSXDIR
 10
1.0
 20
0.0
 30
0.0
  9
$PUCSYDIR
 10
0.0
 20
1.0
 30
0.0
  9
$USERI1
 70
     0
  9
$USERI2
 70
     0
  9
$USERI3
 70
     0
  9
$USERI4
 70
     0
  9
$USERI5
 70
     0
  9
$USERR1
 40
0.0
  9
$USERR2
 40
0.0
  9
$USERR3
 40
0.0
  9
$USERR4
 40
0.0
  9
$USERR5
 40
0.0
  9
$WORLDVIEW
 70
     1
  9
$SHADEDGE
 70
     3
  9
$SHADEDIF
 70
    70
  9
$TILEMODE
 70
     1
  9
$MAXACTVP
 70
    64
  9
$PLIMCHECK
 70
     0
  9
$PEXTMIN
 10
1.0000000000000000E+20
 20
1.0000000000000000E+20
 30
1.0000000000000000E+20
  9
$PEXTMAX
 10
-1.0000000000000000E+20
 20
-1.0000000000000000E+20
 30
-1.0000000000000000E+20
  9
$PLIMMIN
 10
0.0
 20
0.0
  9
$PLIMMAX
 10
12.0
 20
9.0
  9
$UNITMODE
 70
     0
  9
$VISRETAIN
 70
     1
  9
$PLINEGEN
 70
     0
  9
$PSLTSCALE
 70
     1
  0
ENDSEC
  0
SECTION
  2
TABLES
  0
TABLE
  2
VPORT
 70
     1
  0
VPORT
  2
*ACTIVE
 70
     0
 10
0.0
 20
0.0
 11
1.0
 21
1.0
 12
75.2340658114380858
 22
0.5120525921931574
 13
0.0
 23
0.0
 14
1.0
 24
1.0
 15
0.0
 25
0.0
 16
0.0
 26
0.0
 36
60.4960186965801583
 17
3911.3653564453120453
 27
132.5796051025390057
 37
0.0
 40
3.2040608088654579
 41
2.005224660397074
 42
50.0
 43
0.0
 44
0.0
 50
0.0
 51
0.0
 71
     0
 72
   100
 73
     1
 74
     1
 75
     0
 76
     0
 77
     0
 78
     0
  0
ENDTAB
  0
TABLE
  2
LTYPE
 70
     2
  0
LTYPE
  2
CONTINUOUS
 70
     0
  3
Solid line
 72
    65
 73
     0
 40
0.0
  0
LTYPE
  2
PHANTOM2
 70
     0
  3
___ _ _ ___ _ _ ___ _ _ ___ _ _
 72
    65
 73
     6
 40
1.25
 49
0.625
 49
-0.125
 49
0.125
 49
-0.125
 49
0.125
 49
-0.125
  0
ENDTAB
  0
TABLE
  2
LAYER
 70
     2
  0
LAYER
  2
0
 70
     0
 62
   255
  6
CONTINUOUS
  0
LAYER
  2
DEFPOINTS
 70
     0
 62
     7
  6
CONTINUOUS
  0
ENDTAB
  0
TABLE
  2
STYLE
 70
     1
  0
STYLE
  2
STANDARD
 70
     0
 40
0.0
 41
0.8
 50
0.0
 71
     0
 42
0.2
  3
txt
  4

  0
ENDTAB
  0
TABLE
  2
VIEW
 70
     0
  0
ENDTAB
  0
TABLE
  2
UCS
 70
     0
  0
ENDTAB
  0
TABLE
  2
APPID
 70
    10
  0
APPID
  2
ACAD
 70
     0
  0
APPID
  2
ACAD_MLEADERVER
 70
     0
  0
APPID
  2
ACAD_EXEMPT_FROM_CAD_STANDARDS
 70
     0
  0
APPID
  2
ACAD_NAV_VCDISPLAY
 70
     0
  0
APPID
  2
ACAECLAYERSTANDARD
 70
     0
  0
APPID
  2
ACCMTRANSPARENCY
 70
     0
  0
APPID
  2
ACAD_DSTYLE_DIMJAG
 70
     0
  0
APPID
  2
ACAD_DSTYLE_DIMTALN
 70
     0
  0
APPID
  2
ACDBATTR
 70
     0
  0
APPID
  2
ACADANNOTATIVE
 70
     0
  0
ENDTAB
  0
TABLE
  2
DIMSTYLE
 70
     1
  0
DIMSTYLE
  2
STANDARD
 70
     0
  3

  4

  5

  6

  7

 40
1.0
 41
0.1875
 42
0.0625
 43
0.38
 44
0.125
 45
0.0
 46
0.0
 47
0.01
 48
0.01
140
0.15625
141
0.09
142
0.0
143
25.3999999999999986
144
1.0
145
0.0
146
1.0
147
0.09
 71
     1
 72
     0
 73
     1
 74
     1
 75
     0
 76
     0
 77
     0
 78
     4
170
     0
171
     2
172
     0
173
     0
174
     0
175
     0
176
     0
177
     0
178
     0
  0
ENDTAB
  0
ENDSEC
  0
SECTION
  2
BLOCKS
  0
BLOCK
  8
0
  2
$MODEL_SPACE
 70
     0
 10
0.0
 20
0.0
 30
0.0
  3
$MODEL_SPACE
  1

  0
ENDBLK
  5
21
  8
0
  0
BLOCK
 67
     1
  8
0
  2
$PAPER_SPACE
 70
     0
 10
0.0
 20
0.0
 30
0.0
  3
$PAPER_SPACE
  1

  0
ENDBLK
  5
1D
 67
     1
  8
0
  0
ENDSEC
  0
SECTION
  2
ENTITIES
  0
ATTDEF
  5
3930
  8
DEFPOINTS
 10
3986.6204974063098234
 20
134.6422946811622978
 30
0.0
 40
0.001
  1
K-21397T-4A
  3

  2
MODELNUMBER
 70
     0
1001
ACDBATTR
1070
     0
1070
     1
  0
ATTDEF
  5
3931
  8
DEFPOINTS
 10
3986.6204974063098234
 20
134.6406280144956042
 30
0.0
 40
0.001
  1
COMPONENTS
  3

  2
TRADENAME
 70
     0
1001
ACDBATTR
1070
     0
1070
     1
  0
ATTDEF
  5
3932
  8
DEFPOINTS
 10
3986.6204974063098234
 20
134.6389613478289959
 30
0.0
 40
0.001
  1
VALVE TRIM
  3

  2
PRODUCT
 70
     0
1001
ACDBATTR
1070
     0
1070
     1
  0
LINE
  5
EFF7
  8
0
 10
3985.6812053224521151
 20
131.5539443515257858
 30
0.0
 11
3987.5709391807517932
 21
131.5539443515257858
 31
0.0
  0
LINE
  5
EFF8
  8
0
 10
3985.6811903618017823
 20
132.322424969125791
 30
0.0
 11
3985.6811903618017823
 21
132.3125824494902076
 31
0.0
  0
LINE
  5
EFF9
  8
0
 10
3987.5827651650029111
 20
132.2436848116257977
 30
0.0
 11
3985.6693793382019066
 21
132.2436848116257977
 31
0.0
  0
LINE
  5
EFFA
  8
0
 10
3985.6811903618540782
 20
132.312582449425804
 30
0.0
 11
3987.5709541413511943
 21
132.312582449425804
 31
0.0
  0
LINE
  5
EFFB
  8
0
 10
3985.6733163461021832
 20
132.322424969125791
 30
0.0
 11
3987.5788281571030893
 21
132.322424969125791
 31
0.0
  0
LINE
  5
EFFC
  8
0
 10
3985.6733163461021832
 20
133.346047016325798
 30
0.0
 11
3987.5788281571030893
 21
133.346047016325798
 31
0.0
  0
LINE
  5
EFFD
  8
0
 10
3987.5709541414030355
 20
132.322424969125791
 30
0.0
 11
3987.5709541414030355
 21
132.3125824494902076
 31
0.0
  0
ARC
  5
EFFE
  8
0
 10
3986.4500890111021363
 20
132.9270308237258007
 30
0.0
 40
0.9842519684999999
 50
218.6293277252497091
 51
223.9698342899611987
  0
ARC
  5
EFFF
  8
0
 10
3986.8020554921022267
 20
132.9270308237258007
 30
0.0
 40
0.9842519684999999
 50
316.0301657100387729
 51
321.3706722747502909
  0
ARC
  5
F000
  8
0
 10
3985.6930013855021571
 20
133.3775430793257897
 30
0.0
 40
0.031496063
 50
180.0
 51
270.0
  0
ARC
  5
F001
  8
0
 10
3987.5591431177022059
 20
133.3775430793257897
 30
0.0
 40
0.031496063
 50
270.0
 51
0.0
  0
ARC
  5
F002
  8
0
 10
3987.5788281571030893
 20
133.3342359927258087
 30
0.0
 40
0.0118110236
 50
0.0
 51
90.0
  0
ARC
  5
F003
  8
0
 10
3985.6733163461021832
 20
133.3342359927258087
 30
0.0
 40
0.0118110236
 50
90.0
 51
180.0
  0
ARC
  5
F004
  8
0
 10
3987.5788281571030893
 20
132.3342359927258087
 30
0.0
 40
0.0118110236
 50
270.0
 51
0.0
  0
ARC
  5
F005
  8
0
 10
3985.6733163461021832
 20
132.3342359927258087
 30
0.0
 40
0.0118110236
 50
180.0
 51
270.0
  0
ARC
  5
F006
  8
0
 10
3987.5827651650029111
 20
132.2358107958258131
 30
0.0
 40
0.0078740157
 50
0.0
 51
90.0
  0
ARC
  5
F007
  8
0
 10
3985.6693793382019066
 20
132.2358107958258131
 30
0.0
 40
0.0078740157
 50
90.0
 51
180.0
  0
LINE
  5
F008
  8
0
 10
3987.5906391807520777
 20
133.3342359927258087
 30
0.0
 11
3987.5906391807520777
 21
132.3342359927258087
 31
0.0
  0
LINE
  5
F009
  8
0
 10
3987.5906391807520777
 20
132.2358107958258131
 30
0.0
 11
3987.5906391807520777
 21
131.5736443515257861
 31
0.0
  0
ARC
  5
F00A
  8
0
 10
3987.5709391807517932
 20
131.5736443515257861
 30
0.0
 40
0.0197
 50
270.0
 51
0.0
  0
LINE
  5
F00B
  8
0
 10
3987.5906391807520777
 20
133.3775430793257897
 30
0.0
 11
3987.5906391807520777
 21
134.5074643391257894
 31
0.0
  0
LINE
  5
F00C
  8
0
 10
3985.6615053224531948
 20
132.2358107958258131
 30
0.0
 11
3985.6615053224531948
 21
131.5736443515257861
 31
0.0
  0
ARC
  5
F00D
  8
0
 10
3985.6812053224521151
 20
131.5736443515257861
 30
0.0
 40
0.0197
 50
180.0
 51
270.0
  0
LINE
  5
F00E
  8
0
 10
3985.6615053224531948
 20
132.3342359927258087
 30
0.0
 11
3985.6615053224531948
 21
133.3342359927258087
 31
0.0
  0
LINE
  5
F00F
  8
0
 10
3985.6615053224531948
 20
133.3775430793257897
 30
0.0
 11
3985.6615053224531948
 21
134.5074643391257894
 31
0.0
  0
ARC
  5
F010
  8
0
 10
3986.626072251603091
 20
155.137193312059793
 30
0.0
 40
23.6021694987627804
 50
267.7056618436726012
 51
272.2943381563275125
  0
LINE
  5
F011
  8
0
 10
3983.496150991803006
 20
134.5074643391257894
 30
0.0
 11
3989.7559935114031759
 21
134.5074643391257894
 31
0.0
  0
LINE
  5
F012
  8
0
 10
3989.7756785508017856
 20
134.6452596147258021
 30
0.0
 11
3983.4764659524021226
 21
134.6452596147258021
 31
0.0
  0
ARC
  5
F013
  8
0
 10
3983.496150991803006
 20
134.5271493785257917
 30
0.0
 40
0.0196850394
 50
180.0
 51
270.0
  0
ARC
  5
F014
  8
0
 10
3989.7559935114031759
 20
134.5271493785257917
 30
0.0
 40
0.0196850394
 50
270.0
 51
0.0
  0
LINE
  5
F015
  8
0
 10
3989.7756785508017856
 20
134.5271493785257917
 30
0.0
 11
3989.7756785508017856
 21
134.6452596147258021
 31
0.0
  0
LINE
  5
F016
  8
0
 10
3983.4764659524021226
 20
134.5271493785257917
 30
0.0
 11
3983.4764659524021226
 21
134.6452596147258021
 31
0.0
  0
ENDSEC
  0
EOF
