  0
SECTION
  2
HEADER
  9
$ACADVER
  1
AC1009
  9
$INSBASE
 10
3324.0509497862649368
 20
197.5791648581007109
 30
0.0
  9
$EXTMIN
 10
3301.3458865100938056
 20
191.5284520753534139
 30
0.0
  9
$EXTMAX
 10
3327.5942568728150945
 20
221.8957829578039878
 30
0.0
  9
$LIMMIN
 10
0.0
 20
0.0
  9
$LIMMAX
 10
11.6929133858000007
 20
8.2677165353999982
  9
$ORTHOMODE
 70
     0
  9
$REGENMODE
 70
     1
  9
$FILLMODE
 70
     1
  9
$QTEXTMODE
 70
     0
  9
$MIRRTEXT
 70
     0
  9
$DRAGMODE
 70
     2
  9
$LTSCALE
 40
0.6431102362
  9
$OSMODE
 70
  4095
  9
$ATTMODE
 70
     1
  9
$TEXTSIZE
 40
0.2
  9
$TRACEWID
 40
0.05
  9
$TEXTSTYLE
  7
STANDARD
  9
$CLAYER
  8
0
  9
$CELTYPE
  6
BYLAYER
  9
$CECOLOR
 62
   256
  9
$DIMSCALE
 40
1.0
  9
$DIMASZ
 40
0.1875
  9
$DIMEXO
 40
0.0625
  9
$DIMDLI
 40
0.4443307087
  9
$DIMRND
 40
0.0
  9
$DIMDLE
 40
0.0
  9
$DIMEXE
 40
0.125
  9
$DIMTP
 40
0.01
  9
$DIMTM
 40
0.01
  9
$DIMTXT
 40
2.0
  9
$DIMCEN
 40
0.1052362205
  9
$DIMTSZ
 40
0.0
  9
$DIMTOL
 70
     1
  9
$DIMLIM
 70
     0
  9
$DIMTIH
 70
     1
  9
$DIMTOH
 70
     1
  9
$DIMSE1
 70
     0
  9
$DIMSE2
 70
     0
  9
$DIMTAD
 70
     0
  9
$DIMZIN
 70
     0
  9
$DIMBLK
  1

  9
$DIMASO
 70
     1
  9
$DIMSHO
 70
     1
  9
$DIMPOST
  1
\X
  9
$DIMAPOST
  1

  9
$DIMALT
 70
     1
  9
$DIMALTD
 70
     2
  9
$DIMALTF
 40
25.3999999999999986
  9
$DIMLFAC
 40
1.0
  9
$DIMTOFL
 70
     0
  9
$DIMTVP
 40
0.0
  9
$DIMTIX
 70
     0
  9
$DIMSOXD
 70
     0
  9
$DIMSAH
 70
     0
  9
$DIMBLK1
  1

  9
$DIMBLK2
  1

  9
$DIMSTYLE
  2
STANDARD
  9
$DIMCLRD
 70
     0
  9
$DIMCLRE
 70
     0
  9
$DIMCLRT
 70
     0
  9
$DIMTFAC
 40
1.0
  9
$DIMGAP
 40
0.09
  9
$LUNITS
 70
     2
  9
$LUPREC
 70
     4
  9
$SKETCHINC
 40
0.1
  9
$FILLETRAD
 40
0.0
  9
$AUNITS
 70
     0
  9
$AUPREC
 70
     0
  9
$MENU
  1
.
  9
$ELEVATION
 40
0.0
  9
$PELEVATION
 40
0.0
  9
$THICKNESS
 40
0.0
  9
$LIMCHECK
 70
     0
  9
$BLIPMODE
 70
     0
  9
$CHAMFERA
 40
0.0
  9
$CHAMFERB
 40
0.0
  9
$SKPOLY
 70
     0
  9
$TDCREATE
 40
2458060.468368056230247
  9
$TDUPDATE
 40
2459412.2225115741603076
  9
$TDINDWG
 40
0.8472871528
  9
$TDUSRTIMER
 40
0.8472871528
  9
$USRTIMER
 70
     1
  9
$ANGBASE
 50
0.0
  9
$ANGDIR
 70
     0
  9
$PDMODE
 70
     0
  9
$PDSIZE
 40
0.3125
  9
$PLINEWID
 40
0.0
  9
$COORDS
 70
     1
  9
$SPLFRAME
 70
     0
  9
$SPLINETYPE
 70
     6
  9
$SPLINESEGS
 70
     8
  9
$ATTDIA
 70
     1
  9
$ATTREQ
 70
     1
  9
$HANDLING
 70
     1
  9
$HANDSEED
  5
8690
  9
$SURFTAB1
 70
     6
  9
$SURFTAB2
 70
     6
  9
$SURFTYPE
 70
     6
  9
$SURFU
 70
     6
  9
$SURFV
 70
     6
  9
$UCSNAME
  2

  9
$UCSORG
 10
0.0
 20
0.0
 30
0.0
  9
$UCSXDIR
 10
1.0
 20
0.0
 30
0.0
  9
$UCSYDIR
 10
0.0
 20
1.0
 30
0.0
  9
$PUCSNAME
  2

  9
$PUCSORG
 10
0.0
 20
0.0
 30
0.0
  9
$PUCSXDIR
 10
1.0
 20
0.0
 30
0.0
  9
$PUCSYDIR
 10
0.0
 20
1.0
 30
0.0
  9
$USERI1
 70
     0
  9
$USERI2
 70
     0
  9
$USERI3
 70
     0
  9
$USERI4
 70
     0
  9
$USERI5
 70
     0
  9
$USERR1
 40
0.0
  9
$USERR2
 40
0.0
  9
$USERR3
 40
0.0
  9
$USERR4
 40
0.0
  9
$USERR5
 40
0.0
  9
$WORLDVIEW
 70
     1
  9
$SHADEDGE
 70
     3
  9
$SHADEDIF
 70
    70
  9
$TILEMODE
 70
     1
  9
$MAXACTVP
 70
    64
  9
$PLIMCHECK
 70
     0
  9
$PEXTMIN
 10
1.0000000000000000E+20
 20
1.0000000000000000E+20
 30
1.0000000000000000E+20
  9
$PEXTMAX
 10
-1.0000000000000000E+20
 20
-1.0000000000000000E+20
 30
-1.0000000000000000E+20
  9
$PLIMMIN
 10
0.0
 20
0.0
  9
$PLIMMAX
 10
12.0
 20
9.0
  9
$UNITMODE
 70
     0
  9
$VISRETAIN
 70
     1
  9
$PLINEGEN
 70
     0
  9
$PSLTSCALE
 70
     1
  0
ENDSEC
  0
SECTION
  2
TABLES
  0
TABLE
  2
VPORT
 70
     1
  0
VPORT
  2
*ACTIVE
 70
     0
 10
0.0
 20
0.0
 11
1.0
 21
1.0
 12
241.4438813532923973
 22
-1.1138817999485151
 13
0.0
 23
0.0
 14
1.0
 24
1.0
 15
0.0
 25
0.0
 16
0.0
 26
0.0
 36
95.5902297660485658
 17
3089.811279296875
 27
197.161570589386713
 37
0.0
 40
40.8163473210450434
 41
2.000833333333333
 42
50.0
 43
0.0
 44
0.0
 50
0.0
 51
0.0
 71
     0
 72
   100
 73
     1
 74
     1
 75
     0
 76
     0
 77
     0
 78
     0
  0
ENDTAB
  0
TABLE
  2
LTYPE
 70
     2
  0
LTYPE
  2
CONTINUOUS
 70
     0
  3
Solid line
 72
    65
 73
     0
 40
0.0
  0
LTYPE
  2
PHANTOM2
 70
     0
  3
___ _ _ ___ _ _ ___ _ _ ___ _ _
 72
    65
 73
     6
 40
1.25
 49
0.625
 49
-0.125
 49
0.125
 49
-0.125
 49
0.125
 49
-0.125
  0
ENDTAB
  0
TABLE
  2
LAYER
 70
     2
  0
LAYER
  2
0
 70
     0
 62
   255
  6
CONTINUOUS
  0
LAYER
  2
DEFPOINTS
 70
     0
 62
     7
  6
CONTINUOUS
  0
ENDTAB
  0
TABLE
  2
STYLE
 70
     1
  0
STYLE
  2
STANDARD
 70
     0
 40
0.0
 41
0.8
 50
0.0
 71
     0
 42
0.2
  3
txt
  4

  0
ENDTAB
  0
TABLE
  2
VIEW
 70
     0
  0
ENDTAB
  0
TABLE
  2
UCS
 70
     0
  0
ENDTAB
  0
TABLE
  2
APPID
 70
     9
  0
APPID
  2
ACAD
 70
     0
  0
APPID
  2
ACAD_MLEADERVER
 70
     0
  0
APPID
  2
ACAD_EXEMPT_FROM_CAD_STANDARDS
 70
     0
  0
APPID
  2
ACAD_NAV_VCDISPLAY
 70
     0
  0
APPID
  2
ACAECLAYERSTANDARD
 70
     0
  0
APPID
  2
ACCMTRANSPARENCY
 70
     0
  0
APPID
  2
ACAD_DSTYLE_DIMJAG
 70
     0
  0
APPID
  2
ACAD_DSTYLE_DIMTALN
 70
     0
  0
APPID
  2
ACDBATTR
 70
     0
  0
ENDTAB
  0
TABLE
  2
DIMSTYLE
 70
     1
  0
DIMSTYLE
  2
STANDARD
 70
     0
  3

  4

  5

  6

  7

 40
1.0
 41
0.1875
 42
0.0625
 43
0.38
 44
0.125
 45
0.0
 46
0.0
 47
0.01
 48
0.01
140
0.15625
141
0.09
142
0.0
143
25.3999999999999986
144
1.0
145
0.0
146
1.0
147
0.09
 71
     1
 72
     0
 73
     1
 74
     1
 75
     0
 76
     0
 77
     0
 78
     4
170
     0
171
     2
172
     0
173
     0
174
     0
175
     0
176
     0
177
     0
178
     0
  0
ENDTAB
  0
ENDSEC
  0
SECTION
  2
BLOCKS
  0
BLOCK
  8
0
  2
$MODEL_SPACE
 70
     0
 10
0.0
 20
0.0
 30
0.0
  3
$MODEL_SPACE
  1

  0
ENDBLK
  5
21
  8
0
  0
BLOCK
 67
     1
  8
0
  2
$PAPER_SPACE
 70
     0
 10
0.0
 20
0.0
 30
0.0
  3
$PAPER_SPACE
  1

  0
ENDBLK
  5
1D
 67
     1
  8
0
  0
BLOCK
  8
0
  2
_FILLED
 70
     0
 10
0.0
 20
0.0
 30
0.0
  3
_FILLED
  1

  0
SOLID
  5
7FAE
  8
0
  6
BYBLOCK
 62
     0
 10
0.0
 20
0.0
 30
0.0
 11
-1.0
 21
0.1666666667
 31
0.0
 12
-1.0
 22
-0.1666666667
 32
0.0
 13
-1.0
 23
-0.1666666667
 33
0.0
  0
ENDBLK
  5
7FAF
  8
0
  6
BYBLOCK
 62
     0
  0
ENDSEC
  0
SECTION
  2
ENTITIES
  0
ATTDEF
  5
3930
  8
DEFPOINTS
 10
3324.0527969734480394
 20
197.5829584584591032
 30
0.0
 40
0.001
  1
K-21507A
  3

  2
MODELNUMBER
 70
     0
1001
ACDBATTR
1070
     0
1070
     1
  0
ATTDEF
  5
3931
  8
DEFPOINTS
 10
3324.0527969734480394
 20
197.5812917917924096
 30
0.0
 40
0.001
  1
ARTIFACTS
  3

  2
TRADENAME
 70
     0
1001
ACDBATTR
1070
     0
1070
     1
  0
ATTDEF
  5
3932
  8
DEFPOINTS
 10
3324.0527969734480394
 20
197.5796251251256876
 30
0.0
 40
0.001
  1
VALVE TRIM
  3

  2
PRODUCT
 70
     0
1001
ACDBATTR
1070
     0
1070
     1
  0
ARC
  5
84F0
  8
0
 10
3324.0509497862649368
 20
197.5791648581530069
 30
0.0
 40
3.5433070865496998
 50
279.1182077158802031
 51
260.8817922623761092
  0
ARC
  5
84F1
  8
0
 10
3324.0509359815091557
 20
198.6224719438986881
 30
0.0
 40
0.4750146696257021
 50
299.226752674154227
 51
180.0062746040445916
  0
CIRCLE
  5
84F2
  8
0
 10
3324.0509213118830303
 20
198.6224719438417878
 30
0.0
 40
0.3448074627187886
  0
ARC
  5
84F3
  8
0
 10
3324.0509431054711058
 20
198.6227849737302904
 30
0.0
 40
0.7483275615889268
 50
293.3193284090194766
 51
246.6730740950330016
  0
ARC
  5
84F4
  8
0
 10
3324.0509213118830303
 20
198.6224719438417878
 30
0.0
 40
0.9645669291
 50
287.5373234246313814
 51
252.4626765770912016
  0
ARC
  5
84F5
  8
0
 10
3324.0509359810839669
 20
198.6224719446418021
 30
0.0
 40
0.9941091573999996
 50
288.0509693969401042
 51
251.9474045967583891
  0
ARC
  5
84F6
  8
0
 10
3323.7781588609450409
 20
198.1391235312763115
 30
0.0
 40
0.0800000582848666
 50
353.0400067061635241
 51
60.5614135018543109
  0
ARC
  5
84F7
  8
0
 10
3324.3236836988889991
 20
198.1391235421183126
 30
0.0
 40
0.0799999961165923
 50
120.6751874447206063
 51
186.9600066054088074
  0
ARC
  5
84F8
  8
0
 10
3323.5711314337540898
 20
198.1548586443873887
 30
0.0
 40
0.2875645203398401
 50
318.6325527282663757
 51
354.926729192219284
  0
ARC
  5
84F9
  8
0
 10
3323.7031858018381172
 20
197.8756287765955904
 30
0.0
 40
0.0267527207713076
 50
107.1402397754155942
 51
149.744310329570709
  0
ARC
  5
84FA
  8
0
 10
3323.7064307513501262
 20
197.8758572635684914
 30
0.0
 40
0.0294975031717871
 50
153.3057750151409948
 51
191.8694047044525064
  0
ARC
  5
84FB
  8
0
 10
3323.5908109257320575
 20
198.1495304942538951
 30
0.0
 40
0.2694246288463417
 50
292.8194476506744195
 51
316.7167294721676853
  0
ARC
  5
84FC
  8
0
 10
3323.9000854716809954
 20
197.8995265106221098
 30
0.0
 40
0.2244996304257612
 50
187.6115431821912978
 51
219.8180101440877934
  0
ARC
  5
84FD
  8
0
 10
3323.8285433002711216
 20
197.838220643186304
 30
0.0
 40
0.1302983192460224
 50
219.2569802213866126
 51
253.2176232833058975
  0
ARC
  5
84FE
  8
0
 10
3323.7914958196010957
 20
197.6627076860478951
 30
0.0
 40
0.0507675085904612
 50
90.6483983757692471
 51
163.2834781570876999
  0
ARC
  5
84FF
  8
0
 10
3323.79049073210399
 20
197.6632690571549915
 30
0.0
 40
0.0496440477560233
 50
163.570335699185506
 51
247.0095073360849085
  0
ARC
  5
8500
  8
0
 10
3323.7592085574538032
 20
197.5900260371494142
 30
0.0
 40
0.0300000000210186
 50
356.0000000116992283
 51
66.646094359684497
  0
LINE
  5
8501
  8
0
 10
3323.7891354789840079
 20
197.5879333429417954
 30
0.0
 11
3323.6825100529918018
 21
196.0631187111418114
 31
0.0
  0
ARC
  5
8502
  8
0
 10
3323.6525831317480879
 20
196.0652114052437867
 30
0.0
 40
0.0299999997292275
 50
290.7460916165578055
 51
356.0000001749460807
  0
ARC
  5
8503
  8
0
 10
3323.6809213118781372
 20
195.9903986556442135
 30
0.0
 40
0.0499999999942268
 50
110.7460921204371971
 51
210.0000000070220096
  0
ARC
  5
8504
  8
0
 10
3323.6116392795838692
 20
195.9503986556418056
 30
0.0
 40
0.0299999999999989
 50
302.2042275039913193
 51
29.9999999998978915
  0
ARC
  5
8505
  8
0
 10
3323.6809213118740445
 20
195.8403986556459984
 30
0.0
 40
0.0999999999899116
 50
122.2042274993036983
 51
170.2795145425814951
  0
ARC
  5
8506
  8
0
 10
3323.6809213118840489
 20
195.8403986556417919
 30
0.0
 40
0.0999999999999949
 50
170.2795145411297995
 51
210.4537046521523962
  0
ARC
  5
8507
  8
0
 10
3323.6837033010669984
 20
195.8425388328051895
 30
0.0
 40
0.1034838285675394
 50
210.6944888729360912
 51
238.8959936274679023
  0
ARC
  5
8508
  8
0
 10
3323.6116392795838692
 20
195.7303986556418067
 30
0.0
 40
0.0300000000000001
 50
330.0000000001035119
 51
51.6717443226910618
  0
ARC
  5
8509
  8
0
 10
3323.6809213119117885
 20
195.6903986556517907
 30
0.0
 40
0.0500000000286058
 50
150.0000000321620064
 51
215.6514430130283131
  0
ARC
  5
850A
  8
0
 10
3323.6809213118840489
 20
195.6903986556417863
 30
0.0
 40
0.0499999999999991
 50
215.6514430224260934
 51
253.7994138982996049
  0
ARC
  5
850B
  8
0
 10
3323.6586012373832091
 20
195.6135753889049056
 30
0.0
 40
0.0300000002364991
 50
21.1377621430520009
 51
73.7994137111678015
  0
ARC
  5
850C
  8
0
 10
3323.9252039986117779
 20
195.7147228804898873
 30
0.0
 40
0.2551459755973676
 50
200.7339622076034118
 51
219.6604873616639964
  0
ARC
  5
850D
  8
0
 10
3323.8865331244919616
 20
195.6825618031525096
 30
0.0
 40
0.2048492174305104
 50
219.6387563636826883
 51
243.2091545081063941
  0
ARC
  5
850E
  8
0
 10
3323.7809213120181084
 20
195.472800518580101
 30
0.0
 40
0.0299999998659155
 50
359.9999999269007844
 51
63.7277321372758223
  0
LINE
  5
850F
  8
0
 10
3323.8109213118841581
 20
195.4728005185417885
 30
0.0
 11
3323.8109213118841581
 21
195.4509186213417991
 31
0.0
  0
ARC
  5
8510
  8
0
 10
3323.8409213117438412
 20
195.4509186212910095
 30
0.0
 40
0.0299999998610128
 50
179.9999999029886908
 51
260.2988054972033751
  0
ARC
  5
8511
  8
0
 10
3323.8186948670540914
 20
195.3134282094873129
 30
0.0
 40
0.109276932792935
 50
56.723039082784048
 51
80.9594042951801356
  0
ARC
  5
8512
  8
0
 10
3323.8378751490031391
 20
195.3387378140018029
 30
0.0
 40
0.0776231592524488
 50
32.5842651238440126
 51
58.3088947867664871
  0
ARC
  5
8513
  8
0
 10
3323.7980925110809949
 20
195.3075098638437908
 30
0.0
 40
0.1280548351438302
 50
16.7750690802660891
 51
34.7719151070725516
  0
ARC
  5
8514
  8
0
 10
3323.9493150678631537
 20
195.3534719437774925
 30
0.0
 40
0.0299999999356898
 50
197.4646230499160993
 51
270.000000040228997
  0
ARC
  5
8515
  8
0
 10
3324.5279528739638408
 20
198.1536752682850135
 30
0.0
 40
0.2847138993705393
 50
184.8851467785459022
 51
221.5555713044527977
  0
ARC
  5
8516
  8
0
 10
3324.3954397142119888
 20
197.8758608859060075
 30
0.0
 40
0.0294710030721211
 50
348.1125702815170939
 51
26.7122492773854212
  0
ARC
  5
8517
  8
0
 10
3324.5110316980499192
 20
198.1495304942677933
 30
0.0
 40
0.2694246288463417
 50
223.2832705295739117
 51
247.1805523510520004
  0
ARC
  5
8518
  8
0
 10
3324.2018794609889483
 20
197.899472782918906
 30
0.0
 40
0.2243712856014832
 50
320.1725278639232215
 51
352.3979189125328162
  0
ARC
  5
8519
  8
0
 10
3324.2732993235199501
 20
197.8382206431930115
 30
0.0
 40
0.1302983192460224
 50
286.7823767184353869
 51
320.7430197803474812
  0
ARC
  5
851A
  8
0
 10
3324.3103468041949782
 20
197.6627076860557963
 30
0.0
 40
0.0507675085904612
 50
16.7165218446470583
 51
89.3516016259505079
  0
ARC
  5
851B
  8
0
 10
3324.3113518916929934
 20
197.6632690571628928
 30
0.0
 40
0.0496440477558475
 50
292.990492681691876
 51
16.4296643026300409
  0
ARC
  5
851C
  8
0
 10
3324.3426340662331313
 20
197.5900260372856962
 30
0.0
 40
0.0299999998599943
 50
113.3539055172328034
 51
184.0000002706003102
  0
LINE
  5
851D
  8
0
 10
3324.3127071448748211
 20
197.5879333429417954
 30
0.0
 11
3324.4193325708829434
 21
196.0631187111418114
 31
0.0
  0
ARC
  5
851E
  8
0
 10
3324.4492594923008255
 20
196.0652114052743116
 30
0.0
 40
0.0299999999042245
 50
183.9999998598503055
 51
249.253907601558808
  0
ARC
  5
851F
  8
0
 10
3324.4209213121698667
 20
195.9903986557102087
 30
0.0
 40
0.0499999997861914
 50
329.9999997680228034
 51
69.253908333316744
  0
ARC
  5
8520
  8
0
 10
3324.4902033444641347
 20
195.9503986557095061
 30
0.0
 40
0.0300000002067316
 50
150.0000003771218928
 51
237.7957721666844861
  0
ARC
  5
8521
  8
0
 10
3324.4209213122749134
 20
195.8403986557761129
 30
0.0
 40
0.09999999967608
 50
9.7204854208762903
 51
57.795772629832129
  0
ARC
  5
8522
  8
0
 10
3324.4209213119679589
 20
195.8403986556529901
 30
0.0
 40
0.1000000000000068
 50
329.5462953495893998
 51
9.7204854606038715
  0
ARC
  5
8523
  8
0
 10
3324.4181393169778858
 20
195.8425388373103999
 30
0.0
 40
0.1034838358533707
 50
301.1040059231689838
 51
329.3055106298853048
  0
ARC
  5
8524
  8
0
 10
3324.4902033442717766
 20
195.7303986556551081
 30
0.0
 40
0.0300000000000001
 50
128.3282623472319983
 51
210.0000000016410979
  0
ARC
  5
8525
  8
0
 10
3324.4209213119797823
 20
195.690398655650398
 30
0.0
 40
0.0499999999919068
 50
324.3485569763257104
 51
30.0000000106017986
  0
ARC
  5
8526
  8
0
 10
3324.4209213119720516
 20
195.6903986556530128
 30
0.0
 40
0.0499999999999991
 50
286.20058610343699
 51
324.3485569792982233
  0
ARC
  5
8527
  8
0
 10
3324.4432413860968154
 20
195.6135753893065896
 30
0.0
 40
0.0299999996938037
 50
106.2005859017880027
 51
158.8622382561092934
  0
ARC
  5
8528
  8
0
 10
3324.1766386237381994
 20
195.7147228815449864
 30
0.0
 40
0.2551459774271722
 50
320.3395126740886099
 51
339.266037697257218
  0
ARC
  5
8529
  8
0
 10
3324.2153094993650484
 20
195.6825618031570002
 30
0.0
 40
0.204849217429859
 50
296.7908454936145972
 51
320.3612436368898102
  0
ARC
  5
852A
  8
0
 10
3324.3209213120671848
 20
195.472800518344286
 30
0.0
 40
0.0300000001826773
 50
116.2722680371518038
 51
179.9999996226895007
  0
LINE
  5
852B
  8
0
 10
3324.2909213118841762
 20
195.4728005185417885
 30
0.0
 11
3324.2909213119801279
 21
195.4509186213491034
 31
0.0
  0
ARC
  5
852C
  8
0
 10
3324.2609213121190805
 20
195.4509186212974043
 30
0.0
 40
0.0299999998610147
 50
279.7011945045409789
 51
0.0000000987439586
  0
ARC
  5
852D
  8
0
 10
3324.283147756812923
 20
195.3134282094943046
 30
0.0
 40
0.109276932792935
 50
99.0405957065611062
 51
123.2769609189584941
  0
ARC
  5
852E
  8
0
 10
3324.2639674748629659
 20
195.3387378140083115
 30
0.0
 40
0.0776231592524488
 50
121.6911052149763037
 51
147.4157348778932999
  0
ARC
  5
852F
  8
0
 10
3324.3037501127250835
 20
195.3075098638873897
 30
0.0
 40
0.1280548350727136
 50
145.2280848921558061
 51
163.2249309305231009
  0
ARC
  5
8530
  8
0
 10
3324.1525275560020418
 20
195.3534719437851948
 30
0.0
 40
0.0299999999403191
 50
269.999999964408687
 51
342.535376937428623
  0
ARC
  5
8531
  8
0
 10
3324.3979983621698011
 20
197.8747992655823964
 30
0.0
 40
0.0277421139221258
 50
31.0503239210600306
 51
72.0651134375409299
  0
ARC
  5
8532
  8
0
 10
3324.0509213118830303
 20
198.6224719438417878
 30
0.0
 40
0.474999999999997
 50
180.0062667536743959
 51
214.4725240269063136
  0
ARC
  5
8533
  8
0
 10
3324.0509210191748934
 20
198.6224716894371909
 30
0.0
 40
0.474999614695835
 50
214.4725187129623123
 51
240.5634685037740041
  0
LINE
  5
8534
  8
0
 10
3323.790921311882812
 20
197.713471943841796
 30
0.0
 11
3324.3109213126081158
 21
197.713471943841796
 31
0.0
  0
LINE
  5
8535
  8
0
 10
3323.7711008403662163
 20
197.6175682521729016
 30
0.0
 11
3324.3307417834212174
 21
197.6175682521769943
 31
0.0
  0
LINE
  5
8536
  8
0
 10
3323.6825100529918018
 20
196.0631187111418114
 30
0.0
 11
3324.4193325708829434
 21
196.0631187111418114
 31
0.0
  0
LINE
  5
8537
  8
0
 10
3323.9493211679841806
 20
195.3234719438418097
 30
0.0
 11
3324.1525275560020418
 21
195.3234719438418097
 31
0.0
  0
LINE
  5
8538
  8
0
 10
3323.8109213118841581
 20
195.4509186213417991
 30
0.0
 11
3324.2909213119801279
 21
195.4509186212943916
 31
0.0
  0
LINE
  5
8539
  8
0
 10
3323.6865827196420469
 20
195.6243937374275106
 30
0.0
 11
3324.4152599042758993
 21
195.6243937374578081
 31
0.0
  0
LINE
  5
853A
  8
0
 10
3323.6302442587580117
 20
195.7539327744887885
 30
0.0
 11
3324.4715983623568718
 21
195.7539327723362987
 31
0.0
  0
LINE
  5
853B
  8
0
 10
3323.6376200416830216
 20
195.9653986556417919
 30
0.0
 11
3324.464222582083039
 21
195.9653986556417919
 31
0.0
  0
LINE
  5
853C
  8
0
 10
3323.6953014668201831
 20
197.9011933092573088
 30
0.0
 11
3324.4065411570031756
 21
197.9011933092533013
 31
0.0
  0
ARC
  5
853D
  8
0
 10
3324.0509497856101007
 20
197.5791648580988067
 30
0.0
 40
3.543307086600084
 50
266.3448937554023814
 51
273.6551062445975049
  0
ARC
  5
853E
  8
0
 10
3324.0509497733878561
 20
197.5791647214269062
 30
0.0
 40
3.5391824491171859
 50
261.0404669657938825
 51
266.1729849516520972
  0
ARC
  5
853F
  8
0
 10
3324.0509497985221969
 20
197.57916471371081
 30
0.0
 40
3.5391824413723172
 50
273.8270150455535941
 51
278.959533042039709
  0
LINE
  5
8540
  8
0
 10
3324.6124641946839802
 20
194.0806327833062142
 30
0.0
 11
3324.6021308878598575
 21
194.0831653201076108
 31
0.0
  0
LINE
  5
8541
  8
0
 10
3324.2768369513341895
 20
194.0430652980876118
 30
0.0
 11
3324.2871702580519013
 21
194.0478742629240969
 31
0.0
  0
LINE
  5
8542
  8
0
 10
3323.4894353765212145
 20
194.0806327835190928
 30
0.0
 11
3323.4997686833198713
 21
194.0831653200980043
 31
0.0
  0
LINE
  5
8543
  8
0
 10
3323.8147293131669358
 20
194.0478742629240969
 30
0.0
 11
3323.8250626198610007
 21
194.0430652983013999
 31
0.0
  0
CIRCLE
  5
8544
  8
0
 10
3324.0509497856101007
 20
197.579164858098693
 30
0.0
 40
3.2712343312000001
  0
CIRCLE
  5
8545
  8
0
 10
3324.0509497856101007
 20
197.579164858098693
 30
0.0
 40
3.1536131662999991
  0
CIRCLE
  5
8546
  8
0
 10
3324.0509497856101007
 20
198.6224719446987024
 30
0.0
 40
0.2837873757000002
  0
CIRCLE
  5
8547
  8
0
 10
3324.0509497856101007
 20
198.6224719446987024
 30
0.0
 40
0.3837543122999998
  0
ENDSEC
  0
EOF
