  0
SECTION
  2
HEADER
  9
$ACADVER
  1
AC1009
  9
$INSBASE
 10
4336.4586488590312001
 20
220.8808839689525882
 30
0.0
  9
$EXTMIN
 10
4314.5361921264011471
 20
220.8676400108159044
 30
-0.0000000000112498
  9
$EXTMAX
 10
4336.5821889191302034
 20
261.5118268724680206
 30
0.0000000000002956
  9
$LIMMIN
 10
0.0
 20
0.0
  9
$LIMMAX
 10
11.6929133858000007
 20
8.2677165353999982
  9
$ORTHOMODE
 70
     0
  9
$REGENMODE
 70
     1
  9
$FILLMODE
 70
     1
  9
$QTEXTMODE
 70
     0
  9
$MIRRTEXT
 70
     0
  9
$DRAGMODE
 70
     2
  9
$LTSCALE
 40
0.6431102362
  9
$OSMODE
 70
   575
  9
$ATTMODE
 70
     1
  9
$TEXTSIZE
 40
0.2
  9
$TRACEWID
 40
0.05
  9
$TEXTSTYLE
  7
STANDARD
  9
$CLAYER
  8
0
  9
$CELTYPE
  6
BYLAYER
  9
$CECOLOR
 62
   256
  9
$DIMSCALE
 40
1.0
  9
$DIMASZ
 40
0.1875
  9
$DIMEXO
 40
0.0625
  9
$DIMDLI
 40
0.4443307087
  9
$DIMRND
 40
0.0
  9
$DIMDLE
 40
0.0
  9
$DIMEXE
 40
0.125
  9
$DIMTP
 40
0.01
  9
$DIMTM
 40
0.01
  9
$DIMTXT
 40
2.0
  9
$DIMCEN
 40
0.1052362205
  9
$DIMTSZ
 40
0.0
  9
$DIMTOL
 70
     1
  9
$DIMLIM
 70
     0
  9
$DIMTIH
 70
     1
  9
$DIMTOH
 70
     1
  9
$DIMSE1
 70
     0
  9
$DIMSE2
 70
     0
  9
$DIMTAD
 70
     0
  9
$DIMZIN
 70
     0
  9
$DIMBLK
  1

  9
$DIMASO
 70
     1
  9
$DIMSHO
 70
     1
  9
$DIMPOST
  1
\X
  9
$DIMAPOST
  1

  9
$DIMALT
 70
     1
  9
$DIMALTD
 70
     2
  9
$DIMALTF
 40
25.3999999999999986
  9
$DIMLFAC
 40
1.0
  9
$DIMTOFL
 70
     0
  9
$DIMTVP
 40
0.0
  9
$DIMTIX
 70
     0
  9
$DIMSOXD
 70
     0
  9
$DIMSAH
 70
     0
  9
$DIMBLK1
  1

  9
$DIMBLK2
  1

  9
$DIMSTYLE
  2
STANDARD
  9
$DIMCLRD
 70
     0
  9
$DIMCLRE
 70
     0
  9
$DIMCLRT
 70
     0
  9
$DIMTFAC
 40
1.0
  9
$DIMGAP
 40
0.09
  9
$LUNITS
 70
     2
  9
$LUPREC
 70
     4
  9
$SKETCHINC
 40
0.1
  9
$FILLETRAD
 40
0.0
  9
$AUNITS
 70
     0
  9
$AUPREC
 70
     0
  9
$MENU
  1
.
  9
$ELEVATION
 40
0.0
  9
$PELEVATION
 40
0.0
  9
$THICKNESS
 40
0.0
  9
$LIMCHECK
 70
     0
  9
$BLIPMODE
 70
     0
  9
$CHAMFERA
 40
0.0
  9
$CHAMFERB
 40
0.0
  9
$SKPOLY
 70
     0
  9
$TDCREATE
 40
2458060.468368056230247
  9
$TDUPDATE
 40
2459390.9768171301111579
  9
$TDINDWG
 40
0.6614075230999999
  9
$TDUSRTIMER
 40
0.6614075230999999
  9
$USRTIMER
 70
     1
  9
$ANGBASE
 50
0.0
  9
$ANGDIR
 70
     0
  9
$PDMODE
 70
     0
  9
$PDSIZE
 40
0.3125
  9
$PLINEWID
 40
0.0
  9
$COORDS
 70
     2
  9
$SPLFRAME
 70
     0
  9
$SPLINETYPE
 70
     6
  9
$SPLINESEGS
 70
     8
  9
$ATTDIA
 70
     1
  9
$ATTREQ
 70
     1
  9
$HANDLING
 70
     1
  9
$HANDSEED
  5
13B9E
  9
$SURFTAB1
 70
     6
  9
$SURFTAB2
 70
     6
  9
$SURFTYPE
 70
     6
  9
$SURFU
 70
     6
  9
$SURFV
 70
     6
  9
$UCSNAME
  2

  9
$UCSORG
 10
0.0
 20
0.0
 30
0.0
  9
$UCSXDIR
 10
1.0
 20
0.0
 30
0.0
  9
$UCSYDIR
 10
0.0
 20
1.0
 30
0.0
  9
$PUCSNAME
  2

  9
$PUCSORG
 10
0.0
 20
0.0
 30
0.0
  9
$PUCSXDIR
 10
1.0
 20
0.0
 30
0.0
  9
$PUCSYDIR
 10
0.0
 20
1.0
 30
0.0
  9
$USERI1
 70
     0
  9
$USERI2
 70
     0
  9
$USERI3
 70
     0
  9
$USERI4
 70
     0
  9
$USERI5
 70
     0
  9
$USERR1
 40
0.0
  9
$USERR2
 40
0.0
  9
$USERR3
 40
0.0
  9
$USERR4
 40
0.0
  9
$USERR5
 40
0.0
  9
$WORLDVIEW
 70
     1
  9
$SHADEDGE
 70
     3
  9
$SHADEDIF
 70
    70
  9
$TILEMODE
 70
     1
  9
$MAXACTVP
 70
    64
  9
$PLIMCHECK
 70
     0
  9
$PEXTMIN
 10
1.0000000000000000E+20
 20
1.0000000000000000E+20
 30
1.0000000000000000E+20
  9
$PEXTMAX
 10
-1.0000000000000000E+20
 20
-1.0000000000000000E+20
 30
-1.0000000000000000E+20
  9
$PLIMMIN
 10
0.0
 20
0.0
  9
$PLIMMAX
 10
12.0
 20
9.0
  9
$UNITMODE
 70
     0
  9
$VISRETAIN
 70
     1
  9
$PLINEGEN
 70
     0
  9
$PSLTSCALE
 70
     1
  0
ENDSEC
  0
SECTION
  2
TABLES
  0
TABLE
  2
VPORT
 70
     1
  0
VPORT
  2
*ACTIVE
 70
     0
 10
0.0
 20
0.0
 11
1.0
 21
1.0
 12
164.002793799572089
 22
15.0789011695565893
 13
0.0
 23
0.0
 14
1.0
 24
1.0
 15
0.0
 25
0.0
 16
0.0
 26
0.0
 36
202.37134017897489
 17
4161.556396484375
 27
226.1108322143554972
 37
0.0
 40
54.9819077366209825
 41
2.5405405405405399
 42
50.0
 43
0.0
 44
0.0
 50
0.0
 51
0.0
 71
     0
 72
   100
 73
     1
 74
     1
 75
     0
 76
     0
 77
     0
 78
     0
  0
ENDTAB
  0
TABLE
  2
LTYPE
 70
     2
  0
LTYPE
  2
CONTINUOUS
 70
     0
  3
Solid line
 72
    65
 73
     0
 40
0.0
  0
LTYPE
  2
PHANTOM2
 70
     0
  3
___ _ _ ___ _ _ ___ _ _ ___ _ _
 72
    65
 73
     6
 40
1.25
 49
0.625
 49
-0.125
 49
0.125
 49
-0.125
 49
0.125
 49
-0.125
  0
ENDTAB
  0
TABLE
  2
LAYER
 70
     2
  0
LAYER
  2
0
 70
     0
 62
   255
  6
CONTINUOUS
  0
LAYER
  2
DEFPOINTS
 70
     0
 62
     7
  6
CONTINUOUS
  0
ENDTAB
  0
TABLE
  2
STYLE
 70
     1
  0
STYLE
  2
STANDARD
 70
     0
 40
0.0
 41
0.8
 50
0.0
 71
     0
 42
0.2
  3
txt
  4

  0
ENDTAB
  0
TABLE
  2
VIEW
 70
     2
  0
ENDTAB
  0
TABLE
  2
UCS
 70
     0
  0
ENDTAB
  0
TABLE
  2
APPID
 70
    10
  0
APPID
  2
ACAD
 70
     0
  0
APPID
  2
ACAD_MLEADERVER
 70
     0
  0
APPID
  2
ACAD_EXEMPT_FROM_CAD_STANDARDS
 70
     0
  0
APPID
  2
ACAD_NAV_VCDISPLAY
 70
     0
  0
APPID
  2
ACAECLAYERSTANDARD
 70
     0
  0
APPID
  2
ACCMTRANSPARENCY
 70
     0
  0
APPID
  2
ACAD_DSTYLE_DIMJAG
 70
     0
  0
APPID
  2
ACAD_DSTYLE_DIMTALN
 70
     0
  0
APPID
  2
ACDBATTR
 70
     0
  0
APPID
  2
DCO15
 70
     0
  0
ENDTAB
  0
TABLE
  2
DIMSTYLE
 70
     1
  0
DIMSTYLE
  2
STANDARD
 70
     0
  3

  4

  5

  6

  7

 40
1.0
 41
0.1875
 42
0.0625
 43
0.38
 44
0.125
 45
0.0
 46
0.0
 47
0.01
 48
0.01
140
0.15625
141
0.09
142
0.0
143
25.3999999999999986
144
1.0
145
0.0
146
1.0
147
0.09
 71
     1
 72
     0
 73
     1
 74
     1
 75
     0
 76
     0
 77
     0
 78
     4
170
     0
171
     2
172
     0
173
     0
174
     0
175
     0
176
     0
177
     0
178
     0
  0
ENDTAB
  0
ENDSEC
  0
SECTION
  2
BLOCKS
  0
BLOCK
  8
0
  2
$MODEL_SPACE
 70
     0
 10
0.0
 20
0.0
 30
0.0
  3
$MODEL_SPACE
  1

  0
ENDBLK
  5
21
  8
0
  0
BLOCK
 67
     1
  8
0
  2
$PAPER_SPACE
 70
     0
 10
0.0
 20
0.0
 30
0.0
  3
$PAPER_SPACE
  1

  0
ENDBLK
  5
1D
 67
     1
  8
0
  0
BLOCK
  8
0
  2
_FILLED
 70
     0
 10
0.0
 20
0.0
 30
0.0
  3
_FILLED
  1

  0
SOLID
  5
13A7D
  8
0
  6
BYBLOCK
 62
     0
 10
0.0
 20
0.0
 30
0.0
 11
-1.0
 21
0.1666666667
 31
0.0
 12
-1.0
 22
-0.1666666667
 32
0.0
 13
-1.0
 23
-0.1666666667
 33
0.0
  0
ENDBLK
  5
13A7E
  8
0
  6
BYBLOCK
 62
     0
  0
ENDSEC
  0
SECTION
  2
ENTITIES
  0
ATTDEF
  5
12CA7
  8
DEFPOINTS
 10
4336.4587659812768834
 20
220.884260234528
 30
0.0
 40
0.001
  1
K-21762T-BNS
  3

  2
MODELNUMBER
 70
     0
1001
ACDBATTR
1070
     0
1070
     1
  0
ATTDEF
  5
12CA8
  8
DEFPOINTS
 10
4336.4587659812768834
 20
220.8825935678613064
 30
0.0
 40
0.001
  1
REVE
  3

  2
TRADENAME
 70
     0
1001
ACDBATTR
1070
     0
1070
     1
  0
ATTDEF
  5
12CA9
  8
DEFPOINTS
 10
4336.4587659812768834
 20
220.8809269011946128
 30
0.0
 40
0.001
  1
TOILET
  3

  2
PRODUCT
 70
     0
1001
ACDBATTR
1070
     0
1070
     1
  0
LINE
  5
13AC0
  8
0
 10
4336.4586488590312001
 20
220.8808839689525882
 30
0.0
 11
4319.4165340076324355
 21
220.8808839689525882
 31
0.0
  0
LINE
  5
13AC1
  8
0
 10
4336.4586488590312001
 20
236.2352033589525888
 30
0.0
 11
4336.4586488590312001
 21
220.8808839689525882
 31
0.0
  0
LINE
  5
13AC2
  8
0
 10
4314.9755776276306278
 20
236.2352033589525888
 30
0.0
 11
4336.4586488590312001
 21
236.2352033589525888
 31
0.0
  0
LINE
  5
13AC3
  8
0
 10
4314.6887126711317251
 20
236.4335242386025868
 30
0.0
 11
4332.2693516859508236
 21
236.4335242386025868
 31
0.0
  0
LINE
  5
13AC4
  8
0
 10
4316.2658784419227231
 20
236.2365647402525894
 30
0.0
 11
4316.8659189482923466
 21
236.2365647402525894
 31
0.0
  0
ARC
  5
13AC5
  8
0
 10
4316.0433402603948707
 20
236.4520650784232032
 30
0.0
 40
0.0766320921563402
 50
193.870974435630302
 51
207.6530627870268972
  0
ARC
  5
13AC6
  8
0
 10
4316.2777876328482307
 20
236.5730900313681104
 30
0.0
 40
0.3404730028665794
 50
207.3821032439176122
 51
233.3200037956594031
  0
ARC
  5
13AC7
  8
0
 10
4316.2672414701282833
 20
236.5603973969083995
 30
0.0
 40
0.323835525170751
 50
233.4580575525176869
 51
269.7588405595989229
  0
ARC
  5
13AC8
  8
0
 10
4316.880581991010331
 20
236.5499055604298064
 30
0.0
 40
0.3074932984147829
 50
306.4495242506881141
 51
337.7710401500419266
  0
ARC
  5
13AC9
  8
0
 10
4316.8626098900722354
 20
236.5745135523717977
 30
0.0
 40
0.3379650122114959
 50
270.5609991943805994
 51
306.4217967991540945
  0
ARC
  5
13ACA
  8
0
 10
4316.2536283949220888
 20
236.5095957855538984
 30
0.0
 40
0.3065718946614831
 50
318.1152962494771259
 51
345.6546733532753137
  0
ARC
  5
13ACB
  8
0
 10
4316.3152646836852
 20
236.4614477837930053
 30
0.0
 40
0.2286006292712045
 50
280.3471258846789169
 51
316.785604076386619
  0
ARC
  5
13ACC
  8
0
 10
4314.6888507242110791
 20
236.4730260096135908
 30
0.0
 40
0.039502012248196
 50
177.5050759429502989
 51
269.7997602035956106
  0
LINE
  5
13ACD
  8
0
 10
4314.6493861566314081
 20
236.4747455669526062
 30
0.0
 11
4314.7158260541318668
 21
237.950831052252596
 31
0.0
  0
ARC
  5
13ACE
  8
0
 10
4314.9518069905943776
 20
237.9401943077945987
 30
0.0
 40
0.236220538283073
 50
91.6303388325030284
 51
177.4191630076325055
  0
ARC
  5
13ACF
  8
0
 10
4327.2892855619438706
 20
-195.9028932323058996
 30
0.0
 40
434.2546970848039223
 50
91.4686863303056157
 51
91.6289191809909482
  0
ARC
  5
13AD0
  8
0
 10
4327.2634857770071903
 20
-194.6141084303737046
 30
0.0
 40
432.9656744682259841
 50
91.0637105495226535
 51
91.4696445591187057
  0
ARC
  5
13AD1
  8
0
 10
4327.2740960528426513
 20
-194.8438115828917887
 30
0.0
 40
433.1955350537322147
 50
90.6556614399389531
 51
91.0645496523797249
  0
ARC
  5
13AD2
  8
0
 10
4327.2726353676162034
 20
-194.733213700401592
 30
0.0
 40
433.0849276978304943
 50
90.0105701510448171
 51
90.6556356426027037
  0
ARC
  5
13AD3
  8
0
 10
4327.272689204798553
 20
-194.6995687494768958
 30
0.0
 40
433.0512827574145831
 50
89.4157088995745255
 51
90.0105780952982855
  0
ARC
  5
13AD4
  8
0
 10
4331.6841078436900716
 20
237.8598004213505135
 30
0.0
 40
0.4694194521499037
 50
54.8542444192617396
 51
89.4291678843533475
  0
ARC
  5
13AD5
  8
0
 10
4331.1614698460562067
 20
237.1125390293848056
 30
0.0
 40
1.3813116489554671
 50
46.4931297429846566
 51
54.9708558539659009
  0
ARC
  5
13AD6
  8
0
 10
4332.0990763854970282
 20
238.0877000427657038
 30
0.0
 40
0.0298433960842853
 50
21.6742292694097713
 51
63.4361940619917988
  0
ARC
  5
13AD7
  8
0
 10
4332.0736042287016971
 20
238.0814282683359124
 30
0.0
 40
0.055945600169521
 50
350.9723542627344273
 51
18.0060941510208607
  0
ARC
  5
13AD8
  8
0
 10
4332.3175900854494103
 20
238.0469823174138071
 30
0.0
 40
0.1904706430131998
 50
172.2553653409295009
 51
179.6525929454201105
  0
LINE
  5
13AD9
  8
0
 10
4332.1271229437306829
 20
238.0481372094525909
 30
0.0
 11
4332.1269750847723117
 21
238.0297017747884922
 31
0.0
  0
ARC
  5
13ADA
  8
0
 10
4330.9312654856339577
 20
237.1001946284740995
 30
0.0
 40
1.5144982603223369
 50
4.0920991535142823
 51
37.8603747096573784
  0
ARC
  5
13ADB
  8
0
 10
4332.0384332217763586
 20
237.8297772237530125
 30
0.0
 40
0.2045217762836232
 50
29.7672097618470595
 51
57.8241572482340587
  0
ARC
  5
13ADC
  8
0
 10
4330.5026043239222417
 20
236.9620242675703992
 30
0.0
 40
1.968538982596125
 50
10.86508259603327
 51
29.4979398150800307
  0
ARC
  5
13ADD
  8
0
 10
4332.049211161731364
 20
237.2588788284525947
 30
0.0
 40
0.3937007874001666
 50
354.386037424008407
 51
10.8647390052016206
  0
ARC
  5
13ADE
  8
0
 10
4332.0492100474311883
 20
237.2588704998526055
 30
0.0
 40
0.3956692912999999
 50
352.8520630753350247
 51
23.304613094325429
  0
ARC
  5
13ADF
  8
0
 10
4332.0492074820322159
 20
237.2588513262525964
 30
0.0
 40
0.5019685038999988
 50
324.7007017488168117
 51
54.5614141078643726
  0
LINE
  5
13AE0
  8
0
 10
4332.4419027335306964
 20
237.2082690740525948
 30
0.0
 11
4332.4577791896308554
 21
236.9863508096526061
 31
0.0
  0
ARC
  5
13AE1
  8
0
 10
4331.4196818812233687
 20
236.9120833473099879
 30
0.0
 40
1.0407505357612949
 50
358.3612348990550913
 51
4.0920774836355358
  0
ARC
  5
13AE2
  8
0
 10
4334.6474477541432861
 20
236.8090893261660881
 30
0.0
 40
2.1886664668924549
 50
178.0825799940716934
 51
183.1138049335930873
  0
LINE
  5
13AE3
  8
0
 10
4332.4620126092313512
 20
236.6902022760525881
 30
0.0
 11
4332.4664398380309649
 21
236.6249989811526007
 31
0.0
  0
ARC
  5
13AE4
  8
0
 10
4332.3319430802039278
 20
236.6155609097907018
 30
0.0
 40
0.1348275011161479
 50
341.7976889462195231
 51
4.014049535130745
  0
ARC
  5
13AE5
  8
0
 10
4332.2437060733318503
 20
236.6683484582526944
 30
0.0
 40
0.236220472400013
 50
303.1530954150812249
 51
336.3117189567237233
  0
ARC
  5
13AE6
  8
0
 10
4332.2437060733318503
 20
236.6683484582526944
 30
0.0
 40
0.2362204724000291
 50
276.2326829512768995
 51
303.1530954150812249
  0
LINE
  5
13AE7
  8
0
 10
4331.6387171904971183
 20
236.4335242386025868
 30
0.0
 11
4331.6317725145281656
 21
236.2352033589525888
 31
0.0
  0
ARC
  5
13AE8
  8
0
 10
4331.5333536398611614
 20
233.6509269715838002
 30
0.0
 40
3.4410775792545358
 50
126.0366107160468943
 51
131.3222406118329957
  0
ARC
  5
13AE9
  8
0
 10
4317.693705668196344
 20
204.3751737488325944
 30
0.0
 40
32.05835467322553
 50
88.2710228544062403
 51
89.9707291996411982
  0
ARC
  5
13AEA
  8
0
 10
5799.8470985502253825
 20
49072.5163967161934124
 30
0.0
 40
48858.5542954095799359
 50
268.26276646681481
 51
268.2662404395446174
  0
ARC
  5
13AEB
  8
0
 10
2843.3969185957262198
 20
-48599.8579668102611322
 30
0.0
 40
48858.5542960515595041
 50
88.2626003720851031
 51
88.2662404395446174
  0
ARC
  5
13AEC
  8
0
 10
4314.9755776276306278
 20
236.0382033589528135
 30
0.0
 40
0.1969999999998517
 50
90.0
 51
197.0447387164443001
  0
LINE
  5
13AED
  8
0
 10
4314.7872306222316183
 20
235.9804590470527046
 30
0.0
 11
4319.4165340076324355
 21
220.8808839689525882
 31
0.0
  0
LINE
  5
13AEE
  8
0
 10
4333.2638769117311313
 20
236.5697706893525947
 30
0.0
 11
4332.4583745038462439
 21
236.5697706893525947
 31
0.0
  0
ARC
  5
13AEF
  8
0
 10
4333.2638864895070583
 20
236.5107154277845041
 30
0.0
 40
0.0590552623447415
 50
1.9945284335706639
 51
90.0092924170133841
  0
LINE
  5
13AF0
  8
0
 10
4333.3229059735313058
 20
236.5127707905525938
 30
0.0
 11
4333.3325720284192357
 21
236.2352033589525888
 31
0.0
  0
CIRCLE
  5
13AF1
  8
0
 10
4325.5645897990998492
 20
222.2588426883891941
 30
0.0
 40
0.5437337814365986
  0
LINE
  5
13AF2
  8
0
 10
4336.0098301333300697
 20
261.4632921472526164
 30
0.0
 11
4336.0098301334046482
 21
260.337719080152624
 31
0.0
  0
LINE
  5
13AF3
  8
0
 10
4336.0098301336565783
 20
256.463701682352621
 30
0.0
 11
4336.0098301337311568
 21
255.3381293342526135
 31
0.0
  0
LINE
  5
13AF4
  8
0
 10
4336.4586488585300685
 20
261.5109469610525821
 30
0.0
 11
4336.4586488585300685
 21
255.2904745201525998
 31
0.0
  0
LINE
  5
13AF5
  8
0
 10
4336.4586488580307559
 20
255.2904745201525998
 30
0.0
 11
4336.0484045378307201
 21
255.2987672966526134
 31
0.0
  0
LINE
  5
13AF6
  8
0
 10
4336.4586488580307559
 20
261.5109469610525821
 30
0.0
 11
4336.0484043517308237
 21
261.5026541810526055
 31
0.0
  0
ARC
  5
13AF7
  8
0
 10
4336.049200212631149
 20
261.4632921472526164
 30
0.0
 40
0.0393700787
 50
91.1583053964788377
 51
180.0
  0
ARC
  5
13AF8
  8
0
 10
4336.049200212548385
 20
255.3381293343001914
 30
0.0
 40
0.0393700788166243
 50
180.0000000693032973
 51
268.8419655605659955
  0
ARC
  5
13AF9
  8
0
 10
4132.3814253942036885
 20
258.4007103679530246
 30
0.0
 40
203.6376173976275084
 50
359.454992168708884
 51
0.5450078387755334
  0
ENDSEC
  0
EOF
