  0
SECTION
  2
HEADER
  9
$ACADVER
  1
AC1009
  9
$INSBASE
 10
4192.7928855380996538
 20
113.9156279924895045
 30
0.0
  9
$EXTMIN
 10
4182.2201680685611791
 20
105.0518062376957005
 30
-0.0015258207003583
  9
$EXTMAX
 10
4203.3852449480091309
 20
122.7843216251228995
 30
0.0000000349246037
  9
$LIMMIN
 10
0.0
 20
0.0
  9
$LIMMAX
 10
11.6929133858000007
 20
8.2677165353999982
  9
$ORTHOMODE
 70
     1
  9
$REGENMODE
 70
     1
  9
$FILLMODE
 70
     1
  9
$QTEXTMODE
 70
     0
  9
$MIRRTEXT
 70
     0
  9
$DRAGMODE
 70
     2
  9
$LTSCALE
 40
0.6431102362
  9
$OSMODE
 70
  2039
  9
$ATTMODE
 70
     1
  9
$TEXTSIZE
 40
0.2
  9
$TRACEWID
 40
0.05
  9
$TEXTSTYLE
  7
STANDARD
  9
$CLAYER
  8
0
  9
$CELTYPE
  6
BYLAYER
  9
$CECOLOR
 62
   256
  9
$DIMSCALE
 40
1.0
  9
$DIMASZ
 40
0.1875
  9
$DIMEXO
 40
0.0625
  9
$DIMDLI
 40
0.4443307087
  9
$DIMRND
 40
0.0
  9
$DIMDLE
 40
0.0
  9
$DIMEXE
 40
0.125
  9
$DIMTP
 40
0.01
  9
$DIMTM
 40
0.01
  9
$DIMTXT
 40
2.0
  9
$DIMCEN
 40
0.1052362205
  9
$DIMTSZ
 40
0.0
  9
$DIMTOL
 70
     1
  9
$DIMLIM
 70
     0
  9
$DIMTIH
 70
     1
  9
$DIMTOH
 70
     1
  9
$DIMSE1
 70
     0
  9
$DIMSE2
 70
     0
  9
$DIMTAD
 70
     0
  9
$DIMZIN
 70
     0
  9
$DIMBLK
  1

  9
$DIMASO
 70
     1
  9
$DIMSHO
 70
     1
  9
$DIMPOST
  1
\X
  9
$DIMAPOST
  1

  9
$DIMALT
 70
     1
  9
$DIMALTD
 70
     2
  9
$DIMALTF
 40
25.3999999999999986
  9
$DIMLFAC
 40
1.0
  9
$DIMTOFL
 70
     0
  9
$DIMTVP
 40
0.0
  9
$DIMTIX
 70
     0
  9
$DIMSOXD
 70
     0
  9
$DIMSAH
 70
     0
  9
$DIMBLK1
  1

  9
$DIMBLK2
  1

  9
$DIMSTYLE
  2
STANDARD
  9
$DIMCLRD
 70
     0
  9
$DIMCLRE
 70
     0
  9
$DIMCLRT
 70
     0
  9
$DIMTFAC
 40
1.0
  9
$DIMGAP
 40
0.09
  9
$LUNITS
 70
     2
  9
$LUPREC
 70
     4
  9
$SKETCHINC
 40
0.1
  9
$FILLETRAD
 40
0.0
  9
$AUNITS
 70
     0
  9
$AUPREC
 70
     0
  9
$MENU
  1
.
  9
$ELEVATION
 40
0.0
  9
$PELEVATION
 40
0.0
  9
$THICKNESS
 40
0.0
  9
$LIMCHECK
 70
     0
  9
$BLIPMODE
 70
     0
  9
$CHAMFERA
 40
0.0
  9
$CHAMFERB
 40
0.0
  9
$SKPOLY
 70
     0
  9
$TDCREATE
 40
2458060.468368056230247
  9
$TDUPDATE
 40
2459353.447384259197861
  9
$TDINDWG
 40
0.3143357639
  9
$TDUSRTIMER
 40
0.3143357639
  9
$USRTIMER
 70
     1
  9
$ANGBASE
 50
0.0
  9
$ANGDIR
 70
     0
  9
$PDMODE
 70
     0
  9
$PDSIZE
 40
0.3125
  9
$PLINEWID
 40
0.0
  9
$COORDS
 70
     1
  9
$SPLFRAME
 70
     0
  9
$SPLINETYPE
 70
     6
  9
$SPLINESEGS
 70
     8
  9
$ATTDIA
 70
     1
  9
$ATTREQ
 70
     1
  9
$HANDLING
 70
     1
  9
$HANDSEED
  5
9943
  9
$SURFTAB1
 70
     6
  9
$SURFTAB2
 70
     6
  9
$SURFTYPE
 70
     6
  9
$SURFU
 70
     6
  9
$SURFV
 70
     6
  9
$UCSNAME
  2

  9
$UCSORG
 10
0.0
 20
0.0
 30
0.0
  9
$UCSXDIR
 10
1.0
 20
0.0
 30
0.0
  9
$UCSYDIR
 10
0.0
 20
1.0
 30
0.0
  9
$PUCSNAME
  2

  9
$PUCSORG
 10
0.0
 20
0.0
 30
0.0
  9
$PUCSXDIR
 10
1.0
 20
0.0
 30
0.0
  9
$PUCSYDIR
 10
0.0
 20
1.0
 30
0.0
  9
$USERI1
 70
     0
  9
$USERI2
 70
     0
  9
$USERI3
 70
     0
  9
$USERI4
 70
     0
  9
$USERI5
 70
     0
  9
$USERR1
 40
0.0
  9
$USERR2
 40
0.0
  9
$USERR3
 40
0.0
  9
$USERR4
 40
0.0
  9
$USERR5
 40
0.0
  9
$WORLDVIEW
 70
     1
  9
$SHADEDGE
 70
     3
  9
$SHADEDIF
 70
    70
  9
$TILEMODE
 70
     1
  9
$MAXACTVP
 70
    64
  9
$PLIMCHECK
 70
     0
  9
$PEXTMIN
 10
1.0000000000000000E+20
 20
1.0000000000000000E+20
 30
1.0000000000000000E+20
  9
$PEXTMAX
 10
-1.0000000000000000E+20
 20
-1.0000000000000000E+20
 30
-1.0000000000000000E+20
  9
$PLIMMIN
 10
0.0
 20
0.0
  9
$PLIMMAX
 10
12.0
 20
9.0
  9
$UNITMODE
 70
     0
  9
$VISRETAIN
 70
     1
  9
$PLINEGEN
 70
     0
  9
$PSLTSCALE
 70
     1
  0
ENDSEC
  0
SECTION
  2
TABLES
  0
TABLE
  2
VPORT
 70
     1
  0
VPORT
  2
*ACTIVE
 70
     0
 10
0.0
 20
0.0
 11
1.0
 21
1.0
 12
-72.203641147964845
 22
9.6140516328253227
 13
0.0
 23
0.0
 14
1.0
 24
1.0
 15
0.0
 25
0.0
 16
0.0
 26
0.0
 36
122.0237731519760018
 17
4265.00634765625
 27
104.3040122985839986
 37
0.0
 40
17.8800813961991416
 41
2.6486111111111108
 42
50.0
 43
0.0
 44
0.0
 50
0.0
 51
0.0
 71
     0
 72
   100
 73
     1
 74
     1
 75
     0
 76
     0
 77
     0
 78
     0
  0
ENDTAB
  0
TABLE
  2
LTYPE
 70
     2
  0
LTYPE
  2
CONTINUOUS
 70
     0
  3
Solid line
 72
    65
 73
     0
 40
0.0
  0
LTYPE
  2
PHANTOM2
 70
     0
  3
___ _ _ ___ _ _ ___ _ _ ___ _ _
 72
    65
 73
     6
 40
1.25
 49
0.625
 49
-0.125
 49
0.125
 49
-0.125
 49
0.125
 49
-0.125
  0
ENDTAB
  0
TABLE
  2
LAYER
 70
     2
  0
LAYER
  2
0
 70
     0
 62
   255
  6
CONTINUOUS
  0
LAYER
  2
DEFPOINTS
 70
     0
 62
     7
  6
CONTINUOUS
  0
ENDTAB
  0
TABLE
  2
STYLE
 70
     1
  0
STYLE
  2
STANDARD
 70
     0
 40
0.0
 41
0.8
 50
0.0
 71
     0
 42
0.2
  3
txt
  4

  0
ENDTAB
  0
TABLE
  2
VIEW
 70
     0
  0
ENDTAB
  0
TABLE
  2
UCS
 70
     0
  0
ENDTAB
  0
TABLE
  2
APPID
 70
     9
  0
APPID
  2
ACAD
 70
     0
  0
APPID
  2
ACAD_MLEADERVER
 70
     0
  0
APPID
  2
ACAD_EXEMPT_FROM_CAD_STANDARDS
 70
     0
  0
APPID
  2
ACAD_NAV_VCDISPLAY
 70
     0
  0
APPID
  2
ACAECLAYERSTANDARD
 70
     0
  0
APPID
  2
ACCMTRANSPARENCY
 70
     0
  0
APPID
  2
ACAD_DSTYLE_DIMJAG
 70
     0
  0
APPID
  2
ACAD_DSTYLE_DIMTALN
 70
     0
  0
APPID
  2
ACDBATTR
 70
     0
  0
ENDTAB
  0
TABLE
  2
DIMSTYLE
 70
     1
  0
DIMSTYLE
  2
STANDARD
 70
     0
  3

  4

  5

  6

  7

 40
1.0
 41
0.1875
 42
0.0625
 43
0.38
 44
0.125
 45
0.0
 46
0.0
 47
0.01
 48
0.01
140
0.15625
141
0.09
142
0.0
143
25.3999999999999986
144
1.0
145
0.0
146
1.0
147
0.09
 71
     1
 72
     0
 73
     1
 74
     1
 75
     0
 76
     0
 77
     0
 78
     4
170
     0
171
     2
172
     0
173
     0
174
     0
175
     0
176
     0
177
     0
178
     0
  0
ENDTAB
  0
ENDSEC
  0
SECTION
  2
BLOCKS
  0
BLOCK
  8
0
  2
$MODEL_SPACE
 70
     0
 10
0.0
 20
0.0
 30
0.0
  3
$MODEL_SPACE
  1

  0
ENDBLK
  5
21
  8
0
  0
BLOCK
 67
     1
  8
0
  2
$PAPER_SPACE
 70
     0
 10
0.0
 20
0.0
 30
0.0
  3
$PAPER_SPACE
  1

  0
ENDBLK
  5
1D
 67
     1
  8
0
  0
BLOCK
  8
0
  2
_FILLED
 70
     0
 10
0.0
 20
0.0
 30
0.0
  3
_FILLED
  1

  0
SOLID
  5
7BD7
  8
0
  6
BYBLOCK
 62
     0
 10
0.0
 20
0.0
 30
0.0
 11
-1.0
 21
0.1666666667
 31
0.0
 12
-1.0
 22
-0.1666666667
 32
0.0
 13
-1.0
 23
-0.1666666667
 33
0.0
  0
ENDBLK
  5
7BD8
  8
0
  6
BYBLOCK
 62
     0
  0
BLOCK
  8
0
  2
A$C479F78F5
 70
     0
 10
0.0
 20
0.0
 30
0.0
  3
A$C479F78F5
  1

  0
ARC
  5
7BDB
  8
0
 10
-0.0124999521940872
 20
-0.0175295029735434
 30
0.0
 40
0.0215297997982781
 50
54.5080612131664708
 51
125.4919617052249947
  0
ARC
  5
7BDC
  8
0
 10
-0.0124999592136073
 20
0.0175679683464605
 30
0.0
 40
0.0215611338329891
 50
234.5674146666497961
 51
305.4326082517482064
  0
ENDBLK
  5
7BDD
  8
0
  0
ENDSEC
  0
SECTION
  2
ENTITIES
  0
ATTDEF
  5
9370
  8
DEFPOINTS
 10
4192.7932974593068138
 20
113.919665213025695
 30
0.0
 40
0.001
  1
K-21780T
  3

  2
MODELNUMBER
 70
     0
1001
ACDBATTR
1070
     0
1070
     1
  0
ATTDEF
  5
9371
  8
DEFPOINTS
 10
4192.7932974593068138
 20
113.9179985463591009
 30
0.0
 40
0.001
  1
HARKEN
  3

  2
TRADENAME
 70
     0
1001
ACDBATTR
1070
     0
1070
     1
  0
ATTDEF
  5
9372
  8
DEFPOINTS
 10
4192.7932974593068138
 20
113.9163318796923932
 30
0.0
 40
0.001
  1
BATHROOM SINK 
  3

  2
PRODUCT
 70
     0
1001
ACDBATTR
1070
     0
1070
     1
  0
ARC
  5
97D3
  8
0
 10
4192.8094494461420254
 20
117.4529082080530031
 30
0.0
 40
12.3947183306350599
 50
250.589672861610012
 51
269.9234317166024084
  0
ARC
  5
97D4
  8
0
 10
4192.2049260860239883
 20
115.6566544437227009
 30
0.0
 40
10.4996908846556902
 50
218.1229573039269951
 51
250.4434980034008049
  0
ARC
  5
97D5
  8
0
 10
4190.2253939017009543
 20
113.9615221398893965
 30
0.0
 40
7.8967122045284208
 50
180.2933099856496142
 51
217.3141189501041879
  0
ARC
  5
97D6
  8
0
 10
4190.6187557665925851
 20
113.7610021730452985
 30
0.0
 40
8.2915163234727718
 50
127.3432074980307931
 51
178.8936470640379923
  0
ARC
  5
97D7
  8
0
 10
4192.5978148580943525
 20
111.3524327834255985
 30
0.0
 40
11.4073953982074396
 50
95.6327656879034436
 51
127.9076392864288039
  0
ARC
  5
97D8
  8
0
 10
4193.1450423409469295
 20
105.1964740285645945
 30
0.0
 40
17.5874422795601184
 50
91.1473212940327642
 51
95.4384895501241175
  0
CIRCLE
  5
97D9
  8
0
 10
4192.7928855380996538
 20
113.9156279924895045
 30
0.0
 40
0.8860963651596717
  0
CIRCLE
  5
97DA
  8
0
 10
4192.7928855380996538
 20
113.915635817789493
 30
0.0
 40
1.333501483077014
  0
ARC
  5
97DB
  8
0
 10
4193.0043415798863862
 20
109.9767530974826997
 30
0.0
 40
9.3888466184149397
 50
91.2905273380272035
 51
114.2735200462479952
  0
ARC
  5
97DC
  8
0
 10
4191.8592149464748218
 20
112.6515989510648978
 30
0.0
 40
6.479960802740047
 50
114.7662093845870999
 51
147.3019583400474914
  0
ARC
  5
97DD
  8
0
 10
4189.6656539617133603
 20
114.0597342017695013
 30
0.0
 40
3.8733241425691118
 50
147.3019583400474914
 51
171.4545540533756878
  0
ARC
  5
97DE
  8
0
 10
4191.6614006370327843
 20
113.7598493243422979
 30
0.0
 40
5.891475705697018
 50
171.4545540533756878
 51
178.4529947439818898
  0
ARC
  5
97DF
  8
0
 10
4189.3964835653414411
 20
113.821017709630496
 30
0.0
 40
3.6257328003796201
 50
178.4529947439818898
 51
200.8304460222620094
  0
ARC
  5
97E0
  8
0
 10
4191.1715356028644237
 20
114.4963762822986979
 30
0.0
 40
5.524921821405707
 50
200.8304460222620094
 51
229.7213839061583087
  0
ARC
  5
97E1
  8
0
 10
4192.1425432236519555
 20
115.6422158343266062
 30
0.0
 40
7.0268552682074041
 50
229.7213839061583087
 51
252.091146956382488
  0
ARC
  5
97E2
  8
0
 10
4192.967307036825332
 20
118.2793159694682998
 30
0.0
 40
9.7898324486621089
 50
252.2439958428300031
 51
268.9791301766102265
  0
ARC
  5
97E3
  8
0
 10
4192.8314376527769127
 20
117.2487790870226974
 30
0.0
 40
10.0402617138522796
 50
240.3837776448434909
 51
269.7799978772255827
  0
ARC
  5
97E4
  8
0
 10
4191.4614997751614283
 20
114.7511451361283008
 30
0.0
 40
7.1920547188021757
 50
207.3118545329315054
 51
240.0385185392906067
  0
ARC
  5
97E5
  8
0
 10
4189.7128979960052675
 20
113.8481662431127006
 30
0.0
 40
5.2240661356794602
 50
179.2152019031449015
 51
207.3118545329315054
  0
ARC
  5
97E6
  8
0
 10
4190.3054141999746207
 20
113.8400498569452992
 30
0.0
 40
5.8166379268510688
 50
152.6439800819655943
 51
179.2152019031449015
  0
ARC
  5
97E7
  8
0
 10
4191.0856260162699982
 20
113.4363859647093022
 30
0.0
 40
6.6950882761482644
 50
118.885193366675793
 51
152.6439800819655943
  0
ARC
  5
97E8
  8
0
 10
4192.5439757077301692
 20
111.3646618560160988
 30
0.0
 40
9.2176703554758088
 50
103.616322627119601
 51
120.6020012999013034
  0
ARC
  5
97E9
  8
0
 10
4192.979215345004377
 20
109.397328667190493
 30
0.0
 40
11.2322450306069008
 50
90.9505135628800758
 51
103.4115634670472019
  0
ARC
  5
97EA
  8
0
 10
4193.1219881554588937
 20
107.4415131909477026
 30
0.0
 40
13.0223449094623493
 50
91.4481415515034683
 51
98.1127584320346102
  0
ARC
  5
97EB
  8
0
 10
4192.7289675160145634
 20
110.7820668167040026
 30
0.0
 40
9.6601098524419751
 50
98.6011202676170058
 51
111.9445065561288999
  0
ARC
  5
97EC
  8
0
 10
4192.2713242612471731
 20
111.9179398159172933
 30
0.0
 40
8.4355099916805205
 50
111.9445065561288999
 51
125.4943294579107942
  0
ARC
  5
97ED
  8
0
 10
4191.4958358815738393
 20
113.0053620571487016
 30
0.0
 40
7.099894269352208
 50
125.4943294579107942
 51
148.2567896391313127
  0
ARC
  5
97EE
  8
0
 10
4189.9769135035448926
 20
113.9450508420744939
 30
0.0
 40
5.3137979105309396
 50
148.2567896391313127
 51
169.5602535565139135
  0
ARC
  5
97EF
  8
0
 10
4190.3942474499162927
 20
113.8681564324014062
 30
0.0
 40
5.7381566891983491
 50
169.5602535565139135
 51
179.4861949044293112
  0
ARC
  5
97F0
  8
0
 10
4189.7103371151451938
 20
113.8742896247186991
 30
0.0
 40
5.0542188542643363
 50
179.4861949044293112
 51
199.8165940923435926
  0
ARC
  5
97F1
  8
0
 10
4190.8262187139780508
 20
114.2763968316843943
 30
0.0
 40
6.2403393997854408
 50
199.8165940923429105
 51
220.984964192086494
  0
ARC
  5
97F2
  8
0
 10
4191.6035912276884119
 20
114.9517983727506021
 30
0.0
 40
7.2701331979542703
 50
220.984964192086494
 51
240.0553036799493043
  0
ARC
  5
97F3
  8
0
 10
4192.6936073728084011
 20
116.8439772369253973
 30
0.0
 40
9.4538172526311648
 50
240.0553036799493043
 51
257.8728029014641265
  0
ARC
  5
97F4
  8
0
 10
4192.7372936815581852
 20
117.0472847645142025
 30
0.0
 40
9.661765429700587
 50
257.8728029014641265
 51
266.2849888508446838
  0
ARC
  5
97F5
  8
0
 10
4192.8969020302110948
 20
119.8877045750708987
 30
0.0
 40
12.5065827509522602
 50
266.3984596207253048
 51
269.5234689742857768
  0
ARC
  5
97F6
  8
0
 10
4192.5410255393071566
 20
107.1576801131833037
 30
0.0
 40
0.3559739641011271
 50
94.0969548731863767
 51
120.5246110021982986
  0
ARC
  5
97F7
  8
0
 10
4192.7513513754092855
 20
105.1805669898611058
 30
0.0
 40
2.344063452102874
 50
91.3748395217327953
 51
95.7723810584814714
  0
ARC
  5
97F8
  8
0
 10
4192.7929632162913549
 20
104.0150885031686983
 30
0.0
 40
3.5102313106405081
 50
90.0012679029004943
 51
91.5974192554007089
  0
ARC
  5
97F9
  8
0
 10
4192.7929972123392872
 20
109.5114806723577061
 30
0.0
 40
2.1261709131799078
 50
268.5184672123003793
 51
269.9969906170452987
  0
ARC
  5
97FA
  8
0
 10
4192.7897746921871658
 20
109.3868829224005026
 30
0.0
 40
2.0015314975421248
 50
265.3757608296892272
 51
268.5184672123003793
  0
ARC
  5
97FB
  8
0
 10
4192.7378821199163212
 20
108.7453142693989037
 30
0.0
 40
1.357867629074101
 50
257.6816482526198797
 51
265.3757608296892272
  0
ARC
  5
97FC
  8
0
 10
4192.4887944578749739
 20
107.6046505374082045
 30
0.0
 40
0.1903238770632585
 50
227.5040235761194936
 51
257.6816482526198797
  0
ARC
  5
97FD
  8
0
 10
4193.0119038153452493
 20
109.6785151237554032
 30
0.0
 40
12.9259110135587694
 50
90.9708734227609739
 51
109.3731441232096984
  0
ARC
  5
97FE
  8
0
 10
4192.2764555558806023
 20
111.963516077029297
 30
0.0
 40
10.5265242790143407
 50
109.7224355944423024
 51
132.7545896194706927
  0
ARC
  5
97FF
  8
0
 10
4190.7619787578878459
 20
113.6016045810461037
 30
0.0
 40
8.2956110313385967
 50
132.7545896194706927
 51
157.344739493379393
  0
ARC
  5
9800
  8
0
 10
4190.074339447458442
 20
113.8886196414876935
 30
0.0
 40
7.5504765024327209
 50
157.344739493379393
 51
173.0002641941316881
  0
ARC
  5
9801
  8
0
 10
4189.8232868020413662
 20
113.9194438552489004
 30
0.0
 40
7.2975386386696659
 50
173.0002641941316881
 51
179.9880046367663908
  0
ARC
  5
9802
  8
0
 10
4189.957700855051371
 20
113.9187810303618988
 30
0.0
 40
7.4319528546025948
 50
179.9831116129363124
 51
194.5281582545651986
  0
ARC
  5
9803
  8
0
 10
4190.5087519149219588
 20
114.0936182944539041
 30
0.0
 40
8.0093027447399887
 50
194.7500108575152069
 51
219.2324020701823883
  0
ARC
  5
9804
  8
0
 10
4191.7509458159684073
 20
115.1078972231186981
 30
0.0
 40
9.6129883226914448
 50
219.2324020701823883
 51
243.127160757741791
  0
ARC
  5
9805
  8
0
 10
4192.7720175912409104
 20
117.1229064842342069
 30
0.0
 40
11.8719371695318507
 50
243.127160757741791
 51
260.6245666180391822
  0
ARC
  5
9806
  8
0
 10
4192.7385557457464529
 20
116.9202406130302023
 30
0.0
 40
11.66652745589864
 50
260.6245666180391822
 51
268.2863542422689989
  0
ARC
  5
9807
  8
0
 10
4192.918365441696551
 20
123.7422246675955932
 30
0.0
 40
18.4908535104956293
 50
268.3615802154508856
 51
269.6111848451769788
  0
ARC
  5
9808
  8
0
 10
4192.7347375519957495
 20
117.6950792149292937
 30
0.0
 40
12.63701205163518
 50
270.2636419063314861
 51
289.223253515385295
  0
ARC
  5
9809
  8
0
 10
4193.3808449901771382
 20
115.6566544437227009
 30
0.0
 40
10.4996908846556902
 50
289.5565019965991951
 51
321.877042696072408
  0
ARC
  5
980A
  8
0
 10
4195.3603771745001723
 20
113.9615221398893965
 30
0.0
 40
7.8967122045284208
 50
322.6858810498957837
 51
359.7066900143502721
  0
ARC
  5
980B
  8
0
 10
4194.9670153096067224
 20
113.7610021730452985
 30
0.0
 40
8.2915163234727718
 50
1.1063529359619451
 51
52.6567925019691572
  0
ARC
  5
980C
  8
0
 10
4192.9879562181058645
 20
111.3524327834255985
 30
0.0
 40
11.4073953982074396
 50
52.0923607135711677
 51
84.3672343120965564
  0
ARC
  5
980D
  8
0
 10
4192.4407287352532876
 20
105.1964740285648929
 30
0.0
 40
17.5874422795597489
 50
84.5615104498758825
 51
88.8526787059672358
  0
ARC
  5
980E
  8
0
 10
4192.5814294963138309
 20
109.9767530974827991
 30
0.0
 40
9.3888466184149166
 50
65.7264799537519906
 51
88.7094726619728249
  0
ARC
  5
980F
  8
0
 10
4193.7265561297253953
 20
112.6515989510648978
 30
0.0
 40
6.479960802740047
 50
32.6980416599525299
 51
65.2337906154129001
  0
ARC
  5
9810
  8
0
 10
4195.9201171144868567
 20
114.0597342017695013
 30
0.0
 40
3.8733241425691118
 50
8.5454459466242767
 51
32.6980416599525299
  0
ARC
  5
9811
  8
0
 10
4193.9243704391692518
 20
113.7598493243422979
 30
0.0
 40
5.891475705697018
 50
1.547005256018096
 51
8.5454459466242767
  0
ARC
  5
9812
  8
0
 10
4196.1892875108587759
 20
113.821017709630496
 30
0.0
 40
3.6257328003796201
 50
339.1695539777380191
 51
1.547005256018096
  0
ARC
  5
9813
  8
0
 10
4194.4142354733367029
 20
114.4963762822986979
 30
0.0
 40
5.524921821405707
 50
310.2786160938417197
 51
339.1695539777380191
  0
ARC
  5
9814
  8
0
 10
4193.4432278525491711
 20
115.6422158343266062
 30
0.0
 40
7.0268552682074041
 50
287.9088530436173983
 51
310.2786160938417197
  0
ARC
  5
9815
  8
0
 10
4192.6184640393757945
 20
118.2793159694682998
 30
0.0
 40
9.7898324486621267
 50
271.0208698233897735
 51
287.7560041571700253
  0
ARC
  5
9816
  8
0
 10
4192.737302495662334
 20
117.3127046877792026
 30
0.0
 40
10.1042661799254105
 50
270.3151826910985847
 51
299.5210417868248101
  0
ARC
  5
9817
  8
0
 10
4194.1242713010387888
 20
114.7511451361283008
 30
0.0
 40
7.1920547188021757
 50
299.9614814607094218
 51
332.688145467068523
  0
ARC
  5
9818
  8
0
 10
4195.8728730801958591
 20
113.8481662431127006
 30
0.0
 40
5.2240661356794602
 50
332.688145467068523
 51
0.7847980968550461
  0
ARC
  5
9819
  8
0
 10
4195.2803568762246869
 20
113.8400498569452992
 30
0.0
 40
5.8166379268510688
 50
0.7847980968550461
 51
27.3560199180344199
  0
ARC
  5
981A
  8
0
 10
4194.5001450599311283
 20
113.4363859647093022
 30
0.0
 40
6.6950882761482644
 50
27.3560199180344199
 51
61.1148066333241715
  0
ARC
  5
981B
  8
0
 10
4193.0417953684709573
 20
111.3646618560160988
 30
0.0
 40
9.2176703554758088
 50
59.3979987000986682
 51
76.3836773728803422
  0
ARC
  5
981C
  8
0
 10
4192.606555731197659
 20
109.3973286671906067
 30
0.0
 40
11.2322450306068191
 50
76.5884365329527554
 51
89.04948643711991
  0
ARC
  5
981D
  8
0
 10
4192.4637829207422328
 20
107.4415131909477026
 30
0.0
 40
13.0223449094624506
 50
81.8872415679653756
 51
88.5518584484965174
  0
ARC
  5
981E
  8
0
 10
4192.8568035601847441
 20
110.7820668167040026
 30
0.0
 40
9.6601098524419751
 50
68.0554934438711001
 51
81.3988797323829942
  0
ARC
  5
981F
  8
0
 10
4193.3144468149539534
 20
111.9179398159172933
 30
0.0
 40
8.4355099916805205
 50
54.5056705420891632
 51
68.0554934438711001
  0
ARC
  5
9820
  8
0
 10
4194.0899351946263778
 20
113.0053620571487016
 30
0.0
 40
7.099894269352208
 50
31.7432103608687015
 51
54.5056705420891632
  0
ARC
  5
9821
  8
0
 10
4195.6088575726553245
 20
113.9450508420744939
 30
0.0
 40
5.3137979105309396
 50
10.4397464434861096
 51
31.7432103608687015
  0
ARC
  5
9822
  8
0
 10
4195.1915236262839244
 20
113.8681564324014062
 30
0.0
 40
5.7381566891983491
 50
0.5138050955706412
 51
10.4397464434861096
  0
ARC
  5
9823
  8
0
 10
4195.8754339610550232
 20
113.8742896247186991
 30
0.0
 40
5.0542188542643363
 50
340.1834059076563221
 51
0.5138050955706412
  0
ARC
  5
9824
  8
0
 10
4194.7595523622230758
 20
114.2763968316843943
 30
0.0
 40
6.2403393997854408
 50
319.0150358079129091
 51
340.183405907657118
  0
ARC
  5
9825
  8
0
 10
4193.9821798485127147
 20
114.9517983727506021
 30
0.0
 40
7.2701331979542703
 50
299.9446963200508094
 51
319.0150358079129091
  0
ARC
  5
9826
  8
0
 10
4192.8921637033927254
 20
116.8439772369253973
 30
0.0
 40
9.4538172526311648
 50
282.1271970985358735
 51
299.9446963200508094
  0
ARC
  5
9827
  8
0
 10
4192.8484773946429414
 20
117.0472847645142025
 30
0.0
 40
9.661765429700587
 50
273.7150111491553162
 51
282.1271970985358735
  0
ARC
  5
9828
  8
0
 10
4192.6888690459900317
 20
119.8877045750715951
 30
0.0
 40
12.5065827509529601
 50
270.4765310257142232
 51
273.6015403792746952
  0
ARC
  5
9829
  8
0
 10
4193.0447455368930605
 20
107.1576801131833037
 30
0.0
 40
0.3559739641011271
 50
59.4753889978017014
 51
85.9030451268136233
  0
ARC
  5
982A
  8
0
 10
4192.8344197007927505
 20
105.1805669898611058
 30
0.0
 40
2.344063452102874
 50
84.2276189415185428
 51
88.6251604782672047
  0
ARC
  5
982B
  8
0
 10
4192.7928078599097717
 20
104.0150885031686983
 30
0.0
 40
3.5102313106405081
 50
88.4025807445993053
 51
89.9987320970995057
  0
ARC
  5
982C
  8
0
 10
4192.7927738638618393
 20
109.5114806723577061
 30
0.0
 40
2.1261709131799078
 50
270.0030093829547013
 51
271.481532787699507
  0
ARC
  5
982D
  8
0
 10
4192.7959963840130513
 20
109.3868829224005026
 30
0.0
 40
2.0015314975421248
 50
271.481532787699507
 51
274.6242391703107728
  0
ARC
  5
982E
  8
0
 10
4192.8478889562848053
 20
108.7453142693989037
 30
0.0
 40
1.357867629074101
 50
274.6242391703107728
 51
282.3183517473801203
  0
ARC
  5
982F
  8
0
 10
4193.0969766183252432
 20
107.6046505374082045
 30
0.0
 40
0.1903238770632585
 50
282.3183517473801203
 51
312.4959764238805064
  0
ARC
  5
9830
  8
0
 10
4192.5738672608558772
 20
109.6785151237554032
 30
0.0
 40
12.9259110135587498
 50
70.626855876790259
 51
89.0291265772390403
  0
ARC
  5
9831
  8
0
 10
4193.3093155203187052
 20
111.963516077029297
 30
0.0
 40
10.5265242790143407
 50
47.2454103805292291
 51
70.2775644055576834
  0
ARC
  5
9832
  8
0
 10
4194.8237923183132807
 20
113.6016045810461037
 30
0.0
 40
8.2956110313385967
 50
22.6552605066205999
 51
47.2454103805292291
  0
ARC
  5
9833
  8
0
 10
4195.5114316287426846
 20
113.8886196414876935
 30
0.0
 40
7.5504765024327209
 50
6.9997358058682426
 51
22.6552605066205999
  0
ARC
  5
9834
  8
0
 10
4195.7624842741597604
 20
113.9194438552489004
 30
0.0
 40
7.2975386386696659
 50
0.0119953632336124
 51
6.9997358058682426
  0
ARC
  5
9835
  8
0
 10
4195.6280702211497555
 20
113.9187810303618988
 30
0.0
 40
7.4319528546025948
 50
345.4718417454348014
 51
0.016888387063721
  0
ARC
  5
9836
  8
0
 10
4195.0770191612782583
 20
114.0936182944539041
 30
0.0
 40
8.0093027447399887
 50
320.7675979298169864
 51
345.2499891424848215
  0
ARC
  5
9837
  8
0
 10
4193.8348252602327193
 20
115.1078972231186981
 30
0.0
 40
9.6129883226914448
 50
296.8728392422581805
 51
320.7675979298176117
  0
ARC
  5
9838
  8
0
 10
4192.8137534849593067
 20
117.1229064842342069
 30
0.0
 40
11.8719371695318507
 50
279.3754333819608178
 51
296.8728392422581805
  0
ARC
  5
9839
  8
0
 10
4192.8472153304546737
 20
116.9202406130302023
 30
0.0
 40
11.66652745589864
 50
271.7136457577310011
 51
279.3754333819608178
  0
ARC
  5
983A
  8
0
 10
4192.6674056345027566
 20
123.7422246675962043
 30
0.0
 40
18.4908535104962901
 50
270.3888151548230212
 51
271.6384197845491144
  0
ENDSEC
  0
EOF
