  0
SECTION
  2
HEADER
  9
$ACADVER
  1
AC1009
  9
$INSBASE
 10
7020.7935236123321374
 20
325.4023977898380053
 30
0.0
  9
$EXTMIN
 10
7014.6222992013827024
 20
311.8650077867671939
 30
-0.0000000349181948
  9
$EXTMAX
 10
7026.8776055132357214
 20
325.4154976825346921
 30
0.0000000814935746
  9
$LIMMIN
 10
0.0
 20
0.0
  9
$LIMMAX
 10
11.6929133858000007
 20
8.2677165353999982
  9
$ORTHOMODE
 70
     0
  9
$REGENMODE
 70
     1
  9
$FILLMODE
 70
     1
  9
$QTEXTMODE
 70
     0
  9
$MIRRTEXT
 70
     0
  9
$DRAGMODE
 70
     2
  9
$LTSCALE
 40
0.6431102362
  9
$OSMODE
 70
  4095
  9
$ATTMODE
 70
     1
  9
$TEXTSIZE
 40
0.2
  9
$TRACEWID
 40
0.05
  9
$TEXTSTYLE
  7
STANDARD
  9
$CLAYER
  8
0
  9
$CELTYPE
  6
BYLAYER
  9
$CECOLOR
 62
   256
  9
$DIMSCALE
 40
1.0
  9
$DIMASZ
 40
0.1875
  9
$DIMEXO
 40
0.0625
  9
$DIMDLI
 40
0.4443307087
  9
$DIMRND
 40
0.0
  9
$DIMDLE
 40
0.0
  9
$DIMEXE
 40
0.125
  9
$DIMTP
 40
0.01
  9
$DIMTM
 40
0.01
  9
$DIMTXT
 40
2.0
  9
$DIMCEN
 40
0.1052362205
  9
$DIMTSZ
 40
0.0
  9
$DIMTOL
 70
     1
  9
$DIMLIM
 70
     0
  9
$DIMTIH
 70
     1
  9
$DIMTOH
 70
     1
  9
$DIMSE1
 70
     0
  9
$DIMSE2
 70
     0
  9
$DIMTAD
 70
     0
  9
$DIMZIN
 70
     0
  9
$DIMBLK
  1

  9
$DIMASO
 70
     1
  9
$DIMSHO
 70
     1
  9
$DIMPOST
  1
\X
  9
$DIMAPOST
  1

  9
$DIMALT
 70
     1
  9
$DIMALTD
 70
     2
  9
$DIMALTF
 40
25.3999999999999986
  9
$DIMLFAC
 40
1.0
  9
$DIMTOFL
 70
     0
  9
$DIMTVP
 40
0.0
  9
$DIMTIX
 70
     0
  9
$DIMSOXD
 70
     0
  9
$DIMSAH
 70
     0
  9
$DIMBLK1
  1

  9
$DIMBLK2
  1

  9
$DIMSTYLE
  2
STANDARD
  9
$DIMCLRD
 70
     0
  9
$DIMCLRE
 70
     0
  9
$DIMCLRT
 70
     0
  9
$DIMTFAC
 40
1.0
  9
$DIMGAP
 40
0.09
  9
$LUNITS
 70
     2
  9
$LUPREC
 70
     4
  9
$SKETCHINC
 40
0.1
  9
$FILLETRAD
 40
0.0
  9
$AUNITS
 70
     0
  9
$AUPREC
 70
     0
  9
$MENU
  1
.
  9
$ELEVATION
 40
0.0
  9
$PELEVATION
 40
0.0
  9
$THICKNESS
 40
0.0
  9
$LIMCHECK
 70
     0
  9
$BLIPMODE
 70
     0
  9
$CHAMFERA
 40
0.0
  9
$CHAMFERB
 40
0.0
  9
$SKPOLY
 70
     0
  9
$TDCREATE
 40
2458060.468368056230247
  9
$TDUPDATE
 40
2460494.6540277781896293
  9
$TDINDWG
 40
1.2461181713
  9
$TDUSRTIMER
 40
1.2461181713
  9
$USRTIMER
 70
     1
  9
$ANGBASE
 50
0.0
  9
$ANGDIR
 70
     0
  9
$PDMODE
 70
     0
  9
$PDSIZE
 40
0.3125
  9
$PLINEWID
 40
0.0
  9
$COORDS
 70
     1
  9
$SPLFRAME
 70
     0
  9
$SPLINETYPE
 70
     6
  9
$SPLINESEGS
 70
     8
  9
$ATTDIA
 70
     1
  9
$ATTREQ
 70
     1
  9
$HANDLING
 70
     1
  9
$HANDSEED
  5
31D3A
  9
$SURFTAB1
 70
     6
  9
$SURFTAB2
 70
     6
  9
$SURFTYPE
 70
     6
  9
$SURFU
 70
     6
  9
$SURFV
 70
     6
  9
$UCSNAME
  2

  9
$UCSORG
 10
0.0
 20
0.0
 30
0.0
  9
$UCSXDIR
 10
1.0
 20
0.0
 30
0.0
  9
$UCSYDIR
 10
0.0
 20
1.0
 30
0.0
  9
$PUCSNAME
  2

  9
$PUCSORG
 10
0.0
 20
0.0
 30
0.0
  9
$PUCSXDIR
 10
1.0
 20
0.0
 30
0.0
  9
$PUCSYDIR
 10
0.0
 20
1.0
 30
0.0
  9
$USERI1
 70
     0
  9
$USERI2
 70
     0
  9
$USERI3
 70
     0
  9
$USERI4
 70
     0
  9
$USERI5
 70
     0
  9
$USERR1
 40
0.0
  9
$USERR2
 40
0.0
  9
$USERR3
 40
0.0
  9
$USERR4
 40
0.0
  9
$USERR5
 40
0.0
  9
$WORLDVIEW
 70
     1
  9
$SHADEDGE
 70
     3
  9
$SHADEDIF
 70
    70
  9
$TILEMODE
 70
     1
  9
$MAXACTVP
 70
    64
  9
$PLIMCHECK
 70
     0
  9
$PEXTMIN
 10
1.0000000000000000E+20
 20
1.0000000000000000E+20
 30
1.0000000000000000E+20
  9
$PEXTMAX
 10
-1.0000000000000000E+20
 20
-1.0000000000000000E+20
 30
-1.0000000000000000E+20
  9
$PLIMMIN
 10
0.0
 20
0.0
  9
$PLIMMAX
 10
12.0
 20
9.0
  9
$UNITMODE
 70
     0
  9
$VISRETAIN
 70
     1
  9
$PLINEGEN
 70
     0
  9
$PSLTSCALE
 70
     1
  0
ENDSEC
  0
SECTION
  2
TABLES
  0
TABLE
  2
VPORT
 70
     1
  0
VPORT
  2
*ACTIVE
 70
     0
 10
0.0
 20
0.0
 11
1.0
 21
1.0
 12
3109.3845959119971667
 22
186.0606476321119089
 13
0.0
 23
0.0
 14
1.0
 24
1.0
 15
0.0
 25
0.0
 16
0.0
 26
0.0
 36
60.4960186965801583
 17
3911.3653564453120453
 27
132.5796051025390057
 37
0.0
 40
13.6722008828551793
 41
2.841079460269865
 42
50.0
 43
0.0
 44
0.0
 50
0.0
 51
0.0
 71
     0
 72
   100
 73
     1
 74
     1
 75
     0
 76
     0
 77
     0
 78
     0
  0
ENDTAB
  0
TABLE
  2
LTYPE
 70
     2
  0
LTYPE
  2
CONTINUOUS
 70
     0
  3
Solid line
 72
    65
 73
     0
 40
0.0
  0
LTYPE
  2
PHANTOM2
 70
     0
  3
___ _ _ ___ _ _ ___ _ _ ___ _ _
 72
    65
 73
     6
 40
1.25
 49
0.625
 49
-0.125
 49
0.125
 49
-0.125
 49
0.125
 49
-0.125
  0
ENDTAB
  0
TABLE
  2
LAYER
 70
     2
  0
LAYER
  2
0
 70
     0
 62
   255
  6
CONTINUOUS
  0
LAYER
  2
DEFPOINTS
 70
     0
 62
     7
  6
CONTINUOUS
  0
ENDTAB
  0
TABLE
  2
STYLE
 70
     1
  0
STYLE
  2
STANDARD
 70
     0
 40
0.0
 41
0.8
 50
0.0
 71
     0
 42
0.2
  3
txt
  4

  0
ENDTAB
  0
TABLE
  2
VIEW
 70
     0
  0
ENDTAB
  0
TABLE
  2
UCS
 70
     0
  0
ENDTAB
  0
TABLE
  2
APPID
 70
    11
  0
APPID
  2
ACAD
 70
     0
  0
APPID
  2
ACAD_MLEADERVER
 70
     0
  0
APPID
  2
ACAD_EXEMPT_FROM_CAD_STANDARDS
 70
     0
  0
APPID
  2
ACAD_NAV_VCDISPLAY
 70
     0
  0
APPID
  2
ACAECLAYERSTANDARD
 70
     0
  0
APPID
  2
ACCMTRANSPARENCY
 70
     0
  0
APPID
  2
ACAD_DSTYLE_DIMJAG
 70
     0
  0
APPID
  2
ACAD_DSTYLE_DIMTALN
 70
     0
  0
APPID
  2
ACDBATTR
 70
     0
  0
APPID
  2
ACADANNOTATIVE
 70
     0
  0
APPID
  2
DCO15
 70
     0
  0
ENDTAB
  0
TABLE
  2
DIMSTYLE
 70
     1
  0
DIMSTYLE
  2
STANDARD
 70
     0
  3

  4

  5

  6

  7

 40
1.0
 41
0.1875
 42
0.0625
 43
0.38
 44
0.125
 45
0.0
 46
0.0
 47
0.01
 48
0.01
140
0.15625
141
0.09
142
0.0
143
25.3999999999999986
144
1.0
145
0.0
146
1.0
147
0.09
 71
     1
 72
     0
 73
     1
 74
     1
 75
     0
 76
     0
 77
     0
 78
     4
170
     0
171
     2
172
     0
173
     0
174
     0
175
     0
176
     0
177
     0
178
     0
  0
ENDTAB
  0
ENDSEC
  0
SECTION
  2
BLOCKS
  0
BLOCK
  8
0
  2
$MODEL_SPACE
 70
     0
 10
0.0
 20
0.0
 30
0.0
  3
$MODEL_SPACE
  1

  0
ENDBLK
  5
21
  8
0
  0
BLOCK
 67
     1
  8
0
  2
$PAPER_SPACE
 70
     0
 10
0.0
 20
0.0
 30
0.0
  3
$PAPER_SPACE
  1

  0
ENDBLK
  5
1D
 67
     1
  8
0
  0
BLOCK
  8
0
  2
_FILLED
 70
     0
 10
0.0
 20
0.0
 30
0.0
  3
_FILLED
  1

  0
SOLID
  5
2EA00
  8
0
  6
BYBLOCK
 62
     0
 10
0.0
 20
0.0
 30
0.0
 11
-1.0
 21
0.1666666667
 31
0.0
 12
-1.0
 22
-0.1666666667
 32
0.0
 13
-1.0
 23
-0.1666666667
 33
0.0
  0
ENDBLK
  5
2EA01
  8
0
  6
BYBLOCK
 62
     0
  0
ENDSEC
  0
SECTION
  2
ENTITIES
  0
ATTDEF
  5
26A5B
  8
DEFPOINTS
 10
7020.7836602996267175
 20
325.4068367395555015
 30
0.0
 40
0.001
  1
K-21839T-2ER
  3

  2
MODELNUMBER
 70
     0
1001
ACDBATTR
1070
     0
1070
     1
  0
ATTDEF
  5
26A5C
  8
DEFPOINTS
 10
7020.7835344899685879
 20
325.4051698991764283
 30
0.0
 40
0.001
  1
MODERNLIFE
  3

  2
TRADENAME
 70
     0
1001
ACDBATTR
1070
     0
1070
     1
  0
ATTDEF
  5
26A5D
  8
DEFPOINTS
 10
7020.7836602996267175
 20
325.403503406222228
 30
0.0
 40
0.001
  1
URINAL
  3

  2
PRODUCT
 70
     0
1001
ACDBATTR
1070
     0
1070
     1
  0
LINE
  5
31AC0
  8
0
 10
7025.6627010674319536
 20
325.4023977897879263
 30
0.0
 11
7015.9243461572332308
 21
325.4023977898879139
 31
0.0
  0
ARC
  5
31AC1
  8
0
 10
7015.9243461572295928
 20
325.1661784860875173
 30
0.0
 40
0.2362193038004676
 50
89.9999999993746798
 51
180.0002834719651901
  0
LINE
  5
31AC2
  8
0
 10
7015.6881268534316405
 20
325.1661773173879055
 30
0.0
 11
7015.6881268535316849
 21
320.9397993646882128
 31
0.0
  0
ARC
  5
31AC3
  8
0
 10
7015.9243473259311941
 20
320.9397993646878717
 30
0.0
 40
0.2362204723983814
 50
179.9999999999380975
 51
181.5144146887523959
  0
ARC
  5
31AC4
  8
0
 10
7015.924347326033967
 20
320.9397993646907139
 30
0.0
 40
0.2362204725027305
 50
181.5144146887523959
 51
269.9999999750913275
  0
LINE
  5
31AC5
  8
0
 10
7015.9243473259321036
 20
320.7035788921879202
 30
0.0
 11
7025.6627203710304457
 21
320.7035788879766187
 31
0.0
  0
LINE
  5
31AC6
  8
0
 10
7015.8677121987757346
 20
325.3955080260880095
 30
0.0
 11
7015.5503763045308006
 21
325.3955080260880095
 31
0.0
  0
ARC
  5
31AC7
  8
0
 10
7015.5503763064598388
 20
325.167196980606775
 30
0.0
 40
0.2283110454811066
 50
90.0000004838432659
 51
180.0088542212600089
  0
LINE
  5
31AC8
  8
0
 10
7015.3220652637037347
 20
325.1671616984879165
 30
0.0
 11
7015.3220652637037347
 21
324.3129295044464016
 31
0.0
  0
LINE
  5
31AC9
  8
0
 10
7015.3220652637037347
 20
323.4859939141335872
 30
0.0
 11
7015.3220652637037347
 21
320.694016679513993
 31
0.0
  0
ARC
  5
31ACA
  8
0
 10
8416.7720481611213472
 20
93.7180943417812955
 30
0.0
 40
1419.7112818753789725
 50
170.8003762724582941
 51
170.9341902821988981
  0
ARC
  5
31ACB
  8
0
 10
7025.4661075361000258
 20
316.5159557882341232
 30
0.0
 40
10.7257470128689096
 50
180.4766322268773138
 51
193.174153308290613
  0
ARC
  5
31ACC
  8
0
 10
7017.3956836178531375
 20
314.668432827640288
 30
0.0
 40
2.4469842429125248
 50
194.1211907483524044
 51
224.5397221245866888
  0
ARC
  5
31ACD
  8
0
 10
7018.6962986065836958
 20
317.3333726597227269
 30
0.0
 40
5.3353442886017062
 50
235.2028149891119995
 51
258.6939292019470145
  0
ARC
  5
31ACE
  8
0
 10
7020.0163596589491135
 20
325.3547111932942926
 30
0.0
 40
13.4626913848531
 50
259.877747504814181
 51
269.7834554787580146
  0
ARC
  5
31ACF
  8
0
 10
7018.543380058558796
 20
208.3169793766396936
 30
0.0
 40
103.5848989114512051
 50
88.7552831371438771
 51
89.2133717372446142
  0
ARC
  5
31AD0
  8
0
 10
7016.6376726372909616
 20
317.3010649840580868
 30
0.0
 40
1.8379868585183721
 50
151.3076484332570999
 51
169.9049494390370967
  0
ARC
  5
31AD1
  8
0
 10
7017.1989566131578613
 20
316.9726096636596253
 30
0.0
 40
2.4881143092320319
 50
120.9479163077734967
 51
150.8782141545758009
  0
ARC
  5
31AD2
  8
0
 10
7018.4881969025918806
 20
314.6569706352203184
 30
0.0
 40
5.1377961742486669
 50
97.5689403092205509
 51
119.9984104388512947
  0
ARC
  5
31AD3
  8
0
 10
7019.6738894188220002
 20
305.7783966984210906
 30
0.0
 40
14.09519140235642
 50
90.2227996720428962
 51
97.5928601398199334
  0
ARC
  5
31AD4
  8
0
 10
7020.6729404380712367
 20
254.7448850738674082
 30
0.0
 40
65.1371222911167678
 50
89.893932819451976
 51
90.9270356980870531
  0
ARC
  5
31AD5
  8
0
 10
7020.7935241966306421
 20
318.7025773449879011
 30
0.0
 40
1.1237335220034339
 50
145.3140563702606016
 51
34.6857372163831315
  0
ARC
  5
31AD6
  8
0
 10
7020.2385358930423536
 20
419.1686317264496893
 30
0.0
 40
99.8272447012631403
 50
269.616476962306308
 51
270.3185364666730948
  0
ARC
  5
31AD7
  8
0
 10
7019.5097542344910835
 20
304.4434793941989028
 30
0.0
 40
14.9002671660068806
 50
89.767094071693279
 51
95.8927752767271073
  0
ARC
  5
31AD8
  8
0
 10
7018.4171870798018062
 20
315.029087512807223
 30
0.0
 40
4.2584251154852479
 50
95.8927752767271073
 51
114.5943122899717963
  0
ARC
  5
31AD9
  8
0
 10
7017.7595583307420384
 20
316.4658500849300822
 30
0.0
 40
2.67831048032633
 50
114.5943122899717963
 51
138.4972509918503931
  0
ARC
  5
31ADA
  8
0
 10
7016.7932347669157025
 20
317.3208636130544846
 30
0.0
 40
1.388027812349738
 50
138.4972509918503931
 51
155.6069114734976893
  0
ARC
  5
31ADB
  8
0
 10
7021.0063378177246705
 20
315.1339879684354059
 30
0.0
 40
6.1333752504125894
 50
153.2552204455683125
 51
183.4335949052693024
  0
ARC
  5
31ADC
  8
0
 10
7020.4948748356673605
 20
186.4741212148101113
 30
0.0
 40
133.9636483787220982
 50
89.872268866652945
 51
91.2322526153818387
  0
ARC
  5
31ADD
  8
0
 10
7016.9275081746463911
 20
352.3195860889421738
 30
0.0
 40
31.9201794171517292
 50
269.3498218534672901
 51
271.232253581832822
  0
ARC
  5
31ADE
  8
0
 10
7016.1345748540697969
 20
282.4467630378874219
 30
0.0
 40
37.9571426864813191
 50
89.3498218534673327
 51
90.6500915823090878
  0
ARC
  5
31ADF
  8
0
 10
7015.703028642663412
 20
320.4794282809431252
 30
0.0
 40
0.077970795969587
 50
223.4973281482139953
 51
270.6500915823090736
  0
ARC
  5
31AE0
  8
0
 10
7015.9350948793780844
 20
320.6509849873373241
 30
0.0
 40
0.3661037911579068
 50
186.5007326018146045
 51
217.9661703575434046
  0
ARC
  5
31AE1
  8
0
 10
7017.07587769328984
 20
320.8627091447434054
 30
0.0
 40
1.5256851580097099
 50
179.57972876271171
 51
189.5518734679691875
  0
LINE
  5
31AE2
  8
0
 10
7015.5502335790306461
 20
320.8739001232880241
 30
0.0
 11
7015.5502335752680665
 21
325.1671616986878917
 31
0.0
  0
ARC
  5
31AE3
  8
0
 10
7015.7787816289419425
 20
325.1681376783228075
 30
0.0
 40
0.2285501375492126
 50
95.8241989357618706
 51
180.2446714078706975
  0
LINE
  5
31AE4
  8
0
 10
7015.3743001679331428
 20
324.3260907270880011
 30
0.0
 11
7015.2430921310306076
 21
324.2929474852879252
 31
0.0
  0
ARC
  5
31AE5
  8
0
 10
7015.2498166611721899
 20
324.2740677710582986
 30
0.0
 40
0.0200415297569752
 50
109.6047570174340962
 51
146.8619310655805918
  0
ARC
  5
31AE6
  8
0
 10
7015.7367873272150973
 20
324.0786359673091965
 30
0.0
 40
0.5443918708978734
 50
157.7210628260260989
 51
177.5955516153929068
  0
ARC
  5
31AE7
  8
0
 10
7017.0370908985969436
 20
323.9118678831302987
 30
0.0
 40
1.853937442165061
 50
174.1299456567161883
 51
191.6503096937723001
  0
ARC
  5
31AE8
  8
0
 10
7015.3036288993089329
 20
323.5640178759434775
 30
0.0
 40
0.0864526273465481
 50
197.8711592989170924
 51
217.3629902895922896
  0
ARC
  5
31AE9
  8
0
 10
7015.2483605778852507
 20
323.5223836932942163
 30
0.0
 40
0.0172646068652555
 50
218.8537277576652968
 51
252.2322815656067121
  0
ARC
  5
31AEA
  8
0
 10
7015.2453946624964374
 20
323.5173817477548823
 30
0.0
 40
0.0116685966840421
 50
258.6192959253110075
 51
314.9073690729853752
  0
ARC
  5
31AEB
  8
0
 10
7015.1211687197428546
 20
323.601264062210987
 30
0.0
 40
0.1613616495884662
 50
325.1760821895989011
 51
351.3370978779125835
  0
ARC
  5
31AEC
  8
0
 10
7013.4774220903600508
 20
323.8879313008666259
 30
0.0
 40
1.8298843399971421
 50
350.2156342468741173
 51
1.8287233952207249
  0
ARC
  5
31AED
  8
0
 10
7013.8741902604788265
 20
323.9471256837622946
 30
0.0
 40
1.432184410936125
 50
359.9680179860279168
 51
11.9164425269903393
  0
ARC
  5
31AEE
  8
0
 10
7015.1479039197747625
 20
324.213758658048107
 30
0.0
 40
0.1308809717397213
 50
12.8427057998611005
 51
34.0067936231668781
  0
ARC
  5
31AEF
  8
0
 10
7015.2436593263355462
 20
324.2772854615204778
 30
0.0
 40
0.0159974676569976
 50
37.2077226303501121
 51
87.4917830259507099
  0
ARC
  5
31AF0
  8
0
 10
7015.3824890115993185
 20
324.2795711131793723
 30
0.0
 40
0.0472348561849139
 50
85.5167829742164542
 51
99.9834917673158543
  0
ARC
  5
31AF1
  8
0
 10
7015.3811411196465997
 20
324.2946714032382829
 30
0.0
 40
0.0323846463115976
 50
47.4146874814789427
 51
81.0465205378402374
  0
ARC
  5
31AF2
  8
0
 10
7015.3572586436857819
 20
324.2696688339491971
 30
0.0
 40
0.0669575722652907
 50
25.3199933209880399
 51
46.8455977740649274
  0
ARC
  5
31AF3
  8
0
 10
7015.187614818865768
 20
324.1921910330478909
 30
0.0
 40
0.2534519762816342
 50
13.2852946280316999
 51
24.7509036135560301
  0
ARC
  5
31AF4
  8
0
 10
7014.5008872327243807
 20
324.0300416019891259
 30
0.0
 40
0.9590632117095168
 50
2.2188502586532972
 51
13.2852946280316999
  0
ARC
  5
31AF5
  8
0
 10
7012.9596597193631169
 20
323.9001369831058241
 30
0.0
 40
2.5051466118925529
 50
355.5522025328423865
 51
3.823160631404289
  0
ARC
  5
31AF6
  8
0
 10
7014.4066422009700545
 20
323.7792605361129858
 30
0.0
 40
1.0531804841678329
 50
347.2117143157150849
 51
356.0036301709567965
  0
ARC
  5
31AF7
  8
0
 10
7015.2583606103598868
 20
323.5834123382691132
 30
0.0
 40
0.1792553601954444
 50
327.9419115873055262
 51
347.9989899647122229
  0
ARC
  5
31AF8
  8
0
 10
7015.3774155710143532
 20
323.5110171299633066
 30
0.0
 40
0.0399713975620952
 50
289.5685803949988895
 51
325.3090074432719803
  0
ARC
  5
31AF9
  8
0
 10
7015.3816470379706516
 20
323.5008767409763095
 30
0.0
 40
0.0290054538938434
 50
265.3058710008812113
 51
288.4016783832429951
  0
ARC
  5
31AFA
  8
0
 10
7015.381798944219554
 20
323.5024171844049192
 30
0.0
 40
0.0305531722928106
 50
255.4114095391038859
 51
265.258365628365425
  0
LINE
  5
31AFB
  8
0
 10
7015.3741033135529506
 20
323.4728490663417233
 30
0.0
 11
7015.2430921310306076
 21
323.5059425826879078
 31
0.0
  0
ARC
  5
31AFC
  8
0
 10
7015.4355704989930018
 20
323.8997309819123984
 30
0.0
 40
0.2386588175452722
 50
161.8087354466150032
 51
198.338455648095902
  0
ARC
  5
31AFD
  8
0
 10
7014.9930274614316659
 20
323.8991625418761942
 30
0.0
 40
0.2284979884420115
 50
340.9657795089034948
 51
19.1814115857835894
  0
ARC
  5
31AFE
  8
0
 10
7015.5081874923998839
 20
323.8997305233943962
 30
0.0
 40
0.2383198619021672
 50
161.7818384962224911
 51
198.3653525984763064
  0
ARC
  5
31AFF
  8
0
 10
7015.0660014211853195
 20
323.8991625418761942
 30
0.0
 40
0.2284979884420115
 50
340.9657795089034948
 51
19.1814115857835894
  0
ARC
  5
31B00
  8
0
 10
7015.432339866422808
 20
324.2640119896566944
 30
0.0
 40
0.0104343117180719
 50
90.8933090824811103
 51
116.3046934563992068
  0
LINE
  5
31B01
  8
0
 10
7015.4321771897330109
 20
324.2744450331878738
 30
0.0
 11
7015.4628187627986335
 21
324.2744450331878738
 31
0.0
  0
ARC
  5
31B02
  8
0
 10
7015.4550822250112105
 20
324.2390369054514849
 30
0.0
 40
0.0362434756438725
 50
68.5825535855276058
 51
77.6747965764196806
  0
ARC
  5
31B03
  8
0
 10
7015.450110238041816
 20
324.2473670511948853
 30
0.0
 40
0.0312598367272633
 50
27.9353507628526607
 51
54.3783672335109785
  0
ARC
  5
31B04
  8
0
 10
7014.9180177511989314
 20
324.0563703854518849
 30
0.0
 40
0.596291336977632
 50
2.5915736650906518
 51
20.1736682766235091
  0
ARC
  5
31B05
  8
0
 10
7013.3570129295885636
 20
323.9024896784591192
 30
0.0
 40
2.164255026668064
 50
353.4037450854536928
 51
4.7931581631165674
  0
ARC
  5
31B06
  8
0
 10
7014.9496240525850226
 20
323.7197859987422817
 30
0.0
 40
0.56120085198712
 50
343.3555376230589218
 51
353.2554476543709825
  0
ARC
  5
31B07
  8
0
 10
7015.383691797598658
 20
323.5911697566555176
 30
0.0
 40
0.1084861021516844
 50
327.9729813016505204
 51
342.7726860745449926
  0
ARC
  5
31B08
  8
0
 10
7015.4547192324507705
 20
323.5468907472327942
 30
0.0
 40
0.024787500145639
 50
301.0737101255385255
 51
327.6781603728945811
  0
ARC
  5
31B09
  8
0
 10
7015.4613842055623536
 20
323.5396664595539846
 30
0.0
 40
0.0152885406588905
 50
275.3706392509224088
 51
293.6331477252957143
  0
LINE
  5
31B0A
  8
0
 10
7015.4628151844317472
 20
323.5244450346879148
 30
0.0
 11
7015.4321771818349589
 21
323.5244450346879148
 31
0.0
  0
ARC
  5
31B0B
  8
0
 10
7015.4322988903295482
 20
323.5345431824339926
 30
0.0
 40
0.0100989717214495
 50
244.648824516887089
 51
269.2680875924697261
  0
ARC
  5
31B0C
  8
0
 10
7015.4317238635558169
 20
323.5360553771308219
 30
0.0
 40
0.0116189065025348
 50
272.1999941353856229
 51
310.9865226079313061
  0
ARC
  5
31B0D
  8
0
 10
7015.3795866210393797
 20
323.5807107188430791
 30
0.0
 40
0.080158243346682
 50
318.2019534713670055
 51
345.4349679504138066
  0
ARC
  5
31B0E
  8
0
 10
7014.6330014319783004
 20
323.7792699296820729
 30
0.0
 40
0.8526952079639601
 50
345.1374463522108726
 51
356.740980516388106
  0
ARC
  5
31B0F
  8
0
 10
7013.2159669309203309
 20
323.8991401375237729
 30
0.0
 40
2.2745889997832172
 50
355.7555687216615183
 51
4.50703642453737
  0
ARC
  5
31B10
  8
0
 10
7014.6426094470243697
 20
324.0231803293622761
 30
0.0
 40
0.8426899771401855
 50
3.721786099024591
 51
14.5498062101838102
  0
ARC
  5
31B11
  8
0
 10
7015.3338651396015848
 20
324.1991651119748212
 30
0.0
 40
0.1294344727923094
 50
16.0184596793179601
 51
29.7783388834088605
  0
ARC
  5
31B12
  8
0
 10
7015.4226705401315485
 20
324.2502775632094085
 30
0.0
 40
0.0269719848151223
 50
29.22945100215534
 51
58.6992840912524869
  0
ARC
  5
31B13
  8
0
 10
7015.4319309473567046
 20
324.264014626844812
 30
0.0
 40
0.0104520899007796
 50
62.9557388003732186
 51
86.3087246647159674
  0
LINE
  5
31B14
  8
0
 10
7016.0185094292755821
 20
320.6376802366879133
 30
0.0
 11
7025.5685377953877833
 21
320.6376802366879133
 31
0.0
  0
ARC
  5
31B15
  8
0
 10
7016.0282306258786775
 20
320.1205831398975761
 30
0.0
 40
0.5171884658152691
 50
91.077008433225572
 51
102.5082784226385968
  0
ARC
  5
31B16
  8
0
 10
7016.0481138174363878
 20
320.0210546954883739
 30
0.0
 40
0.6186646075860672
 50
102.3096549780644011
 51
115.9902792283728985
  0
ARC
  5
31B17
  8
0
 10
7015.9485556588006148
 20
320.4027356113837754
 30
0.0
 40
0.2446456724433347
 50
134.5255493443852117
 51
180.2981619115001024
  0
ARC
  5
31B18
  8
0
 10
7018.2918925404073889
 20
322.2490707722071193
 30
0.0
 40
1.624996613529518
 50
252.0032250547762942
 51
262.5803849539115049
  0
ARC
  5
31B19
  8
0
 10
7027.0755924057502853
 20
316.2415734724301046
 30
0.0
 40
12.3362503809795392
 50
174.516935180273407
 51
179.140000487920986
  0
ARC
  5
31B1A
  8
0
 10
7020.7935241966306421
 20
318.7025773449879011
 30
0.0
 40
1.085271248299998
 50
143.9071174310606125
 51
36.0926449453021121
  0
ARC
  5
31B1B
  8
0
 10
7025.662701067434682
 20
325.1661784860875173
 30
0.0
 40
0.2362193038004676
 50
359.9997165280348099
 51
90.0000000005732232
  0
LINE
  5
31B1C
  8
0
 10
7025.8989203712317249
 20
325.1661773173879055
 30
0.0
 11
7025.8989203711316804
 21
320.9397788879709879
 31
0.0
  0
ARC
  5
31B1D
  8
0
 10
7025.6627203711323091
 20
320.9397788879766154
 30
0.0
 40
0.2362
 50
269.9999999752475901
 51
359.9999999986450803
  0
LINE
  5
31B1E
  8
0
 10
7025.7193350258894498
 20
325.3955080260880095
 30
0.0
 11
7026.0366709201316553
 21
325.3955080260880095
 31
0.0
  0
ARC
  5
31B1F
  8
0
 10
7026.036670918204436
 20
325.167196980606775
 30
0.0
 40
0.2283110454811066
 50
359.9911457787400195
 51
89.9999995161567199
  0
LINE
  5
31B20
  8
0
 10
7026.2649819609587212
 20
325.1671616984879165
 30
0.0
 11
7026.2649819609587212
 21
324.3129295044464016
 31
0.0
  0
LINE
  5
31B21
  8
0
 10
7026.2649819609587212
 20
323.4859939141335872
 30
0.0
 11
7026.2649819609587212
 21
320.694016679513993
 31
0.0
  0
ARC
  5
31B22
  8
0
 10
5624.8149990635429276
 20
93.7180943417812955
 30
0.0
 40
1419.7112818753789725
 50
9.0658097178011232
 51
9.1996237275417201
  0
ARC
  5
31B23
  8
0
 10
7016.1209396885642491
 20
316.5159557882341232
 30
0.0
 40
10.7257470128689096
 50
346.825846691709387
 51
359.5233677731225725
  0
ARC
  5
31B24
  8
0
 10
7024.1913636068120468
 20
314.668432827640288
 30
0.0
 40
2.4469842429125248
 50
315.4602778754132828
 51
345.878809251647624
  0
ARC
  5
31B25
  8
0
 10
7022.8907486180796695
 20
317.3333726597227269
 30
0.0
 40
5.3353442886017062
 50
281.3060707980529855
 51
304.7971850108879153
  0
ARC
  5
31B26
  8
0
 10
7021.5706875657151613
 20
325.3547111932942926
 30
0.0
 40
13.4626913848531
 50
270.2165445212418717
 51
280.1222524951344894
  0
ARC
  5
31B27
  8
0
 10
7023.0436671661063883
 20
208.3169793766396936
 30
0.0
 40
103.5848989114512051
 50
90.7866282627553858
 51
91.2447168628561371
  0
ARC
  5
31B28
  8
0
 10
7024.9493745873724038
 20
317.3010649840580868
 30
0.0
 40
1.8379868585183721
 50
10.0950505609628394
 51
28.6923515667429001
  0
ARC
  5
31B29
  8
0
 10
7024.3880906115045946
 20
316.9726096636596253
 30
0.0
 40
2.4881143092320319
 50
29.1217858454242489
 51
59.0520836922264394
  0
ARC
  5
31B2A
  8
0
 10
7023.0988503220733037
 20
314.6569706352203184
 30
0.0
 40
5.1377961742486669
 50
60.0015895611487267
 51
82.4310596907794348
  0
ARC
  5
31B2B
  8
0
 10
7021.9131578058440937
 20
305.7783966984210906
 30
0.0
 40
14.09519140235642
 50
82.4071398601284244
 51
89.7772003279571464
  0
ARC
  5
31B2C
  8
0
 10
7020.9141067865930381
 20
254.7448850738674082
 30
0.0
 40
65.1371222911167678
 50
89.0729643019129469
 51
90.1060671805480382
  0
ARC
  5
31B2D
  8
0
 10
7021.3485113316210118
 20
419.1686317264496893
 30
0.0
 40
99.8272447012631403
 50
269.6814635333269052
 51
270.3835230376416234
  0
ARC
  5
31B2E
  8
0
 10
7022.0772929901722819
 20
304.4434793941989028
 30
0.0
 40
14.9002671660068806
 50
84.1072247232729069
 51
90.2329059283067352
  0
ARC
  5
31B2F
  8
0
 10
7023.1698601448606496
 20
315.029087512807223
 30
0.0
 40
4.2584251154852479
 50
65.4056877100281895
 51
84.1072247232729069
  0
ARC
  5
31B30
  8
0
 10
7023.827488893921327
 20
316.4658500849300822
 30
0.0
 40
2.67831048032633
 50
41.5027490081496211
 51
65.4056877100281895
  0
ARC
  5
31B31
  8
0
 10
7024.7938124577476628
 20
317.3208636130544846
 30
0.0
 40
1.388027812349738
 50
24.3930885265023001
 51
41.5027490081496211
  0
ARC
  5
31B32
  8
0
 10
7020.5807094069386949
 20
315.1339879684354059
 30
0.0
 40
6.1333752504125894
 50
356.566405094730726
 51
26.7447795544316804
  0
ARC
  5
31B33
  8
0
 10
7021.0921723889960049
 20
186.4741212148101113
 30
0.0
 40
133.9636483787220982
 50
88.7677473846181755
 51
90.1277311333470408
  0
ARC
  5
31B34
  8
0
 10
7024.6595390500169742
 20
352.3195860889421738
 30
0.0
 40
31.9201794171517292
 50
268.767746418167178
 51
270.6501781465327099
  0
ARC
  5
31B35
  8
0
 10
7025.4524723705935685
 20
282.4467630378874219
 30
0.0
 40
37.9571426864813191
 50
89.3499084176909406
 51
90.6501781465326815
  0
ARC
  5
31B36
  8
0
 10
7025.8840185820017723
 20
320.4794282809431252
 30
0.0
 40
0.077970795969587
 50
269.3499084176909264
 51
316.5026718517859194
  0
ARC
  5
31B37
  8
0
 10
7025.6519523452852809
 20
320.6509849873373241
 30
0.0
 40
0.3661037911579068
 50
322.0338296424566238
 51
353.4992673981822122
  0
ARC
  5
31B38
  8
0
 10
7024.5111695313744349
 20
320.8627091447434054
 30
0.0
 40
1.5256851580097099
 50
350.4481265320308125
 51
0.4202712372882776
  0
LINE
  5
31B39
  8
0
 10
7026.0368136456318098
 20
320.8739001232880241
 30
0.0
 11
7026.0368136493952989
 21
325.1671616986878917
 31
0.0
  0
ARC
  5
31B3A
  8
0
 10
7025.8082655957241514
 20
325.1681376783228075
 30
0.0
 40
0.2285501375492126
 50
359.7553285921292741
 51
84.1758010642899848
  0
LINE
  5
31B3B
  8
0
 10
7026.2127470567320415
 20
324.3260907270880011
 30
0.0
 11
7026.3439550936327578
 21
324.2929474852879252
 31
0.0
  0
ARC
  5
31B3C
  8
0
 10
7026.3372305634911754
 20
324.2740677710582986
 30
0.0
 40
0.0200415297569752
 50
33.1380689344193868
 51
70.395242982565847
  0
ARC
  5
31B3D
  8
0
 10
7025.8502598974491775
 20
324.0786359673091965
 30
0.0
 40
0.5443918708978734
 50
2.4044483846070479
 51
22.2789371739739117
  0
ARC
  5
31B3E
  8
0
 10
7024.5499563260664218
 20
323.9118678831302987
 30
0.0
 40
1.853937442165061
 50
348.3496903062277283
 51
5.8700543432837691
  0
ARC
  5
31B3F
  8
0
 10
7026.2834183253553419
 20
323.5640178759434775
 30
0.0
 40
0.0864526273465481
 50
322.6370097104075967
 51
342.1288407010828791
  0
ARC
  5
31B40
  8
0
 10
7026.3386866467781147
 20
323.5223836932942163
 30
0.0
 40
0.0172646068652555
 50
287.767718434343692
 51
321.1462722423347032
  0
ARC
  5
31B41
  8
0
 10
7026.3416525621660185
 20
323.5173817477548823
 30
0.0
 40
0.0116685966840421
 50
225.0926309270145964
 51
281.3807040746889925
  0
ARC
  5
31B42
  8
0
 10
7026.4658785049223297
 20
323.601264062210987
 30
0.0
 40
0.1613616495884662
 50
188.6629021220873881
 51
214.8239178104010989
  0
ARC
  5
31B43
  8
0
 10
7028.1096251343033146
 20
323.8879313008666259
 30
0.0
 40
1.8298843399971421
 50
178.1712766047793082
 51
189.7843657531259112
  0
ARC
  5
31B44
  8
0
 10
7027.7128569641854483
 20
323.9471256837622946
 30
0.0
 40
1.432184410936125
 50
168.0835574730095914
 51
180.0319820139721116
  0
ARC
  5
31B45
  8
0
 10
7026.4393929735588245
 20
324.2136504886989883
 30
0.0
 40
0.1311484475764884
 50
146.0150363531811024
 51
167.1354642238136989
  0
ARC
  5
31B46
  8
0
 10
7026.3433878983278191
 20
324.2772854615204778
 30
0.0
 40
0.0159974676569976
 50
92.5082169740492759
 51
142.792277369649895
  0
ARC
  5
31B47
  8
0
 10
7026.2054288684757921
 20
324.2976962313115905
 30
0.0
 40
0.0293224021821451
 50
75.547535342003485
 51
98.9521899164760583
  0
ARC
  5
31B48
  8
0
 10
7026.2059061050176751
 20
324.2946714032382829
 30
0.0
 40
0.0323846463115976
 50
98.9534794621597769
 51
132.5853125185209933
  0
ARC
  5
31B49
  8
0
 10
7026.229788580976674
 20
324.2696688339491971
 30
0.0
 40
0.0669575722652907
 50
133.1544022259350015
 51
154.6800066790119104
  0
ARC
  5
31B4A
  8
0
 10
7026.3994324057966878
 20
324.1921910330478909
 30
0.0
 40
0.2534519762816342
 50
155.2490963864439948
 51
166.7147053719683072
  0
ARC
  5
31B4B
  8
0
 10
7027.0861599919398941
 20
324.0300416019891259
 30
0.0
 40
0.9590632117095168
 50
166.7147053719683072
 51
177.7811497413466952
  0
ARC
  5
31B4C
  8
0
 10
7028.6273875053011579
 20
323.9001369831058241
 30
0.0
 40
2.5051466118925529
 50
176.1768393685956937
 51
184.4477974671544018
  0
ARC
  5
31B4D
  8
0
 10
7027.1804050236942203
 20
323.7792605361129858
 30
0.0
 40
1.0531804841678329
 50
183.9963698290432035
 51
192.7882856842848867
  0
ARC
  5
31B4E
  8
0
 10
7026.3286866143025691
 20
323.5834123382691132
 30
0.0
 40
0.1792553601954444
 50
192.0010100352878055
 51
212.0580884126945023
  0
ARC
  5
31B4F
  8
0
 10
7026.2096316536490122
 20
323.5110171299633066
 30
0.0
 40
0.0399713975620952
 50
214.690992556728105
 51
250.4314196050011105
  0
ARC
  5
31B50
  8
0
 10
7026.2054001866936233
 20
323.5008767409763095
 30
0.0
 40
0.0290054538938434
 50
251.5983216167570049
 51
274.6941289991187887
  0
ARC
  5
31B51
  8
0
 10
7026.2052482804447209
 20
323.5024171844049192
 30
0.0
 40
0.0305531722928106
 50
274.741634371634575
 51
284.5885904608961141
  0
LINE
  5
31B52
  8
0
 10
7026.2129439111113243
 20
323.4728490663417233
 30
0.0
 11
7026.3439550936327578
 21
323.5059425826879078
 31
0.0
  0
ARC
  5
31B53
  8
0
 10
7026.1514749281659533
 20
323.8997309842213213
 30
0.0
 40
0.2386605244894366
 50
341.6616795981839232
 51
18.1911293071266016
  0
ARC
  5
31B54
  8
0
 10
7026.5940197632316995
 20
323.8991625418761942
 30
0.0
 40
0.2284979884420115
 50
160.818588414216407
 51
199.0342204910965052
  0
ARC
  5
31B55
  8
0
 10
7026.0785009568808164
 20
323.8997309842361005
 30
0.0
 40
0.2386605354391996
 50
341.6616804657606963
 51
18.1911284395444
  0
ARC
  5
31B56
  8
0
 10
7026.5210458034789553
 20
323.8991625418761942
 30
0.0
 40
0.2284979884420115
 50
160.818588414216407
 51
199.0342204910965052
  0
ARC
  5
31B57
  8
0
 10
7026.1547073582423764
 20
324.2640119896566944
 30
0.0
 40
0.0104343117180719
 50
63.6953065435540324
 51
89.1066909175189039
  0
LINE
  5
31B58
  8
0
 10
7026.1548700349321734
 20
324.2744450331878738
 30
0.0
 11
7026.1242284618638223
 21
324.2744450331878738
 31
0.0
  0
ARC
  5
31B59
  8
0
 10
7026.124222641608867
 20
324.2645659341113173
 30
0.0
 40
0.0098791007911113
 50
89.9662442822774437
 51
123.7764055557474023
  0
ARC
  5
31B5A
  8
0
 10
7026.1369369866206398
 20
324.2473670511948853
 30
0.0
 40
0.0312598367272633
 50
125.6216327664890002
 51
152.0646492371473073
  0
ARC
  5
31B5B
  8
0
 10
7026.669029473464434
 20
324.0563703854518849
 30
0.0
 40
0.596291336977632
 50
159.8263317233765122
 51
177.4084263349093078
  0
ARC
  5
31B5C
  8
0
 10
7028.2300342950738923
 20
323.9024896784591192
 30
0.0
 40
2.164255026668064
 50
175.2068418368833989
 51
186.5962549145461935
  0
ARC
  5
31B5D
  8
0
 10
7026.6374231720801617
 20
323.7197859987422817
 30
0.0
 40
0.56120085198712
 50
186.7445523456289038
 51
196.6444623769411066
  0
ARC
  5
31B5E
  8
0
 10
7026.2033554270637978
 20
323.5911697566555176
 30
0.0
 40
0.1084861021516844
 50
197.2273139254548937
 51
212.027018698349508
  0
ARC
  5
31B5F
  8
0
 10
7026.1323279922116853
 20
323.5468907472327942
 30
0.0
 40
0.024787500145639
 50
212.3218396271053905
 51
238.9262898744615029
  0
ARC
  5
31B60
  8
0
 10
7026.1256630191010117
 20
323.5396664595539846
 30
0.0
 40
0.0152885406588905
 50
246.3668522746565941
 51
264.6293607490256932
  0
LINE
  5
31B61
  8
0
 10
7026.1242320402307087
 20
323.5244450346879148
 30
0.0
 11
7026.1548700428284064
 21
323.5244450346879148
 31
0.0
  0
ARC
  5
31B62
  8
0
 10
7026.1547483343338172
 20
323.5345431824339926
 30
0.0
 40
0.0100989717214495
 50
270.7319124075302739
 51
295.351175483112911
  0
ARC
  5
31B63
  8
0
 10
7026.1553233611075484
 20
323.5360553771308219
 30
0.0
 40
0.0116189065025348
 50
229.0134773920686939
 51
267.8000058645623085
  0
ARC
  5
31B64
  8
0
 10
7026.2074606036248952
 20
323.5807107188430791
 30
0.0
 40
0.080158243346682
 50
194.5650320495861934
 51
221.7980465286329945
  0
ARC
  5
31B65
  8
0
 10
7026.9540457926841555
 20
323.7792699296820729
 30
0.0
 40
0.8526952079639601
 50
183.2590194836118087
 51
194.8625536477890989
  0
ARC
  5
31B66
  8
0
 10
7028.3710802937439439
 20
323.8991401375237729
 30
0.0
 40
2.2745889997832172
 50
175.4929635754625963
 51
184.2444312783383964
  0
ARC
  5
31B67
  8
0
 10
7026.9444377776399051
 20
324.0231803293622761
 30
0.0
 40
0.8426899771401855
 50
165.4501937898162112
 51
176.2782139009754019
  0
ARC
  5
31B68
  8
0
 10
7026.253182085060871
 20
324.1991651119748212
 30
0.0
 40
0.1294344727923094
 50
150.2216611165910933
 51
163.9815403206820008
  0
ARC
  5
31B69
  8
0
 10
7026.1643766845318169
 20
324.2502775632094085
 30
0.0
 40
0.0269719848151223
 50
121.300715908747506
 51
150.7705489978445996
  0
ARC
  5
31B6A
  8
0
 10
7026.1551162773066608
 20
324.264014626844812
 30
0.0
 40
0.0104520899007796
 50
93.6912753352840468
 51
117.0442611996268027
  0
ARC
  5
31B6B
  8
0
 10
7025.5588165987855973
 20
320.1205831398975761
 30
0.0
 40
0.5171884658152691
 50
77.4917215773613748
 51
88.922991566722331
  0
ARC
  5
31B6C
  8
0
 10
7025.5389334072287966
 20
320.0210546954883739
 30
0.0
 40
0.6186646075860672
 50
64.0097207716270873
 51
77.6903450219355989
  0
ARC
  5
31B6D
  8
0
 10
7025.6384915658627506
 20
320.4027356113837754
 30
0.0
 40
0.2446456724433347
 50
359.701838088499926
 51
45.4744506556147314
  0
ARC
  5
31B6E
  8
0
 10
7023.2951546842587049
 20
322.2490707722071193
 30
0.0
 40
1.624996613529518
 50
277.4196150460368244
 51
287.9967749452237058
  0
ARC
  5
31B6F
  8
0
 10
7014.5114548189139896
 20
316.2415734724301046
 30
0.0
 40
12.3362503809795392
 50
0.8599995120790201
 51
5.4830648197265344
  0
ENDSEC
  0
EOF
