  0
SECTION
  2
HEADER
  9
$ACADVER
  1
AC1009
  9
$INSBASE
 10
3174.707830933742116
 20
199.7804511700055059
 30
0.0
  9
$EXTMIN
 10
3168.5780932340330764
 20
186.2473721047886102
 30
-0.0000000349181948
  9
$EXTMAX
 10
3180.9547788971121918
 20
199.7983444376012017
 30
0.0000000814935746
  9
$LIMMIN
 10
0.0
 20
0.0
  9
$LIMMAX
 10
11.6929133858000007
 20
8.2677165353999982
  9
$ORTHOMODE
 70
     1
  9
$REGENMODE
 70
     1
  9
$FILLMODE
 70
     1
  9
$QTEXTMODE
 70
     0
  9
$MIRRTEXT
 70
     0
  9
$DRAGMODE
 70
     2
  9
$LTSCALE
 40
0.6431102362
  9
$OSMODE
 70
  2039
  9
$ATTMODE
 70
     1
  9
$TEXTSIZE
 40
0.2
  9
$TRACEWID
 40
0.05
  9
$TEXTSTYLE
  7
STANDARD
  9
$CLAYER
  8
0
  9
$CELTYPE
  6
BYLAYER
  9
$CECOLOR
 62
   256
  9
$DIMSCALE
 40
1.0
  9
$DIMASZ
 40
0.1875
  9
$DIMEXO
 40
0.0625
  9
$DIMDLI
 40
0.4443307087
  9
$DIMRND
 40
0.0
  9
$DIMDLE
 40
0.0
  9
$DIMEXE
 40
0.125
  9
$DIMTP
 40
0.01
  9
$DIMTM
 40
0.01
  9
$DIMTXT
 40
2.0
  9
$DIMCEN
 40
0.1052362205
  9
$DIMTSZ
 40
0.0
  9
$DIMTOL
 70
     1
  9
$DIMLIM
 70
     0
  9
$DIMTIH
 70
     1
  9
$DIMTOH
 70
     1
  9
$DIMSE1
 70
     0
  9
$DIMSE2
 70
     0
  9
$DIMTAD
 70
     0
  9
$DIMZIN
 70
     0
  9
$DIMBLK
  1

  9
$DIMASO
 70
     1
  9
$DIMSHO
 70
     1
  9
$DIMPOST
  1
\X
  9
$DIMAPOST
  1

  9
$DIMALT
 70
     1
  9
$DIMALTD
 70
     2
  9
$DIMALTF
 40
25.3999999999999986
  9
$DIMLFAC
 40
1.0
  9
$DIMTOFL
 70
     0
  9
$DIMTVP
 40
0.0
  9
$DIMTIX
 70
     0
  9
$DIMSOXD
 70
     0
  9
$DIMSAH
 70
     0
  9
$DIMBLK1
  1

  9
$DIMBLK2
  1

  9
$DIMSTYLE
  2
STANDARD
  9
$DIMCLRD
 70
     0
  9
$DIMCLRE
 70
     0
  9
$DIMCLRT
 70
     0
  9
$DIMTFAC
 40
1.0
  9
$DIMGAP
 40
0.09
  9
$LUNITS
 70
     2
  9
$LUPREC
 70
     4
  9
$SKETCHINC
 40
0.1
  9
$FILLETRAD
 40
0.0
  9
$AUNITS
 70
     0
  9
$AUPREC
 70
     0
  9
$MENU
  1
.
  9
$ELEVATION
 40
0.0
  9
$PELEVATION
 40
0.0
  9
$THICKNESS
 40
0.0
  9
$LIMCHECK
 70
     0
  9
$BLIPMODE
 70
     0
  9
$CHAMFERA
 40
0.0
  9
$CHAMFERB
 40
0.0
  9
$SKPOLY
 70
     0
  9
$TDCREATE
 40
2458060.468368056230247
  9
$TDUPDATE
 40
2459326.5798379629850388
  9
$TDINDWG
 40
0.6119283565
  9
$TDUSRTIMER
 40
0.6119283565
  9
$USRTIMER
 70
     1
  9
$ANGBASE
 50
0.0
  9
$ANGDIR
 70
     0
  9
$PDMODE
 70
     0
  9
$PDSIZE
 40
0.3125
  9
$PLINEWID
 40
0.0
  9
$COORDS
 70
     1
  9
$SPLFRAME
 70
     0
  9
$SPLINETYPE
 70
     6
  9
$SPLINESEGS
 70
     8
  9
$ATTDIA
 70
     1
  9
$ATTREQ
 70
     1
  9
$HANDLING
 70
     1
  9
$HANDSEED
  5
27953
  9
$SURFTAB1
 70
     6
  9
$SURFTAB2
 70
     6
  9
$SURFTYPE
 70
     6
  9
$SURFU
 70
     6
  9
$SURFV
 70
     6
  9
$UCSNAME
  2

  9
$UCSORG
 10
0.0
 20
0.0
 30
0.0
  9
$UCSXDIR
 10
1.0
 20
0.0
 30
0.0
  9
$UCSYDIR
 10
0.0
 20
1.0
 30
0.0
  9
$PUCSNAME
  2

  9
$PUCSORG
 10
0.0
 20
0.0
 30
0.0
  9
$PUCSXDIR
 10
1.0
 20
0.0
 30
0.0
  9
$PUCSYDIR
 10
0.0
 20
1.0
 30
0.0
  9
$USERI1
 70
     0
  9
$USERI2
 70
     0
  9
$USERI3
 70
     0
  9
$USERI4
 70
     0
  9
$USERI5
 70
     0
  9
$USERR1
 40
0.0
  9
$USERR2
 40
0.0
  9
$USERR3
 40
0.0
  9
$USERR4
 40
0.0
  9
$USERR5
 40
0.0
  9
$WORLDVIEW
 70
     1
  9
$SHADEDGE
 70
     3
  9
$SHADEDIF
 70
    70
  9
$TILEMODE
 70
     1
  9
$MAXACTVP
 70
    64
  9
$PLIMCHECK
 70
     0
  9
$PEXTMIN
 10
1.0000000000000000E+20
 20
1.0000000000000000E+20
 30
1.0000000000000000E+20
  9
$PEXTMAX
 10
-1.0000000000000000E+20
 20
-1.0000000000000000E+20
 30
-1.0000000000000000E+20
  9
$PLIMMIN
 10
0.0
 20
0.0
  9
$PLIMMAX
 10
12.0
 20
9.0
  9
$UNITMODE
 70
     0
  9
$VISRETAIN
 70
     1
  9
$PLINEGEN
 70
     0
  9
$PSLTSCALE
 70
     1
  0
ENDSEC
  0
SECTION
  2
TABLES
  0
TABLE
  2
VPORT
 70
     1
  0
VPORT
  2
*ACTIVE
 70
     0
 10
0.0
 20
0.0
 11
1.0
 21
1.0
 12
-128.9266791688023091
 22
-2.2386533046928321
 13
0.0
 23
0.0
 14
1.0
 24
1.0
 15
0.0
 25
0.0
 16
0.0
 26
0.0
 36
96.5995694866707311
 17
3303.693115234375
 27
195.2615115758877096
 37
0.0
 40
13.6637404798263393
 41
2.6486111111111108
 42
50.0
 43
0.0
 44
0.0
 50
0.0
 51
0.0
 71
     0
 72
   100
 73
     1
 74
     1
 75
     0
 76
     0
 77
     0
 78
     0
  0
ENDTAB
  0
TABLE
  2
LTYPE
 70
     2
  0
LTYPE
  2
CONTINUOUS
 70
     0
  3
Solid line
 72
    65
 73
     0
 40
0.0
  0
LTYPE
  2
PHANTOM2
 70
     0
  3
___ _ _ ___ _ _ ___ _ _ ___ _ _
 72
    65
 73
     6
 40
1.25
 49
0.625
 49
-0.125
 49
0.125
 49
-0.125
 49
0.125
 49
-0.125
  0
ENDTAB
  0
TABLE
  2
LAYER
 70
     2
  0
LAYER
  2
0
 70
     0
 62
   255
  6
CONTINUOUS
  0
LAYER
  2
DEFPOINTS
 70
     0
 62
     7
  6
CONTINUOUS
  0
ENDTAB
  0
TABLE
  2
STYLE
 70
     1
  0
STYLE
  2
STANDARD
 70
     0
 40
0.0
 41
0.8
 50
0.0
 71
     0
 42
0.2
  3
txt
  4

  0
ENDTAB
  0
TABLE
  2
VIEW
 70
     0
  0
ENDTAB
  0
TABLE
  2
UCS
 70
     0
  0
ENDTAB
  0
TABLE
  2
APPID
 70
     9
  0
APPID
  2
ACAD
 70
     0
  0
APPID
  2
ACAD_MLEADERVER
 70
     0
  0
APPID
  2
ACAD_EXEMPT_FROM_CAD_STANDARDS
 70
     0
  0
APPID
  2
ACAD_NAV_VCDISPLAY
 70
     0
  0
APPID
  2
ACAECLAYERSTANDARD
 70
     0
  0
APPID
  2
ACCMTRANSPARENCY
 70
     0
  0
APPID
  2
ACAD_DSTYLE_DIMJAG
 70
     0
  0
APPID
  2
ACAD_DSTYLE_DIMTALN
 70
     0
  0
APPID
  2
ACDBATTR
 70
     0
  0
ENDTAB
  0
TABLE
  2
DIMSTYLE
 70
     1
  0
DIMSTYLE
  2
STANDARD
 70
     0
  3

  4

  5

  6

  7

 40
1.0
 41
0.1875
 42
0.0625
 43
0.38
 44
0.125
 45
0.0
 46
0.0
 47
0.01
 48
0.01
140
0.15625
141
0.09
142
0.0
143
25.3999999999999986
144
1.0
145
0.0
146
1.0
147
0.09
 71
     1
 72
     0
 73
     1
 74
     1
 75
     0
 76
     0
 77
     0
 78
     4
170
     0
171
     2
172
     0
173
     0
174
     0
175
     0
176
     0
177
     0
178
     0
  0
ENDTAB
  0
ENDSEC
  0
SECTION
  2
BLOCKS
  0
BLOCK
  8
0
  2
$MODEL_SPACE
 70
     0
 10
0.0
 20
0.0
 30
0.0
  3
$MODEL_SPACE
  1

  0
ENDBLK
  5
21
  8
0
  0
BLOCK
 67
     1
  8
0
  2
$PAPER_SPACE
 70
     0
 10
0.0
 20
0.0
 30
0.0
  3
$PAPER_SPACE
  1

  0
ENDBLK
  5
1D
 67
     1
  8
0
  0
BLOCK
  8
0
  2
_FILLED
 70
     0
 10
0.0
 20
0.0
 30
0.0
  3
_FILLED
  1

  0
SOLID
  5
211E5
  8
0
  6
BYBLOCK
 62
     0
 10
0.0
 20
0.0
 30
0.0
 11
-1.0
 21
0.1666666667
 31
0.0
 12
-1.0
 22
-0.1666666667
 32
0.0
 13
-1.0
 23
-0.1666666667
 33
0.0
  0
ENDBLK
  5
211E6
  8
0
  6
BYBLOCK
 62
     0
  0
ENDSEC
  0
SECTION
  2
ENTITIES
  0
ATTDEF
  5
273C8
  8
DEFPOINTS
 10
3174.7085476900638241
 20
199.7851493423247007
 30
0.0
 40
0.001
  1
K-21841T
  3

  2
MODELNUMBER
 70
     0
1001
ACDBATTR
1070
     0
1070
     1
  0
ATTDEF
  5
273C9
  8
DEFPOINTS
 10
3174.7085476900638241
 20
199.7834826756580071
 30
0.0
 40
0.001
  1
MODERNLIFE
  3

  2
TRADENAME
 70
     0
1001
ACDBATTR
1070
     0
1070
     1
  0
ATTDEF
  5
273CA
  8
DEFPOINTS
 10
3174.7085476900638241
 20
199.7818160089913988
 30
0.0
 40
0.001
  1
URINAL
  3

  2
PRODUCT
 70
     0
1001
ACDBATTR
1070
     0
1070
     1
  0
LINE
  5
276D4
  8
0
 10
3179.5769958183768722
 20
199.7804511699555121
 30
0.0
 11
3169.8386409081781494
 21
199.7804511700554997
 31
0.0
  0
ARC
  5
276D5
  8
0
 10
3169.8386409081749662
 20
199.5442318662549894
 30
0.0
 40
0.2362193038004676
 50
89.999999999400714
 51
180.0002834719651901
  0
LINE
  5
276D6
  8
0
 10
3169.6024216043770139
 20
199.5442306975554914
 30
0.0
 11
3169.6024216044770583
 21
195.3178527448557134
 31
0.0
  0
ARC
  5
276D7
  8
0
 10
3169.8386420768761127
 20
195.317852744855486
 30
0.0
 40
0.2362204723983814
 50
179.9999999999380975
 51
181.5144146887531065
  0
ARC
  5
276D8
  8
0
 10
3169.8386420769797951
 20
195.317852744858186
 30
0.0
 40
0.2362204725027305
 50
181.5144146887531065
 51
269.9999999750913275
  0
LINE
  5
276D9
  8
0
 10
3169.8386420768770222
 20
195.0816322723555061
 30
0.0
 11
3179.5769969474768004
 21
195.0816322681442045
 31
0.0
  0
LINE
  5
276DA
  8
0
 10
3169.782006949721108
 20
199.7735614062555101
 30
0.0
 11
3169.4646710554770834
 21
199.7735614062555101
 31
0.0
  0
ARC
  5
276DB
  8
0
 10
3169.4646710574052122
 20
199.5452503607743893
 30
0.0
 40
0.2283110454811066
 50
90.0000004838432659
 51
180.0088542212600089
  0
LINE
  5
276DC
  8
0
 10
3169.2363600146500175
 20
199.5452150786555023
 30
0.0
 11
3169.2363600146500175
 21
198.6909828846139021
 31
0.0
  0
LINE
  5
276DD
  8
0
 10
3169.2363600146500175
 20
197.8640472943010877
 30
0.0
 11
3169.2363600146500175
 21
195.0720700596814936
 31
0.0
  0
ARC
  5
276DE
  8
0
 10
4570.6863429120658111
 20
-31.9038522780511506
 30
0.0
 40
1419.7112818753789725
 50
170.8003762724557077
 51
170.9341902821996086
  0
ARC
  5
276DF
  8
0
 10
3179.3793915797218688
 20
190.8938309575397057
 30
0.0
 40
10.72472228934644
 50
180.4757256621072088
 51
193.1744569239693021
  0
ARC
  5
276E0
  8
0
 10
3171.3099783687980562
 20
189.0464862078079022
 30
0.0
 40
2.4469842429125248
 50
194.1211907483524044
 51
224.5397221245696073
  0
ARC
  5
276E1
  8
0
 10
3172.6105933575290692
 20
191.7114260398903127
 30
0.0
 40
5.3353442886017062
 50
235.2028149891092994
 51
258.6939292019721961
  0
ARC
  5
276E2
  8
0
 10
3173.9306544098949416
 20
199.7327645734619068
 30
0.0
 40
13.4626913848531
 50
259.87774750483959
 51
269.7834554787580146
  0
ARC
  5
276E3
  8
0
 10
3172.4576748095028051
 20
82.6950327568073078
 30
0.0
 40
103.5848989114512051
 50
88.7552761824376972
 51
89.2133717372185373
  0
ARC
  5
276E4
  8
0
 10
3170.5519673882367897
 20
191.679118364225701
 30
0.0
 40
1.8379868585183721
 50
151.3076484332696054
 51
169.9049494390322934
  0
ARC
  5
276E5
  8
0
 10
3171.1132513641027799
 20
191.3506630438270975
 30
0.0
 40
2.4881143092320319
 50
120.9479163077744062
 51
150.8782141545686954
  0
ARC
  5
276E6
  8
0
 10
3172.4024916535367993
 20
189.0350240153879042
 30
0.0
 40
5.1377961742486669
 50
97.5689403092205509
 51
119.9984104388504988
  0
ARC
  5
276E7
  8
0
 10
3173.5881841697660093
 20
180.1564500785885912
 30
0.0
 40
14.09519140235642
 50
90.2227996720428536
 51
97.5928601398457403
  0
ARC
  5
276E8
  8
0
 10
3174.5872351890161553
 20
129.1229384540349088
 30
0.0
 40
65.1371222911167678
 50
89.893921762220117
 51
90.9270356980870531
  0
ARC
  5
276E9
  8
0
 10
3174.707818947576925
 20
193.080630725155487
 30
0.0
 40
1.1237335220034339
 50
145.3140563702754093
 51
34.6857372163709812
  0
ARC
  5
276EA
  8
0
 10
3174.1528306439890912
 20
293.5466851066173035
 30
0.0
 40
99.8272447012631403
 50
269.6164769623322854
 51
270.3185436815730895
  0
ARC
  5
276EB
  8
0
 10
3173.4240489854369116
 20
178.8215327743664034
 30
0.0
 40
14.9002671660068806
 50
89.7670940716672305
 51
95.8927752767272636
  0
ARC
  5
276EC
  8
0
 10
3172.3314818307471796
 20
189.4071408929746951
 30
0.0
 40
4.2584251154852479
 50
95.8927752767272636
 51
114.5943122899744964
  0
ARC
  5
276ED
  8
0
 10
3171.6738530816878665
 20
190.8439034650976112
 30
0.0
 40
2.67831048032633
 50
114.5943122899744964
 51
138.4972509918430887
  0
ARC
  5
276EE
  8
0
 10
3170.7075295178619854
 20
191.6989169932220989
 30
0.0
 40
1.388027812349738
 50
138.4972509918430887
 51
155.6069114735024925
  0
ARC
  5
276EF
  8
0
 10
3174.9206325686709533
 20
189.5120413486029918
 30
0.0
 40
6.1333752504125894
 50
153.2552204455770095
 51
184.8240459411771894
  0
ARC
  5
276F0
  8
0
 10
3174.4091695866131886
 20
60.8521745949776687
 30
0.0
 40
133.9636483787220982
 50
89.8722634902991757
 51
91.2322526153818387
  0
ARC
  5
276F1
  8
0
 10
3170.841802925590855
 20
226.6976394691097028
 30
0.0
 40
31.9201794171517292
 50
269.3498218534672901
 51
271.232253581832822
  0
ARC
  5
276F2
  8
0
 10
3170.0488696050151702
 20
156.8248164180550077
 30
0.0
 40
37.9571426864813191
 50
89.3498218534673327
 51
90.6500915823090878
  0
ARC
  5
276F3
  8
0
 10
3169.6173233936078759
 20
194.857481661110711
 30
0.0
 40
0.077970795969587
 50
223.4973281482176048
 51
270.6500915823090736
  0
ARC
  5
276F4
  8
0
 10
3169.8493896303239126
 20
195.02903836750491
 30
0.0
 40
0.3661037911579068
 50
186.5007326018161962
 51
217.9661703575357024
  0
ARC
  5
276F5
  8
0
 10
3170.9901724442352133
 20
195.2407625249109913
 30
0.0
 40
1.5256851580097099
 50
179.579728762711909
 51
189.5518734679718875
  0
LINE
  5
276F6
  8
0
 10
3169.4645283299769289
 20
195.2519535034554963
 30
0.0
 11
3169.4645283262138946
 21
199.5452150788555059
 31
0.0
  0
ARC
  5
276F7
  8
0
 10
3169.6930763798859516
 20
199.5461910584903933
 30
0.0
 40
0.2285501375492126
 50
95.8241989357360922
 51
180.2446714078706123
  0
LINE
  5
276F8
  8
0
 10
3169.2885949188771519
 20
198.7041441072555017
 30
0.0
 11
3169.1573868819768904
 21
198.6710008654555111
 31
0.0
  0
ARC
  5
276F9
  8
0
 10
3169.1641114121171086
 20
198.6521211512259129
 30
0.0
 40
0.0200415297569752
 50
109.6047570174340962
 51
146.8619310655724064
  0
ARC
  5
276FA
  8
0
 10
3169.651082078160016
 20
198.4566893474766971
 30
0.0
 40
0.5443918708978734
 50
157.7210628260237115
 51
177.5955516153935037
  0
ARC
  5
276FB
  8
0
 10
3170.9513856495432265
 20
198.2899212632979129
 30
0.0
 40
1.853937442165061
 50
174.1299456567161883
 51
191.6503096937771033
  0
ARC
  5
276FC
  8
0
 10
3169.2179236502552158
 20
197.9420712561110918
 30
0.0
 40
0.0864526273465481
 50
197.8711592989153019
 51
217.3629902895922896
  0
ARC
  5
276FD
  8
0
 10
3169.1626553288310788
 20
197.9004370734616884
 30
0.0
 40
0.0172646068652555
 50
218.8537277576577083
 51
252.2322815656320074
  0
ARC
  5
276FE
  8
0
 10
3169.1596894134418108
 20
197.8954351279224113
 30
0.0
 40
0.0116685966840421
 50
258.6192959253110075
 51
314.9073690729923101
  0
ARC
  5
276FF
  8
0
 10
3169.0354634706877732
 20
197.9793174423784876
 30
0.0
 40
0.1613616495884662
 50
325.176082189612373
 51
351.3370978779092866
  0
ARC
  5
27700
  8
0
 10
3167.3917168413067884
 20
198.265984681034098
 30
0.0
 40
1.8298843399971421
 50
350.2156342468708772
 51
1.8287233952207249
  0
ARC
  5
27701
  8
0
 10
3167.7884850114251094
 20
198.3251790639297951
 30
0.0
 40
1.432184410936125
 50
359.9680179860279168
 51
11.9164425269957199
  0
ARC
  5
27702
  8
0
 10
3169.062283111754823
 20
198.5918486224283015
 30
0.0
 40
0.1307905124123628
 50
12.8353024262810091
 51
34.0608193451165278
  0
ARC
  5
27703
  8
0
 10
3169.1579540772809196
 20
198.6553388416880921
 30
0.0
 40
0.0159974676569976
 50
37.2077226303501121
 51
87.4917830259246756
  0
ARC
  5
27704
  8
0
 10
3169.2959135125947796
 20
198.6757564254531019
 30
0.0
 40
0.0293156081257644
 50
81.0465205378404789
 51
104.4567015477472012
  0
ARC
  5
27705
  8
0
 10
3169.2954358705919731
 20
198.6727247834058971
 30
0.0
 40
0.0323846463115976
 50
47.4146874814915122
 51
81.0465205378404789
  0
ARC
  5
27706
  8
0
 10
3169.2715533946320647
 20
198.6477222141166976
 30
0.0
 40
0.0669575722652907
 50
25.3199933209939303
 51
46.8455977740593568
  0
ARC
  5
27707
  8
0
 10
3169.1019095698120509
 20
198.5702444132155051
 30
0.0
 40
0.2534519762816342
 50
13.2852946280376898
 51
24.7509036135649012
  0
ARC
  5
27708
  8
0
 10
3168.4151819836688446
 20
198.408094982156598
 30
0.0
 40
0.9590632117095168
 50
2.2188502586532972
 51
13.2852946280376898
  0
ARC
  5
27709
  8
0
 10
3166.8739544703080355
 20
198.2781903632732963
 30
0.0
 40
2.5051466118925529
 50
355.5522025328460245
 51
3.823160631404289
  0
ARC
  5
2770A
  8
0
 10
3168.3209369519158827
 20
198.1573139162804864
 30
0.0
 40
1.0531804841678329
 50
347.2117143157104238
 51
356.0036301709567965
  0
ARC
  5
2770B
  8
0
 10
3169.1726553613061697
 20
197.9614657184366138
 30
0.0
 40
0.1792553601954444
 50
327.9419115873124042
 51
347.9989899647105744
  0
ARC
  5
2770C
  8
0
 10
3169.2917103219601813
 20
197.8890705101308072
 30
0.0
 40
0.0399713975620952
 50
289.5685803950004811
 51
325.3090074432786878
  0
ARC
  5
2770D
  8
0
 10
3169.295941788916025
 20
197.8789301211438101
 30
0.0
 40
0.0290054538938434
 50
265.3058710008812113
 51
288.4016783832435067
  0
ARC
  5
2770E
  8
0
 10
3169.2960936951649273
 20
197.8804705645725051
 30
0.0
 40
0.0305531722928106
 50
255.4114095391047954
 51
265.258365628365425
  0
LINE
  5
2770F
  8
0
 10
3169.2883980644987787
 20
197.8509024465093091
 30
0.0
 11
3169.1573868819768904
 21
197.8839959628554936
 31
0.0
  0
ARC
  5
27710
  8
0
 10
3169.3498670473140919
 20
198.2777843644095981
 30
0.0
 40
0.2386605243594463
 50
161.8088706878590131
 51
198.3383115241070129
  0
ARC
  5
27711
  8
0
 10
3168.9073222123770392
 20
198.2772159220436947
 30
0.0
 40
0.2284979884420115
 50
340.965779508907417
 51
19.1814115857796388
  0
ARC
  5
27712
  8
0
 10
3169.422841007066836
 20
198.2777843644095981
 30
0.0
 40
0.2386605243594463
 50
161.8088706878590131
 51
198.3383115241070129
  0
ARC
  5
27713
  8
0
 10
3168.9802961721311476
 20
198.2772159220436947
 30
0.0
 40
0.2284979884420115
 50
340.965779508907417
 51
19.1814115857796388
  0
ARC
  5
27714
  8
0
 10
3169.3466346173681814
 20
198.6420653698243086
 30
0.0
 40
0.0104343117180719
 50
90.893309082455076
 51
116.3046934564232942
  0
LINE
  5
27715
  8
0
 10
3169.34647194067702
 20
198.6524984133554881
 30
0.0
 11
3169.3771135137449164
 21
198.6524984133554881
 31
0.0
  0
ARC
  5
27716
  8
0
 10
3169.3770237271210135
 20
198.642304272561887
 30
0.0
 40
0.0101945696757875
 50
56.7613386288061506
 51
89.4744382925156572
  0
ARC
  5
27717
  8
0
 10
3169.3644049889880989
 20
198.6254204313623859
 30
0.0
 40
0.0312598367272633
 50
27.9353507628562312
 51
54.3783672334926393
  0
ARC
  5
27718
  8
0
 10
3168.8323125021452142
 20
198.4344237656194991
 30
0.0
 40
0.596291336977632
 50
2.5915736650890251
 51
20.1736682766160484
  0
ARC
  5
27719
  8
0
 10
3167.2713076805348464
 20
198.280543058626705
 30
0.0
 40
2.164255026668064
 50
353.4037450854507938
 51
4.7931581631165674
  0
ARC
  5
2771A
  8
0
 10
3168.8639188035290317
 20
198.0978393789098959
 30
0.0
 40
0.56120085198712
 50
343.3555376230651177
 51
353.2554476543712099
  0
ARC
  5
2771B
  8
0
 10
3169.2979865485440314
 20
197.9692231368231035
 30
0.0
 40
0.1084861021516844
 50
327.9729813016394928
 51
342.7726860745435147
  0
ARC
  5
2771C
  8
0
 10
3169.3690139833970534
 20
197.9249441274002947
 30
0.0
 40
0.024787500145639
 50
301.0737101255169819
 51
327.6781603728960022
  0
ARC
  5
2771D
  8
0
 10
3169.3756789565081817
 20
197.9177198397215989
 30
0.0
 40
0.0152885406588905
 50
275.3706392509482725
 51
293.6331477253202138
  0
LINE
  5
2771E
  8
0
 10
3169.3771099353771206
 20
197.9024984148555006
 30
0.0
 11
3169.3464719327821513
 21
197.9024984148555006
 31
0.0
  0
ARC
  5
2771F
  8
0
 10
3169.3465936412749215
 20
197.9125965626016068
 30
0.0
 40
0.0100989717214495
 50
244.6488245168864069
 51
269.2680875924955899
  0
ARC
  5
27720
  8
0
 10
3169.3460186145011903
 20
197.914108757298294
 30
0.0
 40
0.0116189065025348
 50
272.1999941354116004
 51
310.9865226079313061
  0
ARC
  5
27721
  8
0
 10
3169.2938813719838436
 20
197.9587640990106081
 30
0.0
 40
0.080158243346682
 50
318.2019534713782036
 51
345.4349679504138066
  0
ARC
  5
27722
  8
0
 10
3168.547296182925038
 20
198.1573233098496019
 30
0.0
 40
0.8526952079639601
 50
345.1374463522161022
 51
356.7409805163866281
  0
ARC
  5
27723
  8
0
 10
3167.1302616818661591
 20
198.2771935176913871
 30
0.0
 40
2.2745889997832172
 50
355.7555687216628826
 51
4.5070364245389953
  0
ARC
  5
27724
  8
0
 10
3168.5569041979688336
 20
198.4012337095298903
 30
0.0
 40
0.8426899771401855
 50
3.7217860990262159
 51
14.5498062101853805
  0
ARC
  5
27725
  8
0
 10
3169.2481598905478677
 20
198.5772184921422934
 30
0.0
 40
0.1294344727923094
 50
16.01845967931391
 51
29.7783388834175611
  0
ARC
  5
27726
  8
0
 10
3169.3369652910778314
 20
198.6283309433769944
 30
0.0
 40
0.0269719848151223
 50
29.2294510021539189
 51
58.6992840912550164
  0
ARC
  5
27727
  8
0
 10
3169.3462256983029874
 20
198.6420680070123126
 30
0.0
 40
0.0104520899007796
 50
62.9557388003746894
 51
86.3087246647158537
  0
LINE
  5
27728
  8
0
 10
3169.9328041802209555
 20
195.0157336168554991
 30
0.0
 11
3179.4828576872641861
 21
195.0157336168554991
 31
0.0
  0
ARC
  5
27729
  8
0
 10
3169.9425253768240509
 20
194.4986365200651903
 30
0.0
 40
0.5171884658152691
 50
91.0770084332516632
 51
102.5082784226382984
  0
ARC
  5
2772A
  8
0
 10
3169.9624085683808516
 20
194.3991080756559029
 30
0.0
 40
0.6186646075860672
 50
102.3096549780644011
 51
115.9902792283515964
  0
ARC
  5
2772B
  8
0
 10
3169.8628504097459881
 20
194.7807889915513044
 30
0.0
 40
0.2446456724433347
 50
134.5255493443690114
 51
180.2981619115001877
  0
ARC
  5
2772C
  8
0
 10
3172.2061872913509433
 20
196.6271241523745914
 30
0.0
 40
1.624996613529518
 50
252.003225054775811
 51
262.5803849539374255
  0
ARC
  5
2772D
  8
0
 10
3179.5770209593101754
 20
199.5442318662549894
 30
0.0
 40
0.2362193038004676
 50
359.9997165280348099
 51
90.0000000005992433
  0
LINE
  5
2772E
  8
0
 10
3179.8132402631081277
 20
199.5442306975554914
 30
0.0
 11
3179.8132402630080833
 21
195.3178527448557134
 31
0.0
  0
ARC
  5
2772F
  8
0
 10
3179.5770197906090289
 20
195.317852744855486
 30
0.0
 40
0.2362204723983814
 50
358.4855853112468935
 51
0.0000000000618809
  0
ARC
  5
27730
  8
0
 10
3179.5770197905048917
 20
195.317852744858186
 30
0.0
 40
0.2362204725027305
 50
270.0000000249086725
 51
358.4855853112468935
  0
LINE
  5
27731
  8
0
 10
3179.6336549177640336
 20
199.7735614062555101
 30
0.0
 11
3179.9509908120080581
 21
199.7735614062555101
 31
0.0
  0
ARC
  5
27732
  8
0
 10
3179.9509908100799294
 20
199.5452503607743893
 30
0.0
 40
0.2283110454811073
 50
359.9911457787383142
 51
89.9999995161567199
  0
LINE
  5
27733
  8
0
 10
3180.179301852835124
 20
199.5452150786555023
 30
0.0
 11
3180.179301852835124
 21
198.6909495339496061
 31
0.0
  0
LINE
  5
27734
  8
0
 10
3180.179301852835124
 20
197.8640472943010877
 30
0.0
 11
3180.179301852835124
 21
195.0720700596814936
 31
0.0
  0
ARC
  5
27735
  8
0
 10
1778.7293191954349822
 20
-31.9038522394622603
 30
0.0
 40
1419.7112816322799063
 50
9.0658097177850436
 51
9.1996237275555295
  0
ARC
  5
27736
  8
0
 10
3170.0362702877619085
 20
190.8938309575397909
 30
0.0
 40
10.7247222893469694
 50
346.8255430760306126
 51
359.5242743378927912
  0
ARC
  5
27737
  8
0
 10
3178.1056834986870854
 20
189.0464862078079022
 30
0.0
 40
2.4469842429125248
 50
315.4602778754303927
 51
345.878809251647624
  0
ARC
  5
27738
  8
0
 10
3176.8050685099569819
 20
191.7114260398903127
 30
0.0
 40
5.3353442886017062
 50
281.3060707980278039
 51
304.7971850108908143
  0
ARC
  5
27739
  8
0
 10
3175.4850074575901999
 20
199.7327645734619068
 30
0.0
 40
13.4626913848531
 50
270.2165445212418717
 51
280.12225249516041
  0
ARC
  5
2773A
  8
0
 10
3176.9579922017769604
 20
82.694742618192663
 30
0.0
 40
103.5851890933401052
 50
90.7866289044488752
 51
91.2447231759081632
  0
ARC
  5
2773B
  8
0
 10
3178.8636944792478971
 20
191.679118364225701
 30
0.0
 40
1.8379868585183721
 50
10.0950505609676497
 51
28.692351566730391
  0
ARC
  5
2773C
  8
0
 10
3178.3024105033809974
 20
191.3506630438270975
 30
0.0
 40
2.4881143092320319
 50
29.1217858454313614
 51
59.0520836922256009
  0
ARC
  5
2773D
  8
0
 10
3177.0131702139478875
 20
189.0350240153879042
 30
0.0
 40
5.1377961742486669
 50
60.0015895611495509
 51
82.4310596907794348
  0
ARC
  5
2773E
  8
0
 10
3175.8274776977191323
 20
180.1564500785885912
 30
0.0
 40
14.09519140235642
 50
82.4071398601542739
 51
89.7772003279571464
  0
ARC
  5
2773F
  8
0
 10
3174.8284266784689862
 20
129.1229384540349088
 30
0.0
 40
65.1371222911167678
 50
89.0729643019129469
 51
90.1060782377798546
  0
ARC
  5
27740
  8
0
 10
3175.2629637223981263
 20
293.3130223708550943
 30
0.0
 40
99.5935863236276049
 50
269.6806327421568881
 51
270.3843466139346106
  0
ARC
  5
27741
  8
0
 10
3175.9916128820477752
 20
178.8215327743664034
 30
0.0
 40
14.9002671660068806
 50
84.1072247232727364
 51
90.2329059283327553
  0
ARC
  5
27742
  8
0
 10
3177.0841800367370524
 20
189.4071408929746951
 30
0.0
 40
4.2584251154852479
 50
65.4056877100254894
 51
84.1072247232727364
  0
ARC
  5
27743
  8
0
 10
3177.7418087857968203
 20
190.8439034650976112
 30
0.0
 40
2.67831048032633
 50
41.5027490081569326
 51
65.4056877100254894
  0
ARC
  5
27744
  8
0
 10
3178.7081323496231562
 20
191.6989169932220989
 30
0.0
 40
1.388027812349738
 50
24.3930885264974684
 51
41.5027490081569326
  0
ARC
  5
27745
  8
0
 10
3174.495029298812824
 20
189.5120413486029918
 30
0.0
 40
6.1333752504125894
 50
355.1759540588228106
 51
26.7447795544229585
  0
ARC
  5
27746
  8
0
 10
3175.0064922808728625
 20
60.8521745948705401
 30
0.0
 40
133.9636483788293049
 50
88.7677473846181755
 51
90.1277365097007959
  0
ARC
  5
27747
  8
0
 10
3178.5738589418938318
 20
226.6976394691097028
 30
0.0
 40
31.9201794171517292
 50
268.767746418167178
 51
270.6501781465327099
  0
ARC
  5
27748
  8
0
 10
3179.3667922624690618
 20
156.8248164180550077
 30
0.0
 40
37.9571426864813191
 50
89.3499084176909406
 51
90.6501781465326815
  0
ARC
  5
27749
  8
0
 10
3179.7983384738768109
 20
194.857481661110711
 30
0.0
 40
0.077970795969587
 50
269.3499084176909264
 51
316.5026718517823952
  0
ARC
  5
2774A
  8
0
 10
3179.5662722371607742
 20
195.02903836750491
 30
0.0
 40
0.3661037911579068
 50
322.0338296424642976
 51
353.4992673981822122
  0
ARC
  5
2774B
  8
0
 10
3178.4254894232499282
 20
195.2407625249109913
 30
0.0
 40
1.5256851580097099
 50
350.4481265320264924
 51
0.4202712372880864
  0
LINE
  5
2774C
  8
0
 10
3179.9511335375068484
 20
195.2519535034554963
 30
0.0
 11
3179.9511335412707922
 21
199.5452150788555059
 31
0.0
  0
ARC
  5
2774D
  8
0
 10
3179.7225854875991899
 20
199.5461910584903933
 30
0.0
 40
0.2285501375492126
 50
359.7553285921293877
 51
84.1758010642638936
  0
LINE
  5
2774E
  8
0
 10
3180.1270669486079896
 20
198.7041441072555017
 30
0.0
 11
3180.2582749855068869
 21
198.6710008654555111
 31
0.0
  0
ARC
  5
2774F
  8
0
 10
3180.2515504553671235
 20
198.6521211512259129
 30
0.0
 40
0.0200415297569752
 50
33.1380689344275794
 51
70.395242982565847
  0
ARC
  5
27750
  8
0
 10
3179.7645797893251256
 20
198.4566893474766971
 30
0.0
 40
0.5443918708978734
 50
2.4044483846065141
 51
22.2789371739762494
  0
ARC
  5
27751
  8
0
 10
3178.4642762179428246
 20
198.2899212632979129
 30
0.0
 40
1.853937442165061
 50
348.3496903062228967
 51
5.8700543432837691
  0
ARC
  5
27752
  8
0
 10
3180.1977382172299258
 20
197.9420712561110918
 30
0.0
 40
0.0864526273465481
 50
322.6370097104075967
 51
342.1288407010845845
  0
ARC
  5
27753
  8
0
 10
3180.2530065386540628
 20
197.9004370734616884
 30
0.0
 40
0.0172646068652555
 50
287.767718434368021
 51
321.1462722423423202
  0
ARC
  5
27754
  8
0
 10
3180.2559724540428761
 20
197.8954351279224113
 30
0.0
 40
0.0116685966840421
 50
225.0926309270076899
 51
281.3807040746889925
  0
ARC
  5
27755
  8
0
 10
3180.3801983967969136
 20
197.9793174423784876
 30
0.0
 40
0.1613616495884662
 50
188.6629021220905997
 51
214.8239178103875986
  0
ARC
  5
27756
  8
0
 10
3182.0239450261788079
 20
198.265984681034098
 30
0.0
 40
1.8298843399971421
 50
178.1712766047776029
 51
189.7843657531290944
  0
ARC
  5
27757
  8
0
 10
3181.6271768560609416
 20
198.3251790639297951
 30
0.0
 40
1.432184410936125
 50
168.0835574730043049
 51
180.0319820139704916
  0
ARC
  5
27758
  8
0
 10
3180.3533787557298638
 20
198.5918486224283015
 30
0.0
 40
0.1307905124123628
 50
145.939180654883387
 51
167.1646975737189962
  0
ARC
  5
27759
  8
0
 10
3180.257707790204222
 20
198.6553388416880921
 30
0.0
 40
0.0159974676569976
 50
92.5082169740753102
 51
142.792277369649895
  0
ARC
  5
2775A
  8
0
 10
3180.1197483548899072
 20
198.6757564254531019
 30
0.0
 40
0.0293156081257644
 50
75.5432984522527704
 51
98.9534794621595069
  0
ARC
  5
2775B
  8
0
 10
3180.1202259968931685
 20
198.6727247834058971
 30
0.0
 40
0.0323846463115976
 50
98.9534794621595069
 51
132.5853125185084878
  0
ARC
  5
2775C
  8
0
 10
3180.1441084728539863
 20
198.6477222141166976
 30
0.0
 40
0.0669575722652907
 50
133.1544022259406006
 51
154.6800066790059986
  0
ARC
  5
2775D
  8
0
 10
3180.3137522976730907
 20
198.5702444132155051
 30
0.0
 40
0.2534519762816342
 50
155.2490963864350988
 51
166.7147053719623102
  0
ARC
  5
2775E
  8
0
 10
3181.0004798838158422
 20
198.408094982156598
 30
0.0
 40
0.9590632117095168
 50
166.7147053719623102
 51
177.7811497413466952
  0
ARC
  5
2775F
  8
0
 10
3182.541707397177106
 20
198.2781903632732963
 30
0.0
 40
2.5051466118925529
 50
176.1768393685956937
 51
184.4477974671540039
  0
ARC
  5
27760
  8
0
 10
3181.0947249155688041
 20
198.1573139162804864
 30
0.0
 40
1.0531804841678329
 50
183.9963698290432035
 51
192.7882856842896899
  0
ARC
  5
27761
  8
0
 10
3180.2430065061789719
 20
197.9614657184366138
 30
0.0
 40
0.1792553601954444
 50
192.0010100352893971
 51
212.0580884126875958
  0
ARC
  5
27762
  8
0
 10
3180.1239515455249602
 20
197.8890705101308072
 30
0.0
 40
0.0399713975620952
 50
214.6909925567213122
 51
250.4314196049994052
  0
ARC
  5
27763
  8
0
 10
3180.1197200785691166
 20
197.8789301211438101
 30
0.0
 40
0.0290054538938434
 50
251.5983216167564933
 51
274.6941289991187887
  0
ARC
  5
27764
  8
0
 10
3180.1195681723202142
 20
197.8804705645725051
 30
0.0
 40
0.0305531722928106
 50
274.741634371634575
 51
284.5885904608952046
  0
LINE
  5
27765
  8
0
 10
3180.1272638029868176
 20
197.8509024465093091
 30
0.0
 11
3180.2582749855068869
 21
197.8839959628554936
 31
0.0
  0
ARC
  5
27766
  8
0
 10
3180.0657948201710497
 20
198.2777843644095981
 30
0.0
 40
0.2386605243594463
 50
341.6616884758914807
 51
18.1911293121409301
  0
ARC
  5
27767
  8
0
 10
3180.5083396551081023
 20
198.2772159220436947
 30
0.0
 40
0.2284979884420115
 50
160.8185884142203008
 51
199.0342204910926114
  0
ARC
  5
27768
  8
0
 10
3179.9928208604169413
 20
198.2777843644095981
 30
0.0
 40
0.2386605243594463
 50
341.6616884758914807
 51
18.1911293121409301
  0
ARC
  5
27769
  8
0
 10
3180.4353656953539939
 20
198.2772159220436947
 30
0.0
 40
0.2284979884420115
 50
160.8185884142203008
 51
199.0342204910926114
  0
ARC
  5
2776A
  8
0
 10
3180.0690272501169602
 20
198.6420653698243086
 30
0.0
 40
0.0104343117180719
 50
63.6953065435766632
 51
89.1066909175449382
  0
LINE
  5
2776B
  8
0
 10
3180.0691899268081215
 20
198.6524984133554881
 30
0.0
 11
3180.0385483537402251
 21
198.6524984133554881
 31
0.0
  0
ARC
  5
2776C
  8
0
 10
3180.038638140364128
 20
198.642304272561887
 30
0.0
 40
0.0101945696757875
 50
90.5255617074843286
 51
123.2386613711937997
  0
ARC
  5
2776D
  8
0
 10
3180.0512568784970426
 20
198.6254204313623859
 30
0.0
 40
0.0312598367272633
 50
125.6216327665073038
 51
152.0646492371438114
  0
ARC
  5
2776E
  8
0
 10
3180.5833493653399273
 20
198.4344237656194991
 30
0.0
 40
0.596291336977632
 50
159.8263317233839018
 51
177.4084263349110131
  0
ARC
  5
2776F
  8
0
 10
3182.1443541869498404
 20
198.280543058626705
 30
0.0
 40
2.164255026668064
 50
175.2068418368833989
 51
186.5962549145475862
  0
ARC
  5
27770
  8
0
 10
3180.5517430639561098
 20
198.0978393789098959
 30
0.0
 40
0.56120085198712
 50
186.7445523456287901
 51
196.6444623769349107
  0
ARC
  5
27771
  8
0
 10
3180.1176753189411102
 20
197.9692231368231035
 30
0.0
 40
0.1084861021516844
 50
197.2273139254565137
 51
212.0270186983605072
  0
ARC
  5
27772
  8
0
 10
3180.0466478840871787
 20
197.9249441274002947
 30
0.0
 40
0.024787500145639
 50
212.3218396271039978
 51
238.9262898744829897
  0
ARC
  5
27773
  8
0
 10
3180.0399829109769598
 20
197.9177198397215989
 30
0.0
 40
0.0152885406588905
 50
246.3668522746797009
 51
264.6293607490517275
  0
LINE
  5
27774
  8
0
 10
3180.038551932108021
 20
197.9024984148555006
 30
0.0
 11
3180.0691899347029903
 21
197.9024984148555006
 31
0.0
  0
ARC
  5
27775
  8
0
 10
3180.06906822621022
 20
197.9125965626016068
 30
0.0
 40
0.0100989717214495
 50
270.7319124075044101
 51
295.3511754831135931
  0
ARC
  5
27776
  8
0
 10
3180.0696432529839512
 20
197.914108757298294
 30
0.0
 40
0.0116189065025348
 50
229.0134773920686939
 51
267.8000058645883996
  0
ARC
  5
27777
  8
0
 10
3180.1217804955008432
 20
197.9587640990106081
 30
0.0
 40
0.080158243346682
 50
194.5650320495861934
 51
221.798046528620489
  0
ARC
  5
27778
  8
0
 10
3180.8683656845601035
 20
198.1573233098496019
 30
0.0
 40
0.8526952079639601
 50
183.2590194836132866
 51
194.8625536477840114
  0
ARC
  5
27779
  8
0
 10
3182.2854001856189825
 20
198.2771935176913871
 30
0.0
 40
2.2745889997832172
 50
175.4929635754610047
 51
184.2444312783354974
  0
ARC
  5
2777A
  8
0
 10
3180.8587576695149437
 20
198.4012337095298903
 30
0.0
 40
0.8426899771401855
 50
165.4501937898145911
 51
176.2782139009738103
  0
ARC
  5
2777B
  8
0
 10
3180.1675019769368191
 20
198.5772184921422934
 30
0.0
 40
0.1294344727923094
 50
150.2216611165823963
 51
163.9815403206860935
  0
ARC
  5
2777C
  8
0
 10
3180.0786965764082197
 20
198.6283309433769944
 30
0.0
 40
0.0269719848151223
 50
121.3007159087450049
 51
150.770548997846106
  0
ARC
  5
2777D
  8
0
 10
3180.0694361691821541
 20
198.6420680070123126
 30
0.0
 40
0.0104520899007796
 50
93.6912753352841321
 51
117.0442611996252964
  0
ARC
  5
2777E
  8
0
 10
3179.4731364906610906
 20
194.4986365200651051
 30
0.0
 40
0.5171884658153156
 50
77.4917215773617158
 51
88.9229915667483368
  0
ARC
  5
2777F
  8
0
 10
3179.4532532991051994
 20
194.3991080756559029
 30
0.0
 40
0.6186646075860672
 50
64.0097207716483609
 51
77.6903450219355989
  0
ARC
  5
27780
  8
0
 10
3179.5528114577377892
 20
194.7807889915513044
 30
0.0
 40
0.2446456724433347
 50
359.701838088498107
 51
45.4744506556310171
  0
ARC
  5
27781
  8
0
 10
3177.209474576132834
 20
196.6271241523745914
 30
0.0
 40
1.624996613529518
 50
277.4196150460625745
 51
287.9967749452242174
  0
ARC
  5
27782
  8
0
 10
3168.0129284050790375
 20
190.5969122002894949
 30
0.0
 40
12.7493892399630795
 50
0.9342214120395823
 51
5.4073975937193071
  0
ARC
  5
27783
  8
0
 10
3180.9821890568109666
 20
190.6202093643221076
 30
0.0
 40
12.3285318449652994
 50
174.5162114905826911
 51
179.1421695036902975
  0
ARC
  5
27785
  8
0
 10
3174.707818947576925
 20
193.080630725155487
 30
0.0
 40
1.085271248299998
 50
143.9071174310452932
 51
36.0926449452994902
  0
ENDSEC
  0
EOF
