  0
SECTION
  2
HEADER
  9
$ACADVER
  1
AC1009
  9
$INSBASE
 10
3174.7080658582867727
 20
143.8492416722586995
 30
0.0
  9
$EXTMIN
 10
3168.453827152653048
 20
143.8412221069046097
 30
-0.0000000349181948
  9
$EXTMAX
 10
3181.0736646384871165
 20
183.2882779042435004
 30
0.0000000814935746
  9
$LIMMIN
 10
0.0
 20
0.0
  9
$LIMMAX
 10
11.6929133858000007
 20
8.2677165353999982
  9
$ORTHOMODE
 70
     1
  9
$REGENMODE
 70
     1
  9
$FILLMODE
 70
     1
  9
$QTEXTMODE
 70
     0
  9
$MIRRTEXT
 70
     0
  9
$DRAGMODE
 70
     2
  9
$LTSCALE
 40
0.6431102362
  9
$OSMODE
 70
  2039
  9
$ATTMODE
 70
     1
  9
$TEXTSIZE
 40
0.2
  9
$TRACEWID
 40
0.05
  9
$TEXTSTYLE
  7
STANDARD
  9
$CLAYER
  8
0
  9
$CELTYPE
  6
BYLAYER
  9
$CECOLOR
 62
   256
  9
$DIMSCALE
 40
1.0
  9
$DIMASZ
 40
0.1875
  9
$DIMEXO
 40
0.0625
  9
$DIMDLI
 40
0.4443307087
  9
$DIMRND
 40
0.0
  9
$DIMDLE
 40
0.0
  9
$DIMEXE
 40
0.125
  9
$DIMTP
 40
0.01
  9
$DIMTM
 40
0.01
  9
$DIMTXT
 40
2.0
  9
$DIMCEN
 40
0.1052362205
  9
$DIMTSZ
 40
0.0
  9
$DIMTOL
 70
     1
  9
$DIMLIM
 70
     0
  9
$DIMTIH
 70
     1
  9
$DIMTOH
 70
     1
  9
$DIMSE1
 70
     0
  9
$DIMSE2
 70
     0
  9
$DIMTAD
 70
     0
  9
$DIMZIN
 70
     0
  9
$DIMBLK
  1

  9
$DIMASO
 70
     1
  9
$DIMSHO
 70
     1
  9
$DIMPOST
  1
\X
  9
$DIMAPOST
  1

  9
$DIMALT
 70
     1
  9
$DIMALTD
 70
     2
  9
$DIMALTF
 40
25.3999999999999986
  9
$DIMLFAC
 40
1.0
  9
$DIMTOFL
 70
     0
  9
$DIMTVP
 40
0.0
  9
$DIMTIX
 70
     0
  9
$DIMSOXD
 70
     0
  9
$DIMSAH
 70
     0
  9
$DIMBLK1
  1

  9
$DIMBLK2
  1

  9
$DIMSTYLE
  2
STANDARD
  9
$DIMCLRD
 70
     0
  9
$DIMCLRE
 70
     0
  9
$DIMCLRT
 70
     0
  9
$DIMTFAC
 40
1.0
  9
$DIMGAP
 40
0.09
  9
$LUNITS
 70
     2
  9
$LUPREC
 70
     4
  9
$SKETCHINC
 40
0.1
  9
$FILLETRAD
 40
0.0
  9
$AUNITS
 70
     0
  9
$AUPREC
 70
     0
  9
$MENU
  1
.
  9
$ELEVATION
 40
0.0
  9
$PELEVATION
 40
0.0
  9
$THICKNESS
 40
0.0
  9
$LIMCHECK
 70
     0
  9
$BLIPMODE
 70
     0
  9
$CHAMFERA
 40
0.0
  9
$CHAMFERB
 40
0.0
  9
$SKPOLY
 70
     0
  9
$TDCREATE
 40
2458060.468368056230247
  9
$TDUPDATE
 40
2459327.3825694448314607
  9
$TDINDWG
 40
0.6140579861
  9
$TDUSRTIMER
 40
0.6140579861
  9
$USRTIMER
 70
     1
  9
$ANGBASE
 50
0.0
  9
$ANGDIR
 70
     0
  9
$PDMODE
 70
     0
  9
$PDSIZE
 40
0.3125
  9
$PLINEWID
 40
0.0
  9
$COORDS
 70
     1
  9
$SPLFRAME
 70
     0
  9
$SPLINETYPE
 70
     6
  9
$SPLINESEGS
 70
     8
  9
$ATTDIA
 70
     1
  9
$ATTREQ
 70
     1
  9
$HANDLING
 70
     1
  9
$HANDSEED
  5
27A6A
  9
$SURFTAB1
 70
     6
  9
$SURFTAB2
 70
     6
  9
$SURFTYPE
 70
     6
  9
$SURFU
 70
     6
  9
$SURFV
 70
     6
  9
$UCSNAME
  2

  9
$UCSORG
 10
0.0
 20
0.0
 30
0.0
  9
$UCSXDIR
 10
1.0
 20
0.0
 30
0.0
  9
$UCSYDIR
 10
0.0
 20
1.0
 30
0.0
  9
$PUCSNAME
  2

  9
$PUCSORG
 10
0.0
 20
0.0
 30
0.0
  9
$PUCSXDIR
 10
1.0
 20
0.0
 30
0.0
  9
$PUCSYDIR
 10
0.0
 20
1.0
 30
0.0
  9
$USERI1
 70
     0
  9
$USERI2
 70
     0
  9
$USERI3
 70
     0
  9
$USERI4
 70
     0
  9
$USERI5
 70
     0
  9
$USERR1
 40
0.0
  9
$USERR2
 40
0.0
  9
$USERR3
 40
0.0
  9
$USERR4
 40
0.0
  9
$USERR5
 40
0.0
  9
$WORLDVIEW
 70
     1
  9
$SHADEDGE
 70
     3
  9
$SHADEDIF
 70
    70
  9
$TILEMODE
 70
     1
  9
$MAXACTVP
 70
    64
  9
$PLIMCHECK
 70
     0
  9
$PEXTMIN
 10
1.0000000000000000E+20
 20
1.0000000000000000E+20
 30
1.0000000000000000E+20
  9
$PEXTMAX
 10
-1.0000000000000000E+20
 20
-1.0000000000000000E+20
 30
-1.0000000000000000E+20
  9
$PLIMMIN
 10
0.0
 20
0.0
  9
$PLIMMAX
 10
12.0
 20
9.0
  9
$UNITMODE
 70
     0
  9
$VISRETAIN
 70
     1
  9
$PLINEGEN
 70
     0
  9
$PSLTSCALE
 70
     1
  0
ENDSEC
  0
SECTION
  2
TABLES
  0
TABLE
  2
VPORT
 70
     1
  0
VPORT
  2
*ACTIVE
 70
     0
 10
0.0
 20
0.0
 11
1.0
 21
1.0
 12
-128.9293693388052873
 22
-31.6967615703137007
 13
0.0
 23
0.0
 14
1.0
 24
1.0
 15
0.0
 25
0.0
 16
0.0
 26
0.0
 36
96.5995694866707311
 17
3303.693115234375
 27
195.2615115758877096
 37
0.0
 40
39.7753253324068723
 41
2.6486111111111108
 42
50.0
 43
0.0
 44
0.0
 50
0.0
 51
0.0
 71
     0
 72
   100
 73
     1
 74
     1
 75
     0
 76
     0
 77
     0
 78
     0
  0
ENDTAB
  0
TABLE
  2
LTYPE
 70
     2
  0
LTYPE
  2
CONTINUOUS
 70
     0
  3
Solid line
 72
    65
 73
     0
 40
0.0
  0
LTYPE
  2
PHANTOM2
 70
     0
  3
___ _ _ ___ _ _ ___ _ _ ___ _ _
 72
    65
 73
     6
 40
1.25
 49
0.625
 49
-0.125
 49
0.125
 49
-0.125
 49
0.125
 49
-0.125
  0
ENDTAB
  0
TABLE
  2
LAYER
 70
     2
  0
LAYER
  2
0
 70
     0
 62
   255
  6
CONTINUOUS
  0
LAYER
  2
DEFPOINTS
 70
     0
 62
     7
  6
CONTINUOUS
  0
ENDTAB
  0
TABLE
  2
STYLE
 70
     1
  0
STYLE
  2
STANDARD
 70
     0
 40
0.0
 41
0.8
 50
0.0
 71
     0
 42
0.2
  3
txt
  4

  0
ENDTAB
  0
TABLE
  2
VIEW
 70
     0
  0
ENDTAB
  0
TABLE
  2
UCS
 70
     0
  0
ENDTAB
  0
TABLE
  2
APPID
 70
     9
  0
APPID
  2
ACAD
 70
     0
  0
APPID
  2
ACAD_MLEADERVER
 70
     0
  0
APPID
  2
ACAD_EXEMPT_FROM_CAD_STANDARDS
 70
     0
  0
APPID
  2
ACAD_NAV_VCDISPLAY
 70
     0
  0
APPID
  2
ACAECLAYERSTANDARD
 70
     0
  0
APPID
  2
ACCMTRANSPARENCY
 70
     0
  0
APPID
  2
ACAD_DSTYLE_DIMJAG
 70
     0
  0
APPID
  2
ACAD_DSTYLE_DIMTALN
 70
     0
  0
APPID
  2
ACDBATTR
 70
     0
  0
ENDTAB
  0
TABLE
  2
DIMSTYLE
 70
     1
  0
DIMSTYLE
  2
STANDARD
 70
     0
  3

  4

  5

  6

  7

 40
1.0
 41
0.1875
 42
0.0625
 43
0.38
 44
0.125
 45
0.0
 46
0.0
 47
0.01
 48
0.01
140
0.15625
141
0.09
142
0.0
143
25.3999999999999986
144
1.0
145
0.0
146
1.0
147
0.09
 71
     1
 72
     0
 73
     1
 74
     1
 75
     0
 76
     0
 77
     0
 78
     4
170
     0
171
     2
172
     0
173
     0
174
     0
175
     0
176
     0
177
     0
178
     0
  0
ENDTAB
  0
ENDSEC
  0
SECTION
  2
BLOCKS
  0
BLOCK
  8
0
  2
$MODEL_SPACE
 70
     0
 10
0.0
 20
0.0
 30
0.0
  3
$MODEL_SPACE
  1

  0
ENDBLK
  5
21
  8
0
  0
BLOCK
 67
     1
  8
0
  2
$PAPER_SPACE
 70
     0
 10
0.0
 20
0.0
 30
0.0
  3
$PAPER_SPACE
  1

  0
ENDBLK
  5
1D
 67
     1
  8
0
  0
BLOCK
  8
0
  2
_FILLED
 70
     0
 10
0.0
 20
0.0
 30
0.0
  3
_FILLED
  1

  0
SOLID
  5
211E5
  8
0
  6
BYBLOCK
 62
     0
 10
0.0
 20
0.0
 30
0.0
 11
-1.0
 21
0.1666666667
 31
0.0
 12
-1.0
 22
-0.1666666667
 32
0.0
 13
-1.0
 23
-0.1666666667
 33
0.0
  0
ENDBLK
  5
211E6
  8
0
  6
BYBLOCK
 62
     0
  0
ENDSEC
  0
SECTION
  2
ENTITIES
  0
ATTDEF
  5
273C5
  8
DEFPOINTS
 10
3174.7085476900638241
 20
143.8537618994729996
 30
0.0
 40
0.001
  1
K-21842T
  3

  2
MODELNUMBER
 70
     0
1001
ACDBATTR
1070
     0
1070
     1
  0
ATTDEF
  5
273C6
  8
DEFPOINTS
 10
3174.7085476900638241
 20
143.8520952328063061
 30
0.0
 40
0.001
  1
MODERNLIFE
  3

  2
TRADENAME
 70
     0
1001
ACDBATTR
1070
     0
1070
     1
  0
ATTDEF
  5
273C7
  8
DEFPOINTS
 10
3174.7085476900638241
 20
143.8504285661396978
 30
0.0
 40
0.001
  1
URINAL
  3

  2
PRODUCT
 70
     0
1001
ACDBATTR
1070
     0
1070
     1
  0
LINE
  5
277EE
  8
0
 10
3179.4694425334869265
 20
143.8492416722586995
 30
0.0
 11
3169.9466891830870736
 21
143.8492416722586995
 31
0.0
  0
ARC
  5
277EF
  8
0
 10
3169.9466891830870736
 20
144.0854691400847116
 30
0.0
 40
0.2362274678259517
 50
182.0678980523252051
 51
270.0
  0
ARC
  5
277F0
  8
0
 10
2401.4025377556499734
 20
116.3354081129159994
 30
0.0
 40
768.8087507878872202
 50
2.067898052325194
 51
3.4554274106502501
  0
ARC
  5
277F1
  8
0
 10
3320.8867844310689179
 20
171.8555298518988081
 30
0.0
 40
152.3501735037758067
 50
178.6190351096273048
 51
183.4554274106502021
  0
ARC
  5
277F2
  8
0
 10
3340.5027180663691979
 20
171.382647509887704
 30
0.0
 40
171.9718062109151049
 50
177.6168422105924947
 51
178.6190351096273048
  0
ARC
  5
277F3
  8
0
 10
3174.8064417048831274
 20
178.2785873950176949
 30
0.0
 40
6.1320944800956267
 50
155.7867045970982929
 51
177.6168422105924947
  0
ARC
  5
277F4
  8
0
 10
3172.8510122468569534
 20
179.157937697646787
 30
0.0
 40
3.9880419340862052
 50
115.2049874495699981
 51
155.7867045970982929
  0
ARC
  5
277F5
  8
0
 10
3173.8330561588418277
 20
175.7718229367362994
 30
0.0
 40
7.490451239886422
 50
91.5537896417549177
 51
110.9676071691229993
  0
ARC
  5
277F6
  8
0
 10
3164.395718096498058
 20
782.9455076506003479
 30
0.0
 40
599.7570798274476829
 50
270.8821961515280918
 51
270.9852031511454129
  0
CIRCLE
  5
277F7
  8
0
 10
3174.6958421802869452
 20
178.7370635706587052
 30
0.0
 40
1.0408489143315101
  0
ARC
  5
277F8
  8
0
 10
3183.5285175116669052
 20
162.6653161511999031
 30
0.0
 40
14.70891333359355
 50
186.4006812155101045
 51
192.0284936322618137
  0
ARC
  5
277F9
  8
0
 10
3172.7744762232910034
 20
160.3738838247186891
 30
0.0
 40
3.7134567201118478
 50
192.0284936322618137
 51
228.3005576872245967
  0
ARC
  5
277FA
  8
0
 10
3173.3704932453269976
 20
161.384100567894194
 30
0.0
 40
4.8695081081445437
 50
230.9725389348328974
 51
253.6652840396841952
  0
ARC
  5
277FB
  8
0
 10
3174.0223234628119826
 20
163.6600092759611869
 30
0.0
 40
7.2368906540937123
 50
253.7806859420875014
 51
267.0905300810454719
  0
ARC
  5
277FC
  8
0
 10
3174.6274077048778963
 20
172.7591875751924135
 30
0.0
 40
16.3556731458894795
 50
266.5915118970910953
 51
270.2825218253660182
  0
ARC
  5
277FD
  8
0
 10
3172.7655050537900934
 20
160.3642825667701004
 30
0.0
 40
3.1145392101400571
 50
195.9512325466210996
 51
234.7332636686487888
  0
ARC
  5
277FE
  8
0
 10
3182.6900337011838928
 20
163.8906424012797061
 30
0.0
 40
13.6421708962877393
 50
188.7263945040243129
 51
198.7374153697475094
  0
ARC
  5
277FF
  8
0
 10
3330.1426322153879482
 20
184.645324132076297
 30
0.0
 40
162.5472962084679978
 50
186.4989001984041863
 51
188.0719826544548141
  0
ARC
  5
27800
  8
0
 10
3173.6391715043578188
 20
161.4331605311163003
 30
0.0
 40
4.492719376000136
 50
233.5066820522191904
 51
248.6239683565079019
  0
ARC
  5
27801
  8
0
 10
3173.9768791651458741
 20
162.295951167787905
 30
0.0
 40
5.4192473825295107
 50
248.6239683565079019
 51
262.657475881579785
  0
ARC
  5
27802
  8
0
 10
3174.6001918865058542
 20
167.1331802389208008
 30
0.0
 40
10.2964703459813496
 50
262.657475881579785
 51
267.3342865390964107
  0
ARC
  5
27803
  8
0
 10
3174.6393548516762166
 20
167.9743259107150948
 30
0.0
 40
11.1385272199626595
 50
267.3342865390964107
 51
270.3534406181852887
  0
ARC
  5
27804
  8
0
 10
3179.4694231300868523
 20
144.0854691400847116
 30
0.0
 40
0.2362274678259517
 50
270.0
 51
357.9321019476748234
  0
ARC
  5
27805
  8
0
 10
3948.013574557523043
 20
116.3354081129159994
 30
0.0
 40
768.8087507878872202
 50
176.5445725893497126
 51
177.9321019476747949
  0
ARC
  5
27806
  8
0
 10
3028.529327882105008
 20
171.8555298518988081
 30
0.0
 40
152.3501735037758067
 50
356.5445725893496842
 51
1.3809648903727429
  0
ARC
  5
27807
  8
0
 10
3008.9133942468051828
 20
171.382647509887704
 30
0.0
 40
171.9718062109151049
 50
1.3809648903727429
 51
2.3831577894074809
  0
ARC
  5
27808
  8
0
 10
3174.6096706082907986
 20
178.2785873950176949
 30
0.0
 40
6.1320944800956267
 50
2.3831577894074809
 51
24.2132954029016609
  0
ARC
  5
27809
  8
0
 10
3176.5651000663169725
 20
179.157937697646787
 30
0.0
 40
3.9880419340862052
 50
24.2132954029016609
 51
64.7950125504300019
  0
ARC
  5
2780A
  8
0
 10
3175.5830561543320982
 20
175.7718229367362994
 30
0.0
 40
7.490451239886422
 50
69.0323928308769581
 51
88.4462103582450681
  0
ARC
  5
2780B
  8
0
 10
3185.0203942166849629
 20
782.9455076511653715
 30
0.0
 40
599.7570798280128201
 50
269.0147968488545871
 51
269.1178038484720219
  0
ARC
  5
2780C
  8
0
 10
3165.8875948015070207
 20
162.6653161511999031
 30
0.0
 40
14.70891333359355
 50
347.9715063677381863
 51
353.5993187844899239
  0
ARC
  5
2780D
  8
0
 10
3176.6416360898829225
 20
160.3738838247186891
 30
0.0
 40
3.7134567201118478
 50
311.6994423127753748
 51
347.9715063677381863
  0
ARC
  5
2780E
  8
0
 10
3176.0456190678460189
 20
161.384100567894194
 30
0.0
 40
4.8695081081445437
 50
286.3347159603159184
 51
309.0274610651670741
  0
ARC
  5
2780F
  8
0
 10
3175.3937888503619433
 20
163.6600092759611869
 30
0.0
 40
7.2368906540937123
 50
272.9094699189545281
 51
286.219314057912527
  0
ARC
  5
27810
  8
0
 10
3174.7887046082960296
 20
172.7591875751924135
 30
0.0
 40
16.3556731458894795
 50
269.7174781746339818
 51
273.408488102908791
  0
ARC
  5
27811
  8
0
 10
3176.6506072593838326
 20
160.3642825667701004
 30
0.0
 40
3.1145392101400571
 50
305.2667363313511828
 51
344.0487674533787867
  0
ARC
  5
27812
  8
0
 10
3166.7260786119900331
 20
163.8906424012797061
 30
0.0
 40
13.6421708962877393
 50
341.2625846302524906
 51
351.2736054959755734
  0
ARC
  5
27813
  8
0
 10
3019.2734800977859777
 20
184.645324132076297
 30
0.0
 40
162.5472962084679978
 50
351.9280173455450722
 51
353.5010998015957853
  0
ARC
  5
27814
  8
0
 10
3175.7769408088170167
 20
161.4331605311163003
 30
0.0
 40
4.492719376000136
 50
291.3760316434921265
 51
306.4933179477807812
  0
ARC
  5
27815
  8
0
 10
3175.4392331480280518
 20
162.295951167787905
 30
0.0
 40
5.4192473825295107
 50
277.342524118420215
 51
291.3760316434921265
  0
ARC
  5
27816
  8
0
 10
3174.8159204266680717
 20
167.1331802389208008
 30
0.0
 40
10.2964703459813496
 50
272.6657134609035893
 51
277.342524118420215
  0
ARC
  5
27817
  8
0
 10
3174.776757461498164
 20
167.9743259107150948
 30
0.0
 40
11.1385272199626595
 50
269.6465593818145976
 51
272.6657134609035893
  0
ENDSEC
  0
EOF
